ISO-10303-21;
HEADER;
/* Generated by software containing ST-Developer
 * from STEP Tools, Inc. (www.steptools.com) 
 */
/* OPTION: using custom schema-name function */

FILE_DESCRIPTION(
/* description */ (''),
/* implementation_level */ '2;1');

FILE_NAME(
/* name */ 'APMR-BNM16-D16-C16-L175.stp',
/* time_stamp */ '2023-10-02T11:34:11+03:00',
/* author */ (''),
/* organization */ (''),
/* preprocessor_version */ 'ST-DEVELOPER v19.4',
/* originating_system */ 'SIEMENS PLM Software NX2306.5001',
/* authorisation */ '');

FILE_SCHEMA (('AUTOMOTIVE_DESIGN { 1 0 10303 214 3 1 1 1 }'));
ENDSEC;

DATA;
#10=PROPERTY_DEFINITION_REPRESENTATION(#14,#12);
#11=PROPERTY_DEFINITION_REPRESENTATION(#15,#13);
#12=REPRESENTATION('',(#16),#309);
#13=REPRESENTATION('',(#17),#309);
#14=PROPERTY_DEFINITION('pmi validation property','',#21);
#15=PROPERTY_DEFINITION('pmi validation property','',#21);
#16=VALUE_REPRESENTATION_ITEM('number of annotations',COUNT_MEASURE(0.));
#17=VALUE_REPRESENTATION_ITEM('number of views',COUNT_MEASURE(0.));
#18=SHAPE_REPRESENTATION_RELATIONSHIP('None',
'relationship between APMR-BNM16-D16-C16-L175-LIGHT_x_t_objects-None a
nd APMR-BNM16-D16-C16-L175-LIGHT_x_t_objects-None',#30,#19);
#19=ADVANCED_BREP_SHAPE_REPRESENTATION(
'APMR-BNM16-D16-C16-L175-LIGHT_x_t_objects-None',(#55,#56),#309);
#20=SHAPE_DEFINITION_REPRESENTATION(#21,#30);
#21=PRODUCT_DEFINITION_SHAPE('','',#22);
#22=PRODUCT_DEFINITION(' ','',#24,#23);
#23=PRODUCT_DEFINITION_CONTEXT('part definition',#29,'design');
#24=PRODUCT_DEFINITION_FORMATION_WITH_SPECIFIED_SOURCE(' ',' ',#26,
 .NOT_KNOWN.);
#25=PRODUCT_RELATED_PRODUCT_CATEGORY('part','',(#26));
#26=PRODUCT('APMR-BNM16-D16-C16-L175-LIGHT_x_t_objects',
'APMR-BNM16-D16-C16-L175-LIGHT_x_t_objects',' ',(#27));
#27=PRODUCT_CONTEXT(' ',#29,'mechanical');
#28=APPLICATION_PROTOCOL_DEFINITION('international standard',
'automotive_design',2010,#29);
#29=APPLICATION_CONTEXT(
'core data for automotive mechanical design processes');
#30=SHAPE_REPRESENTATION(
'APMR-BNM16-D16-C16-L175-LIGHT_x_t_objects-None',(#184),#309);
#31=COLOUR_RGB('silver gray',0.6,0.6,0.6);
#32=CONICAL_SURFACE('',#199,7.75,9.99999999999998);
#33=CONICAL_SURFACE('',#203,8.,45.);
#34=CONICAL_SURFACE('',#205,7.75,1.44412553093582);
#35=CYLINDRICAL_SURFACE('',#197,7.75);
#36=CYLINDRICAL_SURFACE('',#201,8.);
#37=CYLINDRICAL_SURFACE('',#206,7.);
#38=TOROIDAL_SURFACE('',#195,6.24999999999992,1.5);
#39=PRESENTATION_LAYER_ASSIGNMENT('1','Layer 1',(#55,#56));
#40=STYLED_ITEM('',(#42),#55);
#41=STYLED_ITEM('',(#43),#56);
#42=PRESENTATION_STYLE_ASSIGNMENT((#44));
#43=PRESENTATION_STYLE_ASSIGNMENT((#45));
#44=SURFACE_STYLE_USAGE(.BOTH.,#46);
#45=SURFACE_STYLE_USAGE(.BOTH.,#47);
#46=SURFACE_SIDE_STYLE('',(#48));
#47=SURFACE_SIDE_STYLE('',(#49));
#48=SURFACE_STYLE_FILL_AREA(#50);
#49=SURFACE_STYLE_FILL_AREA(#51);
#50=FILL_AREA_STYLE('',(#52));
#51=FILL_AREA_STYLE('',(#53));
#52=FILL_AREA_STYLE_COLOUR('',#54);
#53=FILL_AREA_STYLE_COLOUR('',#31);
#54=DRAUGHTING_PRE_DEFINED_COLOUR('yellow');
#55=MANIFOLD_SOLID_BREP('',#57);
#56=MANIFOLD_SOLID_BREP('',#58);
#57=CLOSED_SHELL('',(#67,#68,#69,#70));
#58=CLOSED_SHELL('',(#71,#72,#73,#74,#75,#76,#77,#78,#79));
#59=PLANE('',#189);
#60=PLANE('',#193);
#61=FACE_OUTER_BOUND('',#111,.T.);
#62=FACE_OUTER_BOUND('',#112,.T.);
#63=FACE_OUTER_BOUND('',#113,.T.);
#64=SPHERICAL_SURFACE('',#188,8.);
#65=SPHERICAL_SURFACE('',#191,7.);
#66=(
BOUNDED_CURVE()
B_SPLINE_CURVE(3,(#274,#275,#276,#277),.UNSPECIFIED.,.F.,.F.)
B_SPLINE_CURVE_WITH_KNOTS((4,4),(0.,1.),.UNSPECIFIED.)
CURVE()
GEOMETRIC_REPRESENTATION_ITEM()
RATIONAL_B_SPLINE_CURVE((0.500359715993082,0.499880094668973,0.499880094668973,
0.500359715993082))
REPRESENTATION_ITEM('')
);
#67=ADVANCED_FACE('',(#86,#87),#80,.T.);
#68=ADVANCED_FACE('',(#88,#89),#81,.T.);
#69=ADVANCED_FACE('',(#90,#91),#64,.T.);
#70=ADVANCED_FACE('',(#61),#59,.F.);
#71=ADVANCED_FACE('',(#62),#65,.T.);
#72=ADVANCED_FACE('',(#63),#60,.F.);
#73=ADVANCED_FACE('',(#92,#93),#38,.T.);
#74=ADVANCED_FACE('',(#94,#95),#35,.T.);
#75=ADVANCED_FACE('',(#96,#97),#32,.T.);
#76=ADVANCED_FACE('',(#98,#99),#36,.T.);
#77=ADVANCED_FACE('',(#100,#101),#33,.T.);
#78=ADVANCED_FACE('',(#102,#103),#34,.T.);
#79=ADVANCED_FACE('',(#104,#105),#37,.T.);
#80=SURFACE_OF_REVOLUTION('',#84,#82);
#81=SURFACE_OF_REVOLUTION('',#66,#83);
#82=AXIS1_PLACEMENT('',#271,#211);
#83=AXIS1_PLACEMENT('',#278,#214);
#84=B_SPLINE_CURVE_WITH_KNOTS('',3,(#259,#260,#261,#262,#263,#264,#265,
#266,#267,#268,#269,#270),.UNSPECIFIED.,.F.,.F.,(4,2,2,2,2,4),(0.,0.309912929538018,
0.464869394307027,0.619825859076036,0.929738788614054,1.),.UNSPECIFIED.);
#85=VERTEX_LOOP('',#151);
#86=FACE_BOUND('',#106,.T.);
#87=FACE_BOUND('',#85,.T.);
#88=FACE_BOUND('',#107,.T.);
#89=FACE_BOUND('',#108,.T.);
#90=FACE_BOUND('',#109,.T.);
#91=FACE_BOUND('',#110,.T.);
#92=FACE_BOUND('',#114,.T.);
#93=FACE_BOUND('',#115,.T.);
#94=FACE_BOUND('',#116,.T.);
#95=FACE_BOUND('',#117,.T.);
#96=FACE_BOUND('',#118,.T.);
#97=FACE_BOUND('',#119,.T.);
#98=FACE_BOUND('',#120,.T.);
#99=FACE_BOUND('',#121,.T.);
#100=FACE_BOUND('',#122,.T.);
#101=FACE_BOUND('',#123,.T.);
#102=FACE_BOUND('',#124,.T.);
#103=FACE_BOUND('',#125,.T.);
#104=FACE_BOUND('',#126,.T.);
#105=FACE_BOUND('',#127,.T.);
#106=EDGE_LOOP('',(#128));
#107=EDGE_LOOP('',(#129));
#108=EDGE_LOOP('',(#130));
#109=EDGE_LOOP('',(#131));
#110=EDGE_LOOP('',(#132));
#111=EDGE_LOOP('',(#133));
#112=EDGE_LOOP('',(#134));
#113=EDGE_LOOP('',(#135));
#114=EDGE_LOOP('',(#136));
#115=EDGE_LOOP('',(#137));
#116=EDGE_LOOP('',(#138));
#117=EDGE_LOOP('',(#139));
#118=EDGE_LOOP('',(#140));
#119=EDGE_LOOP('',(#141));
#120=EDGE_LOOP('',(#142));
#121=EDGE_LOOP('',(#143));
#122=EDGE_LOOP('',(#144));
#123=EDGE_LOOP('',(#145));
#124=EDGE_LOOP('',(#146));
#125=EDGE_LOOP('',(#147));
#126=EDGE_LOOP('',(#148));
#127=EDGE_LOOP('',(#149));
#128=ORIENTED_EDGE('',*,*,#162,.F.);
#129=ORIENTED_EDGE('',*,*,#163,.F.);
#130=ORIENTED_EDGE('',*,*,#162,.T.);
#131=ORIENTED_EDGE('',*,*,#164,.F.);
#132=ORIENTED_EDGE('',*,*,#163,.T.);
#133=ORIENTED_EDGE('',*,*,#164,.T.);
#134=ORIENTED_EDGE('',*,*,#165,.T.);
#135=ORIENTED_EDGE('',*,*,#166,.F.);
#136=ORIENTED_EDGE('',*,*,#167,.F.);
#137=ORIENTED_EDGE('',*,*,#166,.T.);
#138=ORIENTED_EDGE('',*,*,#168,.F.);
#139=ORIENTED_EDGE('',*,*,#167,.T.);
#140=ORIENTED_EDGE('',*,*,#169,.F.);
#141=ORIENTED_EDGE('',*,*,#168,.T.);
#142=ORIENTED_EDGE('',*,*,#170,.F.);
#143=ORIENTED_EDGE('',*,*,#169,.T.);
#144=ORIENTED_EDGE('',*,*,#171,.F.);
#145=ORIENTED_EDGE('',*,*,#170,.T.);
#146=ORIENTED_EDGE('',*,*,#172,.F.);
#147=ORIENTED_EDGE('',*,*,#171,.T.);
#148=ORIENTED_EDGE('',*,*,#165,.F.);
#149=ORIENTED_EDGE('',*,*,#172,.T.);
#150=VERTEX_POINT('',#257);
#151=VERTEX_POINT('',#258);
#152=VERTEX_POINT('',#273);
#153=VERTEX_POINT('',#280);
#154=VERTEX_POINT('',#284);
#155=VERTEX_POINT('',#287);
#156=VERTEX_POINT('',#290);
#157=VERTEX_POINT('',#293);
#158=VERTEX_POINT('',#296);
#159=VERTEX_POINT('',#299);
#160=VERTEX_POINT('',#302);
#161=VERTEX_POINT('',#305);
#162=EDGE_CURVE('',#150,#150,#173,.T.);
#163=EDGE_CURVE('',#152,#152,#174,.T.);
#164=EDGE_CURVE('',#153,#153,#175,.T.);
#165=EDGE_CURVE('',#154,#154,#176,.T.);
#166=EDGE_CURVE('',#155,#155,#177,.T.);
#167=EDGE_CURVE('',#156,#156,#178,.T.);
#168=EDGE_CURVE('',#157,#157,#179,.T.);
#169=EDGE_CURVE('',#158,#158,#180,.T.);
#170=EDGE_CURVE('',#159,#159,#181,.T.);
#171=EDGE_CURVE('',#160,#160,#182,.T.);
#172=EDGE_CURVE('',#161,#161,#183,.T.);
#173=CIRCLE('',#185,7.5175066547518);
#174=CIRCLE('',#186,7.18141083006622);
#175=CIRCLE('',#187,6.92820323027552);
#176=CIRCLE('',#190,7.);
#177=CIRCLE('',#192,6.24999999999992);
#178=CIRCLE('',#194,7.75);
#179=CIRCLE('',#196,7.75);
#180=CIRCLE('',#198,8.);
#181=CIRCLE('',#200,8.);
#182=CIRCLE('',#202,7.75);
#183=CIRCLE('',#204,7.);
#184=AXIS2_PLACEMENT_3D('',#255,#207,#208);
#185=AXIS2_PLACEMENT_3D('',#256,#209,#210);
#186=AXIS2_PLACEMENT_3D('',#272,#212,#213);
#187=AXIS2_PLACEMENT_3D('',#279,#215,#216);
#188=AXIS2_PLACEMENT_3D('',#281,#217,#218);
#189=AXIS2_PLACEMENT_3D('',#282,#219,#220);
#190=AXIS2_PLACEMENT_3D('',#283,#221,#222);
#191=AXIS2_PLACEMENT_3D('',#285,#223,#224);
#192=AXIS2_PLACEMENT_3D('',#286,#225,#226);
#193=AXIS2_PLACEMENT_3D('',#288,#227,#228);
#194=AXIS2_PLACEMENT_3D('',#289,#229,#230);
#195=AXIS2_PLACEMENT_3D('',#291,#231,#232);
#196=AXIS2_PLACEMENT_3D('',#292,#233,#234);
#197=AXIS2_PLACEMENT_3D('',#294,#235,#236);
#198=AXIS2_PLACEMENT_3D('',#295,#237,#238);
#199=AXIS2_PLACEMENT_3D('',#297,#239,#240);
#200=AXIS2_PLACEMENT_3D('',#298,#241,#242);
#201=AXIS2_PLACEMENT_3D('',#300,#243,#244);
#202=AXIS2_PLACEMENT_3D('',#301,#245,#246);
#203=AXIS2_PLACEMENT_3D('',#303,#247,#248);
#204=AXIS2_PLACEMENT_3D('',#304,#249,#250);
#205=AXIS2_PLACEMENT_3D('',#306,#251,#252);
#206=AXIS2_PLACEMENT_3D('',#307,#253,#254);
#207=DIRECTION('',(0.,0.,1.));
#208=DIRECTION('',(1.,0.,0.));
#209=DIRECTION('',(1.,0.,0.));
#210=DIRECTION('',(0.,0.,-1.));
#211=DIRECTION('',(1.,0.,0.));
#212=DIRECTION('',(1.,0.,0.));
#213=DIRECTION('',(0.,0.,-1.));
#214=DIRECTION('',(1.,0.,0.));
#215=DIRECTION('',(1.,0.,0.));
#216=DIRECTION('',(0.,0.,-1.));
#217=DIRECTION('',(1.,-6.12323399573677E-17,0.));
#218=DIRECTION('',(0.,-1.,0.));
#219=DIRECTION('',(-1.,0.,0.));
#220=DIRECTION('',(0.,0.,1.));
#221=DIRECTION('',(-1.,-4.69141699193688E-16,0.));
#222=DIRECTION('',(4.95635278850516E-16,-1.,0.));
#223=DIRECTION('',(-1.,-4.0790935923632E-16,0.));
#224=DIRECTION('',(-4.95635278850516E-16,1.,0.));
#225=DIRECTION('',(-1.,-4.69141699193688E-16,0.));
#226=DIRECTION('',(0.,-1.,0.));
#227=DIRECTION('',(-1.,-4.69141699193688E-16,0.));
#228=DIRECTION('',(4.71844785465692E-16,-1.,0.));
#229=DIRECTION('',(-1.,-4.69141699193688E-16,0.));
#230=DIRECTION('',(0.,-1.,0.));
#231=DIRECTION('',(-1.,-4.69141699193688E-16,0.));
#232=DIRECTION('',(0.,-1.,0.));
#233=DIRECTION('',(-1.,-4.69141699193688E-16,0.));
#234=DIRECTION('',(0.,-1.,0.));
#235=DIRECTION('',(-1.,-4.69141699193688E-16,0.));
#236=DIRECTION('',(4.69141699193688E-16,-1.,0.));
#237=DIRECTION('',(-1.,-4.69141699193688E-16,0.));
#238=DIRECTION('',(0.,-1.,0.));
#239=DIRECTION('',(-1.,-4.69141699193688E-16,0.));
#240=DIRECTION('',(7.53912181436399E-16,-1.,0.));
#241=DIRECTION('',(-1.,-4.69141699193688E-16,0.));
#242=DIRECTION('',(0.,-1.,0.));
#243=DIRECTION('',(-1.,-4.69141699193688E-16,0.));
#244=DIRECTION('',(4.69141699193688E-16,-1.,0.));
#245=DIRECTION('',(-1.,-4.69141699193688E-16,0.));
#246=DIRECTION('',(0.,-1.,0.));
#247=DIRECTION('',(1.,4.69141699193688E-16,0.));
#248=DIRECTION('',(-3.85494105772624E-16,1.,0.));
#249=DIRECTION('',(-1.,-4.69141699193688E-16,0.));
#250=DIRECTION('',(0.,-1.,0.));
#251=DIRECTION('',(1.,4.69141699193688E-16,0.));
#252=DIRECTION('',(-8.42096627767196E-16,1.,0.));
#253=DIRECTION('',(-1.,-4.69141699193688E-16,0.));
#254=DIRECTION('',(4.69141699193688E-16,-1.,0.));
#255=CARTESIAN_POINT('',(0.,0.,0.));
#256=CARTESIAN_POINT('',(10.7361450693673,3.75313359354951E-15,0.));
#257=CARTESIAN_POINT('',(10.7361450693673,3.75313359354951E-15,-7.5175066547518));
#258=CARTESIAN_POINT('',(-2.0569646220591E-13,8.07714848724976E-17,4.83013860941556E-13));
#259=CARTESIAN_POINT('',(-2.0569646220591E-13,8.07714848724976E-17,4.83013860941556E-13));
#260=CARTESIAN_POINT('',(-8.19364646594058E-9,-1.28267934843975,9.66027721883112E-13));
#261=CARTESIAN_POINT('',(0.332480345304263,-2.79919396407462,9.66027721883112E-13));
#262=CARTESIAN_POINT('',(1.60289270678975,-4.87171531775212,9.66027721883112E-13));
#263=CARTESIAN_POINT('',(2.15093306465953,-5.52448257323325,9.66027721883112E-13));
#264=CARTESIAN_POINT('',(3.45101113247897,-6.63612742464889,9.66027721883112E-13));
#265=CARTESIAN_POINT('',(4.20199334386163,-7.09309407024697,9.66027721883112E-13));
#266=CARTESIAN_POINT('',(6.58891503944193,-8.05953461026256,9.66027721883112E-13));
#267=CARTESIAN_POINT('',(8.33087386411024,-8.1316253233265,9.66027721883112E-13));
#268=CARTESIAN_POINT('',(10.1175927988689,-7.72208414497691,9.66027721883112E-13));
#269=CARTESIAN_POINT('',(10.4342894588237,-7.62732788680453,9.66027721883112E-13));
#270=CARTESIAN_POINT('',(10.7361450693673,-7.5175066547518,4.55148693522603E-13));
#271=CARTESIAN_POINT('',(8.,3.75313359354951E-15,0.));
#272=CARTESIAN_POINT('',(11.5252430398212,3.75313359354951E-15,0.));
#273=CARTESIAN_POINT('',(11.5252430398212,3.75313359354951E-15,-7.18141083006622));
#274=CARTESIAN_POINT('',(10.7361450693673,-7.5175066547518,4.55148693522603E-13));
#275=CARTESIAN_POINT('',(11.00507211304,-7.41966550740571,0.));
#276=CARTESIAN_POINT('',(11.2683528372277,-7.3075142406801,0.));
#277=CARTESIAN_POINT('',(11.5252430398212,-7.18141083006621,0.));
#278=CARTESIAN_POINT('',(8.,3.75313359354951E-15,0.));
#279=CARTESIAN_POINT('',(12.,3.75313359354951E-15,0.));
#280=CARTESIAN_POINT('',(12.,3.75313359354951E-15,-6.92820323027552));
#281=CARTESIAN_POINT('',(8.,0.,0.));
#282=CARTESIAN_POINT('',(12.,-6.92820323027551,0.));
#283=CARTESIAN_POINT('',(8.,3.75313359354951E-15,0.));
#284=CARTESIAN_POINT('',(8.,-7.,0.));
#285=CARTESIAN_POINT('',(8.,0.,0.));
#286=CARTESIAN_POINT('',(170.,7.9754088862927E-14,0.));
#287=CARTESIAN_POINT('',(170.,-6.24999999999984,0.));
#288=CARTESIAN_POINT('',(170.,6.25,0.));
#289=CARTESIAN_POINT('',(168.5,7.90503763141365E-14,0.));
#290=CARTESIAN_POINT('',(168.5,-7.74999999999992,0.));
#291=CARTESIAN_POINT('',(168.5,7.89299181569447E-14,0.));
#292=CARTESIAN_POINT('',(166.,7.78775220661523E-14,0.));
#293=CARTESIAN_POINT('',(166.,-7.74999999999992,0.));
#294=CARTESIAN_POINT('',(0.,0.,0.));
#295=CARTESIAN_POINT('',(164.582179545096,7.72123633687868E-14,0.));
#296=CARTESIAN_POINT('',(164.582179545096,-7.99999999999992,0.));
#297=CARTESIAN_POINT('',(166.,7.78775220661523E-14,0.));
#298=CARTESIAN_POINT('',(70.,3.28399189435582E-14,0.));
#299=CARTESIAN_POINT('',(70.,-7.99999999999997,0.));
#300=CARTESIAN_POINT('',(0.,0.,0.));
#301=CARTESIAN_POINT('',(69.75,3.27226335187597E-14,0.));
#302=CARTESIAN_POINT('',(69.75,-7.74999999999997,0.));
#303=CARTESIAN_POINT('',(70.,3.28399189435582E-14,0.));
#304=CARTESIAN_POINT('',(40.,1.87656679677476E-14,0.));
#305=CARTESIAN_POINT('',(40.,-6.99999999999998,0.));
#306=CARTESIAN_POINT('',(69.75,3.27226335187597E-14,0.));
#307=CARTESIAN_POINT('',(0.,0.,0.));
#308=MECHANICAL_DESIGN_GEOMETRIC_PRESENTATION_REPRESENTATION('',(#40,#41),
#309);
#309=(
GEOMETRIC_REPRESENTATION_CONTEXT(3)
GLOBAL_UNCERTAINTY_ASSIGNED_CONTEXT((#310))
GLOBAL_UNIT_ASSIGNED_CONTEXT((#316,#312,#311))
REPRESENTATION_CONTEXT('APMR-BNM16-D16-C16-L175',
'TOP_LEVEL_ASSEMBLY_PART')
);
#310=UNCERTAINTY_MEASURE_WITH_UNIT(LENGTH_MEASURE(0.0508),#316,
'DISTANCE_ACCURACY_VALUE','Maximum Tolerance applied to model');
#311=(
NAMED_UNIT(*)
SI_UNIT($,.STERADIAN.)
SOLID_ANGLE_UNIT()
);
#312=(
CONVERSION_BASED_UNIT('DEGREE',#314)
NAMED_UNIT(#313)
PLANE_ANGLE_UNIT()
);
#313=DIMENSIONAL_EXPONENTS(0.,0.,0.,0.,0.,0.,0.);
#314=PLANE_ANGLE_MEASURE_WITH_UNIT(PLANE_ANGLE_MEASURE(0.0174532925),#315);
#315=(
NAMED_UNIT(*)
PLANE_ANGLE_UNIT()
SI_UNIT($,.RADIAN.)
);
#316=(
LENGTH_UNIT()
NAMED_UNIT(*)
SI_UNIT(.MILLI.,.METRE.)
);
ENDSEC;
END-ISO-10303-21;
