ISO-10303-21;
HEADER;
/* Generated by software containing ST-Developer
 * from STEP Tools, Inc. (www.steptools.com) 
 */
/* OPTION: using custom schema-name function */

FILE_DESCRIPTION(
/* description */ (''),
/* implementation_level */ '2;1');

FILE_NAME(
/* name */ 'APMR-BNM16-D16-C16-L200.stp',
/* time_stamp */ '2023-10-02T11:57:12+03:00',
/* author */ (''),
/* organization */ (''),
/* preprocessor_version */ 'ST-DEVELOPER v19.4',
/* originating_system */ 'SIEMENS PLM Software NX2306.5001',
/* authorisation */ '');

FILE_SCHEMA (('AUTOMOTIVE_DESIGN { 1 0 10303 214 3 1 1 1 }'));
ENDSEC;

DATA;
#10=PROPERTY_DEFINITION_REPRESENTATION(#14,#12);
#11=PROPERTY_DEFINITION_REPRESENTATION(#15,#13);
#12=REPRESENTATION('',(#16),#433);
#13=REPRESENTATION('',(#17),#433);
#14=PROPERTY_DEFINITION('pmi validation property','',#21);
#15=PROPERTY_DEFINITION('pmi validation property','',#21);
#16=VALUE_REPRESENTATION_ITEM('number of annotations',COUNT_MEASURE(0.));
#17=VALUE_REPRESENTATION_ITEM('number of views',COUNT_MEASURE(0.));
#18=SHAPE_REPRESENTATION_RELATIONSHIP('None',
'relationship between APMR-BNM16-D16-C16-L200-LIGHT_x_t_objects-None a
nd APMR-BNM16-D16-C16-L200-LIGHT_x_t_objects-None',#30,#19);
#19=ADVANCED_BREP_SHAPE_REPRESENTATION(
'APMR-BNM16-D16-C16-L200-LIGHT_x_t_objects-None',(#53,#54),#433);
#20=SHAPE_DEFINITION_REPRESENTATION(#21,#30);
#21=PRODUCT_DEFINITION_SHAPE('','',#22);
#22=PRODUCT_DEFINITION(' ','',#24,#23);
#23=PRODUCT_DEFINITION_CONTEXT('part definition',#29,'design');
#24=PRODUCT_DEFINITION_FORMATION_WITH_SPECIFIED_SOURCE(' ',' ',#26,
 .NOT_KNOWN.);
#25=PRODUCT_RELATED_PRODUCT_CATEGORY('part','',(#26));
#26=PRODUCT('APMR-BNM16-D16-C16-L200-LIGHT_x_t_objects',
'APMR-BNM16-D16-C16-L200-LIGHT_x_t_objects',' ',(#27));
#27=PRODUCT_CONTEXT(' ',#29,'mechanical');
#28=APPLICATION_PROTOCOL_DEFINITION('international standard',
'automotive_design',2010,#29);
#29=APPLICATION_CONTEXT(
'core data for automotive mechanical design processes');
#30=SHAPE_REPRESENTATION(
'APMR-BNM16-D16-C16-L200-LIGHT_x_t_objects-None',(#205),#433);
#31=DRAUGHTING_PRE_DEFINED_COLOUR('yellow');
#32=LINE('',#429,#33);
#33=VECTOR('',#287,1.);
#34=(
BOUNDED_SURFACE()
B_SPLINE_SURFACE(3,3,((#345,#346,#347,#348,#349,#350,#351),(#352,#353,#354,
#355,#356,#357,#358),(#359,#360,#361,#362,#363,#364,#365),(#366,#367,#368,
#369,#370,#371,#372),(#373,#374,#375,#376,#377,#378,#379),(#380,#381,#382,
#383,#384,#385,#386),(#387,#388,#389,#390,#391,#392,#393),(#394,#395,#396,
#397,#398,#399,#400),(#401,#402,#403,#404,#405,#406,#407),(#408,#409,#410,
#411,#412,#413,#414),(#415,#416,#417,#418,#419,#420,#421),(#422,#423,#424,
#425,#426,#427,#428)),.UNSPECIFIED.,.F.,.T.,.F.)
B_SPLINE_SURFACE_WITH_KNOTS((4,2,2,2,2,4),(1,3,3,3,1),(0.,0.309912929538019,
0.464869394307027,0.619825859076037,0.929738788614055,1.),(-0.5,0.,0.5,
1.,1.5),.UNSPECIFIED.)
GEOMETRIC_REPRESENTATION_ITEM()
RATIONAL_B_SPLINE_SURFACE(((1.,0.333333333333334,0.333333333333334,1.,0.333333333333334,
0.333333333333334,1.),(1.,0.333333333333334,0.333333333333334,1.,0.333333333333334,
0.333333333333334,1.),(1.,0.333333333333334,0.333333333333334,1.,0.333333333333334,
0.333333333333334,1.),(1.,0.333333333333334,0.333333333333334,1.,0.333333333333334,
0.333333333333334,1.),(1.,0.333333333333334,0.333333333333334,1.,0.333333333333334,
0.333333333333334,1.),(1.,0.333333333333334,0.333333333333334,1.,0.333333333333334,
0.333333333333334,1.),(1.,0.333333333333334,0.333333333333334,1.,0.333333333333334,
0.333333333333334,1.),(1.,0.333333333333334,0.333333333333334,1.,0.333333333333334,
0.333333333333334,1.),(1.,0.333333333333334,0.333333333333334,1.,0.333333333333334,
0.333333333333334,1.),(1.,0.333333333333334,0.333333333333334,1.,0.333333333333334,
0.333333333333334,1.),(1.,0.333333333333334,0.333333333333334,1.,0.333333333333334,
0.333333333333334,1.),(1.,0.333333333333334,0.333333333333334,1.,0.333333333333334,
0.333333333333334,1.)))
REPRESENTATION_ITEM('')
SURFACE()
);
#35=B_SPLINE_CURVE_WITH_KNOTS('',2,(#326,#327,#328),.UNSPECIFIED.,.F.,.F.,
(3,3),(0.,1.),.UNSPECIFIED.);
#36=B_SPLINE_CURVE_WITH_KNOTS('',3,(#332,#333,#334,#335,#336,#337,#338,
#339,#340,#341,#342,#343),.UNSPECIFIED.,.F.,.F.,(4,2,2,2,2,4),(0.,0.309912929538018,
0.464869394307027,0.619825859076036,0.929738788614054,1.),.UNSPECIFIED.);
#37=PRESENTATION_LAYER_ASSIGNMENT('1','Layer 1',(#53,#54));
#38=STYLED_ITEM('',(#40),#53);
#39=STYLED_ITEM('',(#41),#54);
#40=PRESENTATION_STYLE_ASSIGNMENT((#42));
#41=PRESENTATION_STYLE_ASSIGNMENT((#43));
#42=SURFACE_STYLE_USAGE(.BOTH.,#44);
#43=SURFACE_STYLE_USAGE(.BOTH.,#45);
#44=SURFACE_SIDE_STYLE('',(#46));
#45=SURFACE_SIDE_STYLE('',(#47));
#46=SURFACE_STYLE_FILL_AREA(#48);
#47=SURFACE_STYLE_FILL_AREA(#49);
#48=FILL_AREA_STYLE('',(#50));
#49=FILL_AREA_STYLE('',(#51));
#50=FILL_AREA_STYLE_COLOUR('',#52);
#51=FILL_AREA_STYLE_COLOUR('',#31);
#52=COLOUR_RGB('silver gray',0.6,0.6,0.6);
#53=MANIFOLD_SOLID_BREP('',#55);
#54=MANIFOLD_SOLID_BREP('',#56);
#55=CLOSED_SHELL('',(#81,#82,#83,#84,#85,#86,#87,#88,#89));
#56=CLOSED_SHELL('',(#90,#91,#92,#93,#94));
#57=CONICAL_SURFACE('',#215,7.74999999999991,9.99999999999998);
#58=CONICAL_SURFACE('',#219,8.,45.);
#59=CONICAL_SURFACE('',#221,7.75,0.719156116545049);
#60=CYLINDRICAL_SURFACE('',#213,7.74999999999991);
#61=CYLINDRICAL_SURFACE('',#217,8.);
#62=CYLINDRICAL_SURFACE('',#222,7.);
#63=TOROIDAL_SURFACE('',#211,6.24999999999991,1.5);
#64=TOROIDAL_SURFACE('',#231,7.51743598011729,0.000141753027250657);
#65=FACE_BOUND('',#107,.T.);
#66=FACE_BOUND('',#108,.T.);
#67=FACE_BOUND('',#109,.T.);
#68=FACE_BOUND('',#110,.T.);
#69=FACE_BOUND('',#111,.T.);
#70=FACE_BOUND('',#112,.T.);
#71=FACE_BOUND('',#113,.T.);
#72=FACE_BOUND('',#114,.T.);
#73=FACE_BOUND('',#115,.T.);
#74=FACE_BOUND('',#116,.T.);
#75=FACE_BOUND('',#117,.T.);
#76=FACE_BOUND('',#118,.T.);
#77=FACE_BOUND('',#119,.T.);
#78=FACE_BOUND('',#120,.T.);
#79=PLANE('',#209);
#80=PLANE('',#232);
#81=ADVANCED_FACE('',(#98),#95,.T.);
#82=ADVANCED_FACE('',(#99),#79,.F.);
#83=ADVANCED_FACE('',(#65,#66),#63,.T.);
#84=ADVANCED_FACE('',(#67,#68),#60,.T.);
#85=ADVANCED_FACE('',(#69,#70),#57,.T.);
#86=ADVANCED_FACE('',(#71,#72),#61,.T.);
#87=ADVANCED_FACE('',(#73,#74),#58,.T.);
#88=ADVANCED_FACE('',(#75,#76),#59,.T.);
#89=ADVANCED_FACE('',(#77,#78),#62,.T.);
#90=ADVANCED_FACE('',(#100),#96,.T.);
#91=ADVANCED_FACE('',(#101),#97,.T.);
#92=ADVANCED_FACE('',(#102),#64,.T.);
#93=ADVANCED_FACE('',(#103),#34,.T.);
#94=ADVANCED_FACE('',(#104),#80,.T.);
#95=SPHERICAL_SURFACE('',#207,7.);
#96=SPHERICAL_SURFACE('',#226,8.);
#97=SPHERICAL_SURFACE('',#229,8.);
#98=FACE_OUTER_BOUND('',#105,.T.);
#99=FACE_OUTER_BOUND('',#106,.T.);
#100=FACE_OUTER_BOUND('',#121,.T.);
#101=FACE_OUTER_BOUND('',#122,.T.);
#102=FACE_OUTER_BOUND('',#123,.T.);
#103=FACE_OUTER_BOUND('',#124,.T.);
#104=FACE_OUTER_BOUND('',#125,.T.);
#105=EDGE_LOOP('',(#126));
#106=EDGE_LOOP('',(#127));
#107=EDGE_LOOP('',(#128));
#108=EDGE_LOOP('',(#129));
#109=EDGE_LOOP('',(#130));
#110=EDGE_LOOP('',(#131));
#111=EDGE_LOOP('',(#132));
#112=EDGE_LOOP('',(#133));
#113=EDGE_LOOP('',(#134));
#114=EDGE_LOOP('',(#135));
#115=EDGE_LOOP('',(#136));
#116=EDGE_LOOP('',(#137));
#117=EDGE_LOOP('',(#138));
#118=EDGE_LOOP('',(#139));
#119=EDGE_LOOP('',(#140));
#120=EDGE_LOOP('',(#141));
#121=EDGE_LOOP('',(#142,#143,#144,#145));
#122=EDGE_LOOP('',(#146,#147,#148,#149));
#123=EDGE_LOOP('',(#150,#151,#152,#153));
#124=EDGE_LOOP('',(#154,#155,#156));
#125=EDGE_LOOP('',(#157,#158,#159));
#126=ORIENTED_EDGE('',*,*,#174,.T.);
#127=ORIENTED_EDGE('',*,*,#175,.F.);
#128=ORIENTED_EDGE('',*,*,#176,.F.);
#129=ORIENTED_EDGE('',*,*,#175,.T.);
#130=ORIENTED_EDGE('',*,*,#177,.F.);
#131=ORIENTED_EDGE('',*,*,#176,.T.);
#132=ORIENTED_EDGE('',*,*,#178,.F.);
#133=ORIENTED_EDGE('',*,*,#177,.T.);
#134=ORIENTED_EDGE('',*,*,#179,.F.);
#135=ORIENTED_EDGE('',*,*,#178,.T.);
#136=ORIENTED_EDGE('',*,*,#180,.F.);
#137=ORIENTED_EDGE('',*,*,#179,.T.);
#138=ORIENTED_EDGE('',*,*,#181,.F.);
#139=ORIENTED_EDGE('',*,*,#180,.T.);
#140=ORIENTED_EDGE('',*,*,#174,.F.);
#141=ORIENTED_EDGE('',*,*,#181,.T.);
#142=ORIENTED_EDGE('',*,*,#182,.F.);
#143=ORIENTED_EDGE('',*,*,#183,.F.);
#144=ORIENTED_EDGE('',*,*,#182,.T.);
#145=ORIENTED_EDGE('',*,*,#184,.T.);
#146=ORIENTED_EDGE('',*,*,#185,.F.);
#147=ORIENTED_EDGE('',*,*,#186,.F.);
#148=ORIENTED_EDGE('',*,*,#185,.T.);
#149=ORIENTED_EDGE('',*,*,#183,.T.);
#150=ORIENTED_EDGE('',*,*,#187,.F.);
#151=ORIENTED_EDGE('',*,*,#188,.F.);
#152=ORIENTED_EDGE('',*,*,#187,.T.);
#153=ORIENTED_EDGE('',*,*,#186,.T.);
#154=ORIENTED_EDGE('',*,*,#189,.F.);
#155=ORIENTED_EDGE('',*,*,#189,.T.);
#156=ORIENTED_EDGE('',*,*,#188,.T.);
#157=ORIENTED_EDGE('',*,*,#190,.F.);
#158=ORIENTED_EDGE('',*,*,#184,.F.);
#159=ORIENTED_EDGE('',*,*,#190,.T.);
#160=VERTEX_POINT('',#292);
#161=VERTEX_POINT('',#295);
#162=VERTEX_POINT('',#298);
#163=VERTEX_POINT('',#301);
#164=VERTEX_POINT('',#304);
#165=VERTEX_POINT('',#307);
#166=VERTEX_POINT('',#310);
#167=VERTEX_POINT('',#313);
#168=VERTEX_POINT('',#317);
#169=VERTEX_POINT('',#318);
#170=VERTEX_POINT('',#323);
#171=VERTEX_POINT('',#329);
#172=VERTEX_POINT('',#344);
#173=VERTEX_POINT('',#430);
#174=EDGE_CURVE('',#160,#160,#191,.T.);
#175=EDGE_CURVE('',#161,#161,#192,.T.);
#176=EDGE_CURVE('',#162,#162,#193,.T.);
#177=EDGE_CURVE('',#163,#163,#194,.T.);
#178=EDGE_CURVE('',#164,#164,#195,.T.);
#179=EDGE_CURVE('',#165,#165,#196,.T.);
#180=EDGE_CURVE('',#166,#166,#197,.T.);
#181=EDGE_CURVE('',#167,#167,#198,.T.);
#182=EDGE_CURVE('',#168,#169,#199,.T.);
#183=EDGE_CURVE('',#168,#168,#200,.T.);
#184=EDGE_CURVE('',#169,#169,#201,.T.);
#185=EDGE_CURVE('',#170,#168,#202,.T.);
#186=EDGE_CURVE('',#170,#170,#203,.T.);
#187=EDGE_CURVE('',#171,#170,#35,.T.);
#188=EDGE_CURVE('',#171,#171,#204,.T.);
#189=EDGE_CURVE('',#172,#171,#36,.T.);
#190=EDGE_CURVE('',#169,#173,#32,.T.);
#191=CIRCLE('',#206,7.);
#192=CIRCLE('',#208,6.24999999999991);
#193=CIRCLE('',#210,7.74999999999991);
#194=CIRCLE('',#212,7.74999999999991);
#195=CIRCLE('',#214,7.99999999999991);
#196=CIRCLE('',#216,8.);
#197=CIRCLE('',#218,7.75);
#198=CIRCLE('',#220,7.);
#199=CIRCLE('',#223,8.);
#200=CIRCLE('',#224,7.18141083006622);
#201=CIRCLE('',#225,6.92820323027551);
#202=CIRCLE('',#227,8.);
#203=CIRCLE('',#228,7.51754212143193);
#204=CIRCLE('',#230,7.51748445825064);
#205=AXIS2_PLACEMENT_3D('',#290,#233,#234);
#206=AXIS2_PLACEMENT_3D('',#291,#235,#236);
#207=AXIS2_PLACEMENT_3D('',#293,#237,#238);
#208=AXIS2_PLACEMENT_3D('',#294,#239,#240);
#209=AXIS2_PLACEMENT_3D('',#296,#241,#242);
#210=AXIS2_PLACEMENT_3D('',#297,#243,#244);
#211=AXIS2_PLACEMENT_3D('',#299,#245,#246);
#212=AXIS2_PLACEMENT_3D('',#300,#247,#248);
#213=AXIS2_PLACEMENT_3D('',#302,#249,#250);
#214=AXIS2_PLACEMENT_3D('',#303,#251,#252);
#215=AXIS2_PLACEMENT_3D('',#305,#253,#254);
#216=AXIS2_PLACEMENT_3D('',#306,#255,#256);
#217=AXIS2_PLACEMENT_3D('',#308,#257,#258);
#218=AXIS2_PLACEMENT_3D('',#309,#259,#260);
#219=AXIS2_PLACEMENT_3D('',#311,#261,#262);
#220=AXIS2_PLACEMENT_3D('',#312,#263,#264);
#221=AXIS2_PLACEMENT_3D('',#314,#265,#266);
#222=AXIS2_PLACEMENT_3D('',#315,#267,#268);
#223=AXIS2_PLACEMENT_3D('',#316,#269,#270);
#224=AXIS2_PLACEMENT_3D('',#319,#271,#272);
#225=AXIS2_PLACEMENT_3D('',#320,#273,#274);
#226=AXIS2_PLACEMENT_3D('',#321,#275,#276);
#227=AXIS2_PLACEMENT_3D('',#322,#277,#278);
#228=AXIS2_PLACEMENT_3D('',#324,#279,#280);
#229=AXIS2_PLACEMENT_3D('',#325,#281,#282);
#230=AXIS2_PLACEMENT_3D('',#330,#283,#284);
#231=AXIS2_PLACEMENT_3D('',#331,#285,#286);
#232=AXIS2_PLACEMENT_3D('',#431,#288,#289);
#233=DIRECTION('',(0.,0.,1.));
#234=DIRECTION('',(1.,0.,0.));
#235=DIRECTION('',(-1.,-4.69141699193688E-16,0.));
#236=DIRECTION('',(4.95635278850516E-16,-1.,0.));
#237=DIRECTION('',(-1.,-4.0790935923632E-16,0.));
#238=DIRECTION('',(-4.95635278850516E-16,1.,0.));
#239=DIRECTION('',(-1.,-4.69141699193688E-16,0.));
#240=DIRECTION('',(0.,-1.,0.));
#241=DIRECTION('',(-1.,-4.69141699193688E-16,0.));
#242=DIRECTION('',(4.71844785465692E-16,-1.,0.));
#243=DIRECTION('',(-1.,-4.69141699193688E-16,0.));
#244=DIRECTION('',(0.,-1.,0.));
#245=DIRECTION('',(-1.,-4.69141699193688E-16,0.));
#246=DIRECTION('',(0.,-1.,0.));
#247=DIRECTION('',(-1.,-4.69141699193688E-16,0.));
#248=DIRECTION('',(0.,-1.,0.));
#249=DIRECTION('',(-1.,-4.69141699193688E-16,0.));
#250=DIRECTION('',(4.69141699193688E-16,-1.,0.));
#251=DIRECTION('',(-1.,-4.69141699193688E-16,0.));
#252=DIRECTION('',(0.,-1.,0.));
#253=DIRECTION('',(-1.,-4.69141699193688E-16,0.));
#254=DIRECTION('',(3.0156487257456E-16,-1.,0.));
#255=DIRECTION('',(-1.,-4.69141699193688E-16,0.));
#256=DIRECTION('',(0.,-1.,0.));
#257=DIRECTION('',(-1.,-4.69141699193688E-16,0.));
#258=DIRECTION('',(4.69141699193688E-16,-1.,0.));
#259=DIRECTION('',(-1.,-4.69141699193688E-16,0.));
#260=DIRECTION('',(0.,-1.,0.));
#261=DIRECTION('',(1.,4.69141699193688E-16,0.));
#262=DIRECTION('',(-3.57958812503151E-16,1.,0.));
#263=DIRECTION('',(-1.,-4.69141699193688E-16,0.));
#264=DIRECTION('',(0.,-1.,0.));
#265=DIRECTION('',(1.,4.69141699193688E-16,0.));
#266=DIRECTION('',(0.,1.,0.));
#267=DIRECTION('',(-1.,-4.69141699193688E-16,0.));
#268=DIRECTION('',(4.69141699193688E-16,-1.,0.));
#269=DIRECTION('',(0.,0.,1.));
#270=DIRECTION('',(1.,0.,0.));
#271=DIRECTION('',(-1.,-4.69141699193688E-16,0.));
#272=DIRECTION('',(4.83114952486519E-16,-1.,0.));
#273=DIRECTION('',(-1.,-4.69141699193688E-16,0.));
#274=DIRECTION('',(5.00771532912386E-16,-1.,0.));
#275=DIRECTION('',(-1.,-5.30374039151056E-16,0.));
#276=DIRECTION('',(4.33680868994202E-16,-1.,0.));
#277=DIRECTION('',(0.,0.,1.));
#278=DIRECTION('',(1.,0.,0.));
#279=DIRECTION('',(-1.,-4.69141699193688E-16,0.));
#280=DIRECTION('',(4.6151347021555E-16,-1.,0.));
#281=DIRECTION('',(-1.,-5.30374039151056E-16,0.));
#282=DIRECTION('',(4.33680868994202E-16,-1.,0.));
#283=DIRECTION('',(-1.,-4.69141699193688E-16,0.));
#284=DIRECTION('',(4.61517010274069E-16,-1.,0.));
#285=DIRECTION('',(-1.,-4.61517010274068E-16,0.));
#286=DIRECTION('',(4.61511283968111E-16,-1.,0.));
#287=DIRECTION('',(0.,1.,0.));
#288=DIRECTION('',(1.,4.69141699193688E-16,0.));
#289=DIRECTION('',(-4.68375338513738E-16,1.,0.));
#290=CARTESIAN_POINT('',(0.,0.,0.));
#291=CARTESIAN_POINT('',(8.,3.75313359354951E-15,0.));
#292=CARTESIAN_POINT('',(8.,-7.,0.));
#293=CARTESIAN_POINT('',(8.,0.,0.));
#294=CARTESIAN_POINT('',(200.,9.38283398387377E-14,0.));
#295=CARTESIAN_POINT('',(200.,-6.24999999999982,0.));
#296=CARTESIAN_POINT('',(200.,6.25,0.));
#297=CARTESIAN_POINT('',(198.5,9.31246272899472E-14,0.));
#298=CARTESIAN_POINT('',(198.5,-7.74999999999982,0.));
#299=CARTESIAN_POINT('',(198.5,9.28077059647592E-14,0.));
#300=CARTESIAN_POINT('',(196.,9.19517730419629E-14,0.));
#301=CARTESIAN_POINT('',(196.,-7.74999999999982,0.));
#302=CARTESIAN_POINT('',(0.,0.,0.));
#303=CARTESIAN_POINT('',(194.582179545096,9.12866143445975E-14,0.));
#304=CARTESIAN_POINT('',(194.582179545096,-7.99999999999982,0.));
#305=CARTESIAN_POINT('',(196.,9.19517730419629E-14,0.));
#306=CARTESIAN_POINT('',(100.,4.69141699193688E-14,0.));
#307=CARTESIAN_POINT('',(100.,-7.99999999999995,0.));
#308=CARTESIAN_POINT('',(0.,0.,0.));
#309=CARTESIAN_POINT('',(99.75,4.67968844945704E-14,0.));
#310=CARTESIAN_POINT('',(99.75,-7.74999999999995,0.));
#311=CARTESIAN_POINT('',(100.,4.69141699193688E-14,0.));
#312=CARTESIAN_POINT('',(40.,1.87656679677476E-14,0.));
#313=CARTESIAN_POINT('',(40.,-6.99999999999998,0.));
#314=CARTESIAN_POINT('',(99.75,4.67968844945704E-14,0.));
#315=CARTESIAN_POINT('',(0.,0.,0.));
#316=CARTESIAN_POINT('',(8.,0.,0.));
#317=CARTESIAN_POINT('',(11.5252430398212,-7.18141083006622,0.));
#318=CARTESIAN_POINT('',(12.,-6.92820323027551,0.));
#319=CARTESIAN_POINT('',(11.5252430398212,5.40697210332194E-15,0.));
#320=CARTESIAN_POINT('',(12.,5.62970039032426E-15,0.));
#321=CARTESIAN_POINT('',(8.,0.,0.));
#322=CARTESIAN_POINT('',(8.,0.,0.));
#323=CARTESIAN_POINT('',(10.7361579728694,-7.51754212143193,0.));
#324=CARTESIAN_POINT('',(10.7361579728694,5.03677939420381E-15,0.));
#325=CARTESIAN_POINT('',(8.,0.,0.));
#326=CARTESIAN_POINT('',(10.7361187799849,-7.51748445825066,0.));
#327=CARTESIAN_POINT('',(10.7361311187609,-7.51751834894756,0.));
#328=CARTESIAN_POINT('',(10.7361579728694,-7.51754212143193,0.));
#329=CARTESIAN_POINT('',(10.7361187799847,-7.51748445825063,0.));
#330=CARTESIAN_POINT('',(10.7361187799847,5.03676100718728E-15,0.));
#331=CARTESIAN_POINT('',(10.7362519340129,5.20417042793042E-15,0.));
#332=CARTESIAN_POINT('',(-2.0713672462163E-13,2.20945839596406E-14,0.));
#333=CARTESIAN_POINT('',(-1.71250398934765E-6,-1.28268178271722,0.));
#334=CARTESIAN_POINT('',(0.332477256967534,-2.79919971817413,0.));
#335=CARTESIAN_POINT('',(1.60288927566799,-4.87172669310768,0.));
#336=CARTESIAN_POINT('',(2.15092980627335,-5.52449591560225,0.));
#337=CARTESIAN_POINT('',(3.45100886433483,-6.63614460413317,0.));
#338=CARTESIAN_POINT('',(4.20199189375993,-7.09311311480411,0.));
#339=CARTESIAN_POINT('',(6.58891683513604,-8.05955866046647,0.));
#340=CARTESIAN_POINT('',(8.33087886991784,-8.13165182490473,0.));
#341=CARTESIAN_POINT('',(10.1176017396856,-7.72211224335843,0.));
#342=CARTESIAN_POINT('',(10.4342991265732,-7.62735622615541,0.));
#343=CARTESIAN_POINT('',(10.7361187799847,-7.51748445825063,0.));
#344=CARTESIAN_POINT('',(0.,-3.02837732221306E-30,0.));
#345=CARTESIAN_POINT('',(-2.0713672462163E-13,2.20945839596406E-14,0.));
#346=CARTESIAN_POINT('',(-2.07136724621631E-13,2.20945839596406E-14,-4.41891679192813E-14));
#347=CARTESIAN_POINT('',(-2.0713672462163E-13,-2.20945839596408E-14,-4.41891679192813E-14));
#348=CARTESIAN_POINT('',(-2.0713672462163E-13,-2.20945839596408E-14,0.));
#349=CARTESIAN_POINT('',(-2.0713672462163E-13,-2.20945839596408E-14,4.41891679192813E-14));
#350=CARTESIAN_POINT('',(-2.07136724621631E-13,2.20945839596406E-14,4.41891679192813E-14));
#351=CARTESIAN_POINT('',(-2.0713672462163E-13,2.20945839596406E-14,0.));
#352=CARTESIAN_POINT('',(-1.71250398934765E-6,-1.28268178271722,0.));
#353=CARTESIAN_POINT('',(-1.71250398934764E-6,-1.28268178271722,2.56536356543445));
#354=CARTESIAN_POINT('',(-1.71250399055116E-6,1.28268178271722,2.56536356543445));
#355=CARTESIAN_POINT('',(-1.71250399055116E-6,1.28268178271722,0.));
#356=CARTESIAN_POINT('',(-1.71250399055116E-6,1.28268178271722,-2.56536356543445));
#357=CARTESIAN_POINT('',(-1.71250398934764E-6,-1.28268178271722,-2.56536356543445));
#358=CARTESIAN_POINT('',(-1.71250398934765E-6,-1.28268178271722,0.));
#359=CARTESIAN_POINT('',(0.332477256967534,-2.79919971817413,0.));
#360=CARTESIAN_POINT('',(0.332477256967533,-2.79919971817413,5.59839943634826));
#361=CARTESIAN_POINT('',(0.332477256967531,2.79919971817413,5.59839943634826));
#362=CARTESIAN_POINT('',(0.332477256967531,2.79919971817413,0.));
#363=CARTESIAN_POINT('',(0.332477256967531,2.79919971817413,-5.59839943634826));
#364=CARTESIAN_POINT('',(0.332477256967533,-2.79919971817413,-5.59839943634826));
#365=CARTESIAN_POINT('',(0.332477256967534,-2.79919971817413,0.));
#366=CARTESIAN_POINT('',(1.60288927566799,-4.87172669310768,0.));
#367=CARTESIAN_POINT('',(1.60288927566799,-4.87172669310768,9.74345338621535));
#368=CARTESIAN_POINT('',(1.60288927566799,4.87172669310768,9.74345338621535));
#369=CARTESIAN_POINT('',(1.60288927566799,4.87172669310768,0.));
#370=CARTESIAN_POINT('',(1.60288927566799,4.87172669310768,-9.74345338621535));
#371=CARTESIAN_POINT('',(1.60288927566799,-4.87172669310768,-9.74345338621535));
#372=CARTESIAN_POINT('',(1.60288927566799,-4.87172669310768,0.));
#373=CARTESIAN_POINT('',(2.15092980627335,-5.52449591560225,0.));
#374=CARTESIAN_POINT('',(2.15092980627335,-5.52449591560224,11.0489918312045));
#375=CARTESIAN_POINT('',(2.15092980627334,5.52449591560225,11.0489918312045));
#376=CARTESIAN_POINT('',(2.15092980627334,5.52449591560225,0.));
#377=CARTESIAN_POINT('',(2.15092980627334,5.52449591560225,-11.0489918312045));
#378=CARTESIAN_POINT('',(2.15092980627335,-5.52449591560224,-11.0489918312045));
#379=CARTESIAN_POINT('',(2.15092980627335,-5.52449591560225,0.));
#380=CARTESIAN_POINT('',(3.45100886433483,-6.63614460413317,0.));
#381=CARTESIAN_POINT('',(3.45100886433483,-6.63614460413317,13.2722892082663));
#382=CARTESIAN_POINT('',(3.45100886433482,6.63614460413317,13.2722892082663));
#383=CARTESIAN_POINT('',(3.45100886433482,6.63614460413318,0.));
#384=CARTESIAN_POINT('',(3.45100886433482,6.63614460413317,-13.2722892082663));
#385=CARTESIAN_POINT('',(3.45100886433483,-6.63614460413317,-13.2722892082663));
#386=CARTESIAN_POINT('',(3.45100886433483,-6.63614460413317,0.));
#387=CARTESIAN_POINT('',(4.20199189375993,-7.09311311480411,0.));
#388=CARTESIAN_POINT('',(4.20199189375993,-7.0931131148041,14.1862262296082));
#389=CARTESIAN_POINT('',(4.20199189375992,7.09311311480412,14.1862262296082));
#390=CARTESIAN_POINT('',(4.20199189375993,7.09311311480412,0.));
#391=CARTESIAN_POINT('',(4.20199189375992,7.09311311480412,-14.1862262296082));
#392=CARTESIAN_POINT('',(4.20199189375993,-7.0931131148041,-14.1862262296082));
#393=CARTESIAN_POINT('',(4.20199189375993,-7.09311311480411,0.));
#394=CARTESIAN_POINT('',(6.58891683513604,-8.05955866046647,0.));
#395=CARTESIAN_POINT('',(6.58891683513604,-8.05955866046646,16.1191173209329));
#396=CARTESIAN_POINT('',(6.58891683513603,8.05955866046647,16.1191173209329));
#397=CARTESIAN_POINT('',(6.58891683513603,8.05955866046647,0.));
#398=CARTESIAN_POINT('',(6.58891683513603,8.05955866046647,-16.1191173209329));
#399=CARTESIAN_POINT('',(6.58891683513604,-8.05955866046646,-16.1191173209329));
#400=CARTESIAN_POINT('',(6.58891683513604,-8.05955866046647,0.));
#401=CARTESIAN_POINT('',(8.33087886991784,-8.13165182490473,0.));
#402=CARTESIAN_POINT('',(8.33087886991785,-8.13165182490472,16.2633036498095));
#403=CARTESIAN_POINT('',(8.33087886991783,8.13165182490473,16.2633036498095));
#404=CARTESIAN_POINT('',(8.33087886991784,8.13165182490474,0.));
#405=CARTESIAN_POINT('',(8.33087886991783,8.13165182490473,-16.2633036498095));
#406=CARTESIAN_POINT('',(8.33087886991785,-8.13165182490472,-16.2633036498095));
#407=CARTESIAN_POINT('',(8.33087886991784,-8.13165182490473,0.));
#408=CARTESIAN_POINT('',(10.1176017396856,-7.72211224335843,0.));
#409=CARTESIAN_POINT('',(10.1176017396856,-7.72211224335843,15.4442244867169));
#410=CARTESIAN_POINT('',(10.1176017396856,7.72211224335844,15.4442244867169));
#411=CARTESIAN_POINT('',(10.1176017396856,7.72211224335844,0.));
#412=CARTESIAN_POINT('',(10.1176017396856,7.72211224335844,-15.4442244867169));
#413=CARTESIAN_POINT('',(10.1176017396856,-7.72211224335843,-15.4442244867169));
#414=CARTESIAN_POINT('',(10.1176017396856,-7.72211224335843,0.));
#415=CARTESIAN_POINT('',(10.4342991265732,-7.62735622615541,0.));
#416=CARTESIAN_POINT('',(10.4342991265732,-7.6273562261554,15.2547124523108));
#417=CARTESIAN_POINT('',(10.4342991265732,7.62735622615542,15.2547124523108));
#418=CARTESIAN_POINT('',(10.4342991265732,7.62735622615542,0.));
#419=CARTESIAN_POINT('',(10.4342991265732,7.62735622615542,-15.2547124523108));
#420=CARTESIAN_POINT('',(10.4342991265732,-7.6273562261554,-15.2547124523108));
#421=CARTESIAN_POINT('',(10.4342991265732,-7.62735622615541,0.));
#422=CARTESIAN_POINT('',(10.7361187799847,-7.51748445825063,0.));
#423=CARTESIAN_POINT('',(10.7361187799847,-7.51748445825063,15.0349689165013));
#424=CARTESIAN_POINT('',(10.7361187799847,7.51748445825064,15.0349689165013));
#425=CARTESIAN_POINT('',(10.7361187799847,7.51748445825064,0.));
#426=CARTESIAN_POINT('',(10.7361187799847,7.51748445825064,-15.0349689165013));
#427=CARTESIAN_POINT('',(10.7361187799847,-7.51748445825063,-15.0349689165013));
#428=CARTESIAN_POINT('',(10.7361187799847,-7.51748445825063,0.));
#429=CARTESIAN_POINT('',(12.,-6.92820323027551,0.));
#430=CARTESIAN_POINT('',(12.,0.,0.));
#431=CARTESIAN_POINT('',(12.,-6.92820323027551,0.));
#432=MECHANICAL_DESIGN_GEOMETRIC_PRESENTATION_REPRESENTATION('',(#38,#39),
#433);
#433=(
GEOMETRIC_REPRESENTATION_CONTEXT(3)
GLOBAL_UNCERTAINTY_ASSIGNED_CONTEXT((#434))
GLOBAL_UNIT_ASSIGNED_CONTEXT((#440,#436,#435))
REPRESENTATION_CONTEXT('APMR-BNM16-D16-C16-L200',
'TOP_LEVEL_ASSEMBLY_PART')
);
#434=UNCERTAINTY_MEASURE_WITH_UNIT(LENGTH_MEASURE(2.E-5),#440,
'DISTANCE_ACCURACY_VALUE','Maximum Tolerance applied to model');
#435=(
NAMED_UNIT(*)
SI_UNIT($,.STERADIAN.)
SOLID_ANGLE_UNIT()
);
#436=(
CONVERSION_BASED_UNIT('DEGREE',#438)
NAMED_UNIT(#437)
PLANE_ANGLE_UNIT()
);
#437=DIMENSIONAL_EXPONENTS(0.,0.,0.,0.,0.,0.,0.);
#438=PLANE_ANGLE_MEASURE_WITH_UNIT(PLANE_ANGLE_MEASURE(0.0174532925),#439);
#439=(
NAMED_UNIT(*)
PLANE_ANGLE_UNIT()
SI_UNIT($,.RADIAN.)
);
#440=(
LENGTH_UNIT()
NAMED_UNIT(*)
SI_UNIT(.MILLI.,.METRE.)
);
ENDSEC;
END-ISO-10303-21;
