ISO-10303-21;
HEADER;
/* Generated by software containing ST-Developer
 * from STEP Tools, Inc. (www.steptools.com) 
 */
/* OPTION: using custom schema-name function */

FILE_DESCRIPTION(
/* description */ (''),
/* implementation_level */ '2;1');

FILE_NAME(
/* name */ 'APMR-BNM16-D16-M08-L23.stp',
/* time_stamp */ '2023-09-29T19:56:51+03:00',
/* author */ (''),
/* organization */ (''),
/* preprocessor_version */ 'ST-DEVELOPER v19.4',
/* originating_system */ 'SIEMENS PLM Software NX2306.5001',
/* authorisation */ '');

FILE_SCHEMA (('AUTOMOTIVE_DESIGN { 1 0 10303 214 3 1 1 1 }'));
ENDSEC;

DATA;
#10=PROPERTY_DEFINITION_REPRESENTATION(#14,#12);
#11=PROPERTY_DEFINITION_REPRESENTATION(#15,#13);
#12=REPRESENTATION('',(#16),#409);
#13=REPRESENTATION('',(#17),#409);
#14=PROPERTY_DEFINITION('pmi validation property','',#21);
#15=PROPERTY_DEFINITION('pmi validation property','',#21);
#16=VALUE_REPRESENTATION_ITEM('number of annotations',COUNT_MEASURE(0.));
#17=VALUE_REPRESENTATION_ITEM('number of views',COUNT_MEASURE(0.));
#18=SHAPE_REPRESENTATION_RELATIONSHIP('None',
'relationship between APMR-BNM16-D16-M08-L23-LIGHT_x_t_objects-None an
d APMR-BNM16-D16-M08-L23-LIGHT_x_t_objects-None',#30,#19);
#19=ADVANCED_BREP_SHAPE_REPRESENTATION(
'APMR-BNM16-D16-M08-L23-LIGHT_x_t_objects-None',(#52,#53),#409);
#20=SHAPE_DEFINITION_REPRESENTATION(#21,#30);
#21=PRODUCT_DEFINITION_SHAPE('','',#22);
#22=PRODUCT_DEFINITION(' ','',#24,#23);
#23=PRODUCT_DEFINITION_CONTEXT('part definition',#29,'design');
#24=PRODUCT_DEFINITION_FORMATION_WITH_SPECIFIED_SOURCE(' ',' ',#26,
 .NOT_KNOWN.);
#25=PRODUCT_RELATED_PRODUCT_CATEGORY('part','',(#26));
#26=PRODUCT('APMR-BNM16-D16-M08-L23-LIGHT_x_t_objects',
'APMR-BNM16-D16-M08-L23-LIGHT_x_t_objects',' ',(#27));
#27=PRODUCT_CONTEXT(' ',#29,'mechanical');
#28=APPLICATION_PROTOCOL_DEFINITION('international standard',
'automotive_design',2010,#29);
#29=APPLICATION_CONTEXT(
'core data for automotive mechanical design processes');
#30=SHAPE_REPRESENTATION(
'APMR-BNM16-D16-M08-L23-LIGHT_x_t_objects-None',(#243),#409);
#31=DRAUGHTING_PRE_DEFINED_COLOUR('yellow');
#32=LINE('',#403,#34);
#33=LINE('',#405,#35);
#34=VECTOR('',#347,1.);
#35=VECTOR('',#348,1.);
#36=PRESENTATION_LAYER_ASSIGNMENT('1','Layer 1',(#52,#53));
#37=STYLED_ITEM('',(#39),#52);
#38=STYLED_ITEM('',(#40),#53);
#39=PRESENTATION_STYLE_ASSIGNMENT((#41));
#40=PRESENTATION_STYLE_ASSIGNMENT((#42));
#41=SURFACE_STYLE_USAGE(.BOTH.,#43);
#42=SURFACE_STYLE_USAGE(.BOTH.,#44);
#43=SURFACE_SIDE_STYLE('',(#45));
#44=SURFACE_SIDE_STYLE('',(#46));
#45=SURFACE_STYLE_FILL_AREA(#47);
#46=SURFACE_STYLE_FILL_AREA(#48);
#47=FILL_AREA_STYLE('',(#49));
#48=FILL_AREA_STYLE('',(#50));
#49=FILL_AREA_STYLE_COLOUR('',#51);
#50=FILL_AREA_STYLE_COLOUR('',#31);
#51=COLOUR_RGB('silver gray',0.6,0.6,0.6);
#52=MANIFOLD_SOLID_BREP('',#54);
#53=MANIFOLD_SOLID_BREP('',#55);
#54=CLOSED_SHELL('',(#95,#96,#97,#98,#99,#100,#101,#102,#103,#104,#105,
#106,#107,#108));
#55=CLOSED_SHELL('',(#109,#110,#111,#112));
#56=TOROIDAL_SURFACE('',#259,4.63,0.6);
#57=CYLINDRICAL_SURFACE('',#251,3.875);
#58=CYLINDRICAL_SURFACE('',#255,4.25);
#59=CYLINDRICAL_SURFACE('',#267,7.375);
#60=CYLINDRICAL_SURFACE('',#270,7.);
#61=CONICAL_SURFACE('',#249,2.875,44.9999999999999);
#62=CONICAL_SURFACE('',#253,3.875,15.);
#63=CONICAL_SURFACE('',#257,4.25,15.0000000000003);
#64=CONICAL_SURFACE('',#261,4.78529142706151,74.9999999999999);
#65=CONICAL_SURFACE('',#265,6.875,44.9999999999999);
#66=CONICAL_SURFACE('',#269,7.375,45.0000000000002);
#67=FACE_BOUND('',#124,.T.);
#68=FACE_BOUND('',#125,.T.);
#69=FACE_BOUND('',#126,.T.);
#70=FACE_BOUND('',#127,.T.);
#71=FACE_BOUND('',#128,.T.);
#72=FACE_BOUND('',#129,.T.);
#73=FACE_BOUND('',#130,.T.);
#74=FACE_BOUND('',#131,.T.);
#75=FACE_BOUND('',#132,.T.);
#76=FACE_BOUND('',#133,.T.);
#77=FACE_BOUND('',#134,.T.);
#78=FACE_BOUND('',#135,.T.);
#79=FACE_BOUND('',#136,.T.);
#80=FACE_BOUND('',#137,.T.);
#81=FACE_BOUND('',#138,.T.);
#82=FACE_BOUND('',#139,.T.);
#83=FACE_BOUND('',#140,.T.);
#84=FACE_BOUND('',#141,.T.);
#85=FACE_BOUND('',#142,.T.);
#86=FACE_BOUND('',#143,.T.);
#87=FACE_BOUND('',#144,.T.);
#88=FACE_BOUND('',#145,.T.);
#89=FACE_BOUND('',#146,.T.);
#90=FACE_BOUND('',#147,.T.);
#91=PLANE('',#247);
#92=PLANE('',#263);
#93=PLANE('',#277);
#94=PLANE('',#278);
#95=ADVANCED_FACE('',(#116),#113,.T.);
#96=ADVANCED_FACE('',(#117),#91,.F.);
#97=ADVANCED_FACE('',(#67,#68),#61,.T.);
#98=ADVANCED_FACE('',(#69,#70),#57,.T.);
#99=ADVANCED_FACE('',(#71,#72),#62,.T.);
#100=ADVANCED_FACE('',(#73,#74),#58,.T.);
#101=ADVANCED_FACE('',(#75,#76),#63,.T.);
#102=ADVANCED_FACE('',(#77,#78),#56,.F.);
#103=ADVANCED_FACE('',(#79,#80),#64,.F.);
#104=ADVANCED_FACE('',(#81,#82),#92,.F.);
#105=ADVANCED_FACE('',(#83,#84),#65,.T.);
#106=ADVANCED_FACE('',(#85,#86),#59,.T.);
#107=ADVANCED_FACE('',(#87,#88),#66,.T.);
#108=ADVANCED_FACE('',(#89,#90),#60,.T.);
#109=ADVANCED_FACE('',(#118),#114,.T.);
#110=ADVANCED_FACE('',(#119),#115,.T.);
#111=ADVANCED_FACE('',(#120),#93,.F.);
#112=ADVANCED_FACE('',(#121),#94,.F.);
#113=SPHERICAL_SURFACE('',#245,7.);
#114=SPHERICAL_SURFACE('',#274,8.);
#115=SPHERICAL_SURFACE('',#276,8.);
#116=FACE_OUTER_BOUND('',#122,.T.);
#117=FACE_OUTER_BOUND('',#123,.T.);
#118=FACE_OUTER_BOUND('',#148,.T.);
#119=FACE_OUTER_BOUND('',#149,.T.);
#120=FACE_OUTER_BOUND('',#150,.T.);
#121=FACE_OUTER_BOUND('',#151,.T.);
#122=EDGE_LOOP('',(#152));
#123=EDGE_LOOP('',(#153));
#124=EDGE_LOOP('',(#154));
#125=EDGE_LOOP('',(#155));
#126=EDGE_LOOP('',(#156));
#127=EDGE_LOOP('',(#157));
#128=EDGE_LOOP('',(#158));
#129=EDGE_LOOP('',(#159));
#130=EDGE_LOOP('',(#160));
#131=EDGE_LOOP('',(#161));
#132=EDGE_LOOP('',(#162));
#133=EDGE_LOOP('',(#163));
#134=EDGE_LOOP('',(#164));
#135=EDGE_LOOP('',(#165));
#136=EDGE_LOOP('',(#166));
#137=EDGE_LOOP('',(#167));
#138=EDGE_LOOP('',(#168));
#139=EDGE_LOOP('',(#169));
#140=EDGE_LOOP('',(#170));
#141=EDGE_LOOP('',(#171));
#142=EDGE_LOOP('',(#172));
#143=EDGE_LOOP('',(#173));
#144=EDGE_LOOP('',(#174));
#145=EDGE_LOOP('',(#175));
#146=EDGE_LOOP('',(#176));
#147=EDGE_LOOP('',(#177));
#148=EDGE_LOOP('',(#178,#179,#180));
#149=EDGE_LOOP('',(#181,#182,#183));
#150=EDGE_LOOP('',(#184,#185,#186));
#151=EDGE_LOOP('',(#187,#188,#189));
#152=ORIENTED_EDGE('',*,*,#207,.T.);
#153=ORIENTED_EDGE('',*,*,#208,.F.);
#154=ORIENTED_EDGE('',*,*,#209,.F.);
#155=ORIENTED_EDGE('',*,*,#208,.T.);
#156=ORIENTED_EDGE('',*,*,#210,.F.);
#157=ORIENTED_EDGE('',*,*,#209,.T.);
#158=ORIENTED_EDGE('',*,*,#211,.F.);
#159=ORIENTED_EDGE('',*,*,#210,.T.);
#160=ORIENTED_EDGE('',*,*,#212,.F.);
#161=ORIENTED_EDGE('',*,*,#211,.T.);
#162=ORIENTED_EDGE('',*,*,#213,.F.);
#163=ORIENTED_EDGE('',*,*,#212,.T.);
#164=ORIENTED_EDGE('',*,*,#214,.F.);
#165=ORIENTED_EDGE('',*,*,#213,.T.);
#166=ORIENTED_EDGE('',*,*,#215,.F.);
#167=ORIENTED_EDGE('',*,*,#214,.T.);
#168=ORIENTED_EDGE('',*,*,#216,.F.);
#169=ORIENTED_EDGE('',*,*,#215,.T.);
#170=ORIENTED_EDGE('',*,*,#217,.F.);
#171=ORIENTED_EDGE('',*,*,#216,.T.);
#172=ORIENTED_EDGE('',*,*,#218,.F.);
#173=ORIENTED_EDGE('',*,*,#217,.T.);
#174=ORIENTED_EDGE('',*,*,#219,.F.);
#175=ORIENTED_EDGE('',*,*,#218,.T.);
#176=ORIENTED_EDGE('',*,*,#207,.F.);
#177=ORIENTED_EDGE('',*,*,#219,.T.);
#178=ORIENTED_EDGE('',*,*,#220,.F.);
#179=ORIENTED_EDGE('',*,*,#221,.F.);
#180=ORIENTED_EDGE('',*,*,#222,.F.);
#181=ORIENTED_EDGE('',*,*,#223,.F.);
#182=ORIENTED_EDGE('',*,*,#221,.T.);
#183=ORIENTED_EDGE('',*,*,#220,.T.);
#184=ORIENTED_EDGE('',*,*,#224,.T.);
#185=ORIENTED_EDGE('',*,*,#223,.T.);
#186=ORIENTED_EDGE('',*,*,#225,.T.);
#187=ORIENTED_EDGE('',*,*,#222,.T.);
#188=ORIENTED_EDGE('',*,*,#224,.F.);
#189=ORIENTED_EDGE('',*,*,#225,.F.);
#190=VERTEX_POINT('',#355);
#191=VERTEX_POINT('',#358);
#192=VERTEX_POINT('',#361);
#193=VERTEX_POINT('',#364);
#194=VERTEX_POINT('',#367);
#195=VERTEX_POINT('',#370);
#196=VERTEX_POINT('',#373);
#197=VERTEX_POINT('',#376);
#198=VERTEX_POINT('',#379);
#199=VERTEX_POINT('',#382);
#200=VERTEX_POINT('',#385);
#201=VERTEX_POINT('',#388);
#202=VERTEX_POINT('',#391);
#203=VERTEX_POINT('',#395);
#204=VERTEX_POINT('',#396);
#205=VERTEX_POINT('',#398);
#206=VERTEX_POINT('',#404);
#207=EDGE_CURVE('',#190,#190,#226,.T.);
#208=EDGE_CURVE('',#191,#191,#227,.T.);
#209=EDGE_CURVE('',#192,#192,#228,.T.);
#210=EDGE_CURVE('',#193,#193,#229,.T.);
#211=EDGE_CURVE('',#194,#194,#230,.T.);
#212=EDGE_CURVE('',#195,#195,#231,.T.);
#213=EDGE_CURVE('',#196,#196,#232,.T.);
#214=EDGE_CURVE('',#197,#197,#233,.T.);
#215=EDGE_CURVE('',#198,#198,#234,.T.);
#216=EDGE_CURVE('',#199,#199,#235,.T.);
#217=EDGE_CURVE('',#200,#200,#236,.T.);
#218=EDGE_CURVE('',#201,#201,#237,.T.);
#219=EDGE_CURVE('',#202,#202,#238,.T.);
#220=EDGE_CURVE('',#203,#204,#239,.T.);
#221=EDGE_CURVE('',#205,#203,#240,.T.);
#222=EDGE_CURVE('',#204,#205,#241,.T.);
#223=EDGE_CURVE('',#205,#204,#242,.T.);
#224=EDGE_CURVE('',#206,#205,#32,.T.);
#225=EDGE_CURVE('',#204,#206,#33,.T.);
#226=CIRCLE('',#244,7.);
#227=CIRCLE('',#246,2.875);
#228=CIRCLE('',#248,3.875);
#229=CIRCLE('',#250,3.875);
#230=CIRCLE('',#252,4.25);
#231=CIRCLE('',#254,4.25);
#232=CIRCLE('',#256,4.05044450422656);
#233=CIRCLE('',#258,4.78529142706151);
#234=CIRCLE('',#260,5.53004267621761);
#235=CIRCLE('',#262,6.875);
#236=CIRCLE('',#264,7.375);
#237=CIRCLE('',#266,7.375);
#238=CIRCLE('',#268,7.);
#239=CIRCLE('',#271,8.);
#240=CIRCLE('',#272,8.);
#241=CIRCLE('',#273,6.92820323027551);
#242=CIRCLE('',#275,6.92820323027551);
#243=AXIS2_PLACEMENT_3D('',#353,#279,#280);
#244=AXIS2_PLACEMENT_3D('',#354,#281,#282);
#245=AXIS2_PLACEMENT_3D('',#356,#283,#284);
#246=AXIS2_PLACEMENT_3D('',#357,#285,#286);
#247=AXIS2_PLACEMENT_3D('',#359,#287,#288);
#248=AXIS2_PLACEMENT_3D('',#360,#289,#290);
#249=AXIS2_PLACEMENT_3D('',#362,#291,#292);
#250=AXIS2_PLACEMENT_3D('',#363,#293,#294);
#251=AXIS2_PLACEMENT_3D('',#365,#295,#296);
#252=AXIS2_PLACEMENT_3D('',#366,#297,#298);
#253=AXIS2_PLACEMENT_3D('',#368,#299,#300);
#254=AXIS2_PLACEMENT_3D('',#369,#301,#302);
#255=AXIS2_PLACEMENT_3D('',#371,#303,#304);
#256=AXIS2_PLACEMENT_3D('',#372,#305,#306);
#257=AXIS2_PLACEMENT_3D('',#374,#307,#308);
#258=AXIS2_PLACEMENT_3D('',#375,#309,#310);
#259=AXIS2_PLACEMENT_3D('',#377,#311,#312);
#260=AXIS2_PLACEMENT_3D('',#378,#313,#314);
#261=AXIS2_PLACEMENT_3D('',#380,#315,#316);
#262=AXIS2_PLACEMENT_3D('',#381,#317,#318);
#263=AXIS2_PLACEMENT_3D('',#383,#319,#320);
#264=AXIS2_PLACEMENT_3D('',#384,#321,#322);
#265=AXIS2_PLACEMENT_3D('',#386,#323,#324);
#266=AXIS2_PLACEMENT_3D('',#387,#325,#326);
#267=AXIS2_PLACEMENT_3D('',#389,#327,#328);
#268=AXIS2_PLACEMENT_3D('',#390,#329,#330);
#269=AXIS2_PLACEMENT_3D('',#392,#331,#332);
#270=AXIS2_PLACEMENT_3D('',#393,#333,#334);
#271=AXIS2_PLACEMENT_3D('',#394,#335,#336);
#272=AXIS2_PLACEMENT_3D('',#397,#337,#338);
#273=AXIS2_PLACEMENT_3D('',#399,#339,#340);
#274=AXIS2_PLACEMENT_3D('',#400,#341,#342);
#275=AXIS2_PLACEMENT_3D('',#401,#343,#344);
#276=AXIS2_PLACEMENT_3D('',#402,#345,#346);
#277=AXIS2_PLACEMENT_3D('',#406,#349,#350);
#278=AXIS2_PLACEMENT_3D('',#407,#351,#352);
#279=DIRECTION('',(0.,0.,1.));
#280=DIRECTION('',(1.,0.,0.));
#281=DIRECTION('',(-1.,0.,0.));
#282=DIRECTION('',(0.,0.,1.));
#283=DIRECTION('',(-1.,6.12323399573677E-17,0.));
#284=DIRECTION('',(0.,1.,0.));
#285=DIRECTION('',(-1.,0.,0.));
#286=DIRECTION('',(0.,0.,1.));
#287=DIRECTION('',(-1.,0.,0.));
#288=DIRECTION('',(0.,0.,1.));
#289=DIRECTION('',(-1.,0.,0.));
#290=DIRECTION('',(0.,0.,1.));
#291=DIRECTION('',(-1.,0.,0.));
#292=DIRECTION('',(3.45950088690378E-17,0.,1.));
#293=DIRECTION('',(-1.,0.,0.));
#294=DIRECTION('',(0.,0.,1.));
#295=DIRECTION('',(-1.,0.,0.));
#296=DIRECTION('',(0.,0.,1.));
#297=DIRECTION('',(-1.,0.,0.));
#298=DIRECTION('',(0.,0.,1.));
#299=DIRECTION('',(-1.,0.,0.));
#300=DIRECTION('',(-6.38178471335427E-17,0.,1.));
#301=DIRECTION('',(-1.,0.,0.));
#302=DIRECTION('',(0.,0.,1.));
#303=DIRECTION('',(-1.,0.,0.));
#304=DIRECTION('',(0.,0.,1.));
#305=DIRECTION('',(-1.,0.,0.));
#306=DIRECTION('',(0.,0.,1.));
#307=DIRECTION('',(1.,0.,0.));
#308=DIRECTION('',(-2.67665694891657E-16,0.,-1.));
#309=DIRECTION('',(-1.,0.,0.));
#310=DIRECTION('',(0.,0.,1.));
#311=DIRECTION('',(-1.,0.,0.));
#312=DIRECTION('',(0.,0.,1.));
#313=DIRECTION('',(-1.,0.,0.));
#314=DIRECTION('',(0.,0.,1.));
#315=DIRECTION('',(1.,0.,0.));
#316=DIRECTION('',(-2.13542359849217E-17,0.,-1.));
#317=DIRECTION('',(-1.,0.,0.));
#318=DIRECTION('',(0.,0.,1.));
#319=DIRECTION('',(-1.,0.,0.));
#320=DIRECTION('',(0.,0.,1.));
#321=DIRECTION('',(-1.,0.,0.));
#322=DIRECTION('',(0.,0.,1.));
#323=DIRECTION('',(-1.,0.,0.));
#324=DIRECTION('',(2.06745442202078E-17,0.,1.));
#325=DIRECTION('',(-1.,0.,0.));
#326=DIRECTION('',(0.,0.,1.));
#327=DIRECTION('',(-1.,0.,0.));
#328=DIRECTION('',(0.,0.,1.));
#329=DIRECTION('',(-1.,0.,0.));
#330=DIRECTION('',(0.,0.,1.));
#331=DIRECTION('',(1.,0.,0.));
#332=DIRECTION('',(3.09964239410173E-17,0.,-1.));
#333=DIRECTION('',(-1.,0.,0.));
#334=DIRECTION('',(0.,0.,1.));
#335=DIRECTION('',(0.,1.,6.12323399573677E-17));
#336=DIRECTION('',(1.,0.,0.));
#337=DIRECTION('',(0.,0.,-1.));
#338=DIRECTION('',(1.,0.,0.));
#339=DIRECTION('',(1.,0.,0.));
#340=DIRECTION('',(0.,-6.12323399573677E-17,1.));
#341=DIRECTION('',(1.,3.74939945665465E-33,-6.12323399573677E-17));
#342=DIRECTION('',(0.,6.12323399573677E-17,-1.));
#343=DIRECTION('',(1.,0.,0.));
#344=DIRECTION('',(0.,-1.,0.));
#345=DIRECTION('',(1.,6.12323399573677E-17,0.));
#346=DIRECTION('',(0.,1.,0.));
#347=DIRECTION('',(-7.51157299368579E-16,-1.,0.));
#348=DIRECTION('',(7.51157299368579E-16,6.12323399573677E-17,-1.));
#349=DIRECTION('',(-1.,0.,0.));
#350=DIRECTION('',(0.,0.,1.));
#351=DIRECTION('',(-1.,0.,0.));
#352=DIRECTION('',(0.,0.,1.));
#353=CARTESIAN_POINT('',(0.,0.,0.));
#354=CARTESIAN_POINT('',(8.,0.,0.));
#355=CARTESIAN_POINT('',(8.,0.,7.));
#356=CARTESIAN_POINT('',(8.,0.,0.));
#357=CARTESIAN_POINT('',(40.,0.,0.));
#358=CARTESIAN_POINT('',(40.,0.,2.875));
#359=CARTESIAN_POINT('',(40.,2.875,0.));
#360=CARTESIAN_POINT('',(39.,0.,0.));
#361=CARTESIAN_POINT('',(39.,0.,3.875));
#362=CARTESIAN_POINT('',(40.,0.,0.));
#363=CARTESIAN_POINT('',(30.3995190528383,0.,0.));
#364=CARTESIAN_POINT('',(30.3995190528383,0.,3.875));
#365=CARTESIAN_POINT('',(0.,0.,0.));
#366=CARTESIAN_POINT('',(29.,0.,0.));
#367=CARTESIAN_POINT('',(29.,0.,4.25));
#368=CARTESIAN_POINT('',(30.3995190528383,0.,0.));
#369=CARTESIAN_POINT('',(24.2800426762176,0.,0.));
#370=CARTESIAN_POINT('',(24.2800426762176,0.,4.25));
#371=CARTESIAN_POINT('',(0.,0.,0.));
#372=CARTESIAN_POINT('',(23.5352914270615,0.,0.));
#373=CARTESIAN_POINT('',(23.5352914270615,0.,4.05044450422656));
#374=CARTESIAN_POINT('',(24.2800426762176,0.,0.));
#375=CARTESIAN_POINT('',(22.8004445042265,0.,0.));
#376=CARTESIAN_POINT('',(22.8004445042265,0.,4.78529142706151));
#377=CARTESIAN_POINT('',(23.38,0.,0.));
#378=CARTESIAN_POINT('',(23.,0.,0.));
#379=CARTESIAN_POINT('',(23.,0.,5.53004267621761));
#380=CARTESIAN_POINT('',(22.8004445042265,0.,0.));
#381=CARTESIAN_POINT('',(23.,0.,0.));
#382=CARTESIAN_POINT('',(23.,0.,6.875));
#383=CARTESIAN_POINT('',(23.,6.875,0.));
#384=CARTESIAN_POINT('',(22.5,0.,0.));
#385=CARTESIAN_POINT('',(22.5,0.,7.375));
#386=CARTESIAN_POINT('',(23.,0.,0.));
#387=CARTESIAN_POINT('',(20.375,0.,0.));
#388=CARTESIAN_POINT('',(20.375,0.,7.375));
#389=CARTESIAN_POINT('',(0.,0.,0.));
#390=CARTESIAN_POINT('',(20.,0.,0.));
#391=CARTESIAN_POINT('',(20.,0.,7.));
#392=CARTESIAN_POINT('',(20.375,0.,0.));
#393=CARTESIAN_POINT('',(0.,0.,0.));
#394=CARTESIAN_POINT('',(8.,0.,0.));
#395=CARTESIAN_POINT('',(0.,9.79717439317882E-16,0.));
#396=CARTESIAN_POINT('',(12.,1.27269028646989E-15,6.92820323027551));
#397=CARTESIAN_POINT('',(8.,0.,0.));
#398=CARTESIAN_POINT('',(12.,-6.92820323027551,0.));
#399=CARTESIAN_POINT('',(12.,0.,0.));
#400=CARTESIAN_POINT('',(8.,0.,0.));
#401=CARTESIAN_POINT('',(12.,0.,0.));
#402=CARTESIAN_POINT('',(8.,0.,0.));
#403=CARTESIAN_POINT('',(12.,0.,0.));
#404=CARTESIAN_POINT('',(12.,0.,0.));
#405=CARTESIAN_POINT('',(12.,0.,0.));
#406=CARTESIAN_POINT('',(12.,0.,0.));
#407=CARTESIAN_POINT('',(12.,0.,0.));
#408=MECHANICAL_DESIGN_GEOMETRIC_PRESENTATION_REPRESENTATION('',(#37,#38),
#409);
#409=(
GEOMETRIC_REPRESENTATION_CONTEXT(3)
GLOBAL_UNCERTAINTY_ASSIGNED_CONTEXT((#410))
GLOBAL_UNIT_ASSIGNED_CONTEXT((#416,#412,#411))
REPRESENTATION_CONTEXT('APMR-BNM16-D16-M08-L23',
'TOP_LEVEL_ASSEMBLY_PART')
);
#410=UNCERTAINTY_MEASURE_WITH_UNIT(LENGTH_MEASURE(2.E-5),#416,
'DISTANCE_ACCURACY_VALUE','Maximum Tolerance applied to model');
#411=(
NAMED_UNIT(*)
SI_UNIT($,.STERADIAN.)
SOLID_ANGLE_UNIT()
);
#412=(
CONVERSION_BASED_UNIT('DEGREE',#414)
NAMED_UNIT(#413)
PLANE_ANGLE_UNIT()
);
#413=DIMENSIONAL_EXPONENTS(0.,0.,0.,0.,0.,0.,0.);
#414=PLANE_ANGLE_MEASURE_WITH_UNIT(PLANE_ANGLE_MEASURE(0.0174532925),#415);
#415=(
NAMED_UNIT(*)
PLANE_ANGLE_UNIT()
SI_UNIT($,.RADIAN.)
);
#416=(
LENGTH_UNIT()
NAMED_UNIT(*)
SI_UNIT(.MILLI.,.METRE.)
);
ENDSEC;
END-ISO-10303-21;
