ISO-10303-21;
HEADER;
/* Generated by software containing ST-Developer
 * from STEP Tools, Inc. (www.steptools.com) 
 */
/* OPTION: using custom schema-name function */

FILE_DESCRIPTION(
/* description */ (''),
/* implementation_level */ '2;1');

FILE_NAME(
/* name */ 'APMR-BNM20-D20-C20-L160.stp',
/* time_stamp */ '2023-10-02T11:02:51+03:00',
/* author */ (''),
/* organization */ (''),
/* preprocessor_version */ 'ST-DEVELOPER v19.4',
/* originating_system */ 'SIEMENS PLM Software NX2306.5001',
/* authorisation */ '');

FILE_SCHEMA (('AUTOMOTIVE_DESIGN { 1 0 10303 214 3 1 1 1 }'));
ENDSEC;

DATA;
#10=PROPERTY_DEFINITION_REPRESENTATION(#14,#12);
#11=PROPERTY_DEFINITION_REPRESENTATION(#15,#13);
#12=REPRESENTATION('',(#16),#371);
#13=REPRESENTATION('',(#17),#371);
#14=PROPERTY_DEFINITION('pmi validation property','',#21);
#15=PROPERTY_DEFINITION('pmi validation property','',#21);
#16=VALUE_REPRESENTATION_ITEM('number of annotations',COUNT_MEASURE(0.));
#17=VALUE_REPRESENTATION_ITEM('number of views',COUNT_MEASURE(0.));
#18=SHAPE_REPRESENTATION_RELATIONSHIP('None',
'relationship between APMR-BNM20-D20-C20-L160-LIGHT_x_t_objects-None a
nd APMR-BNM20-D20-C20-L160-LIGHT_x_t_objects-None',#30,#19);
#19=ADVANCED_BREP_SHAPE_REPRESENTATION(
'APMR-BNM20-D20-C20-L160-LIGHT_x_t_objects-None',(#67,#68),#371);
#20=SHAPE_DEFINITION_REPRESENTATION(#21,#30);
#21=PRODUCT_DEFINITION_SHAPE('','',#22);
#22=PRODUCT_DEFINITION(' ','',#24,#23);
#23=PRODUCT_DEFINITION_CONTEXT('part definition',#29,'design');
#24=PRODUCT_DEFINITION_FORMATION_WITH_SPECIFIED_SOURCE(' ',' ',#26,
 .NOT_KNOWN.);
#25=PRODUCT_RELATED_PRODUCT_CATEGORY('part','',(#26));
#26=PRODUCT('APMR-BNM20-D20-C20-L160-LIGHT_x_t_objects',
'APMR-BNM20-D20-C20-L160-LIGHT_x_t_objects',' ',(#27));
#27=PRODUCT_CONTEXT(' ',#29,'mechanical');
#28=APPLICATION_PROTOCOL_DEFINITION('international standard',
'automotive_design',2010,#29);
#29=APPLICATION_CONTEXT(
'core data for automotive mechanical design processes');
#30=SHAPE_REPRESENTATION(
'APMR-BNM20-D20-C20-L160-LIGHT_x_t_objects-None',(#222),#371);
#31=DRAUGHTING_PRE_DEFINED_COLOUR('yellow');
#32=LINE('',#355,#36);
#33=LINE('',#359,#37);
#34=LINE('',#363,#38);
#35=LINE('',#368,#39);
#36=VECTOR('',#290,3.3293197804921);
#37=VECTOR('',#294,0.462886388340098);
#38=VECTOR('',#298,1.27361308675055);
#39=VECTOR('',#304,15.1876890368033);
#40=SURFACE_OF_REVOLUTION('',#50,#45);
#41=SURFACE_OF_REVOLUTION('',#32,#46);
#42=SURFACE_OF_REVOLUTION('',#33,#47);
#43=SURFACE_OF_REVOLUTION('',#34,#48);
#44=SURFACE_OF_REVOLUTION('',#35,#49);
#45=AXIS1_PLACEMENT('',#352,#287);
#46=AXIS1_PLACEMENT('',#356,#291);
#47=AXIS1_PLACEMENT('',#360,#295);
#48=AXIS1_PLACEMENT('',#364,#299);
#49=AXIS1_PLACEMENT('',#369,#305);
#50=B_SPLINE_CURVE_WITH_KNOTS('',3,(#336,#337,#338,#339,#340,#341,#342,
#343,#344,#345,#346,#347,#348,#349,#350,#351),.UNSPECIFIED.,.F.,.F.,(4,
2,2,2,2,2,2,4),(0.,0.0238353298523786,0.0662772720327103,0.151161156393373,
0.320928925114699,0.490696693836024,0.660464462557349,1.),.UNSPECIFIED.);
#51=PRESENTATION_LAYER_ASSIGNMENT('1','Layer 1',(#67,#68));
#52=STYLED_ITEM('',(#54),#67);
#53=STYLED_ITEM('',(#55),#68);
#54=PRESENTATION_STYLE_ASSIGNMENT((#56));
#55=PRESENTATION_STYLE_ASSIGNMENT((#57));
#56=SURFACE_STYLE_USAGE(.BOTH.,#58);
#57=SURFACE_STYLE_USAGE(.BOTH.,#59);
#58=SURFACE_SIDE_STYLE('',(#60));
#59=SURFACE_SIDE_STYLE('',(#61));
#60=SURFACE_STYLE_FILL_AREA(#62);
#61=SURFACE_STYLE_FILL_AREA(#63);
#62=FILL_AREA_STYLE('',(#64));
#63=FILL_AREA_STYLE('',(#65));
#64=FILL_AREA_STYLE_COLOUR('',#66);
#65=FILL_AREA_STYLE_COLOUR('',#31);
#66=COLOUR_RGB('silver gray',0.6,0.6,0.6);
#67=MANIFOLD_SOLID_BREP('',#69);
#68=MANIFOLD_SOLID_BREP('',#70);
#69=CLOSED_SHELL('',(#106,#107,#108,#109,#110,#111,#112,#113,#114));
#70=CLOSED_SHELL('',(#115,#116,#117,#118,#119,#120));
#71=CONICAL_SURFACE('',#232,9.75,9.99999999999983);
#72=CONICAL_SURFACE('',#236,9.9999999999998,44.9999999999998);
#73=CONICAL_SURFACE('',#238,9.7499999999998,1.44412553093601);
#74=CYLINDRICAL_SURFACE('',#230,9.75);
#75=CYLINDRICAL_SURFACE('',#234,9.99999999999989);
#76=CYLINDRICAL_SURFACE('',#239,8.99999999999968);
#77=TOROIDAL_SURFACE('',#228,8.25,1.49999999999999);
#78=FACE_BOUND('',#126,.T.);
#79=FACE_BOUND('',#127,.T.);
#80=FACE_BOUND('',#128,.T.);
#81=FACE_BOUND('',#129,.T.);
#82=FACE_BOUND('',#130,.T.);
#83=FACE_BOUND('',#131,.T.);
#84=FACE_BOUND('',#132,.T.);
#85=FACE_BOUND('',#133,.T.);
#86=FACE_BOUND('',#134,.T.);
#87=FACE_BOUND('',#135,.T.);
#88=FACE_BOUND('',#136,.T.);
#89=FACE_BOUND('',#137,.T.);
#90=FACE_BOUND('',#138,.T.);
#91=FACE_BOUND('',#139,.T.);
#92=FACE_BOUND('',#140,.T.);
#93=FACE_BOUND('',#141,.T.);
#94=FACE_BOUND('',#142,.T.);
#95=FACE_BOUND('',#143,.T.);
#96=FACE_BOUND('',#144,.T.);
#97=FACE_BOUND('',#145,.T.);
#98=FACE_BOUND('',#146,.T.);
#99=FACE_BOUND('',#147,.T.);
#100=FACE_BOUND('',#148,.T.);
#101=FACE_BOUND('',#149,.T.);
#102=FACE_BOUND('',#150,.T.);
#103=FACE_BOUND('',#151,.T.);
#104=PLANE('',#226);
#105=PLANE('',#246);
#106=ADVANCED_FACE('',(#122),#121,.T.);
#107=ADVANCED_FACE('',(#123),#104,.F.);
#108=ADVANCED_FACE('',(#78,#79),#77,.T.);
#109=ADVANCED_FACE('',(#80,#81),#74,.T.);
#110=ADVANCED_FACE('',(#82,#83),#71,.T.);
#111=ADVANCED_FACE('',(#84,#85),#75,.T.);
#112=ADVANCED_FACE('',(#86,#87),#72,.T.);
#113=ADVANCED_FACE('',(#88,#89),#73,.T.);
#114=ADVANCED_FACE('',(#90,#91),#76,.T.);
#115=ADVANCED_FACE('',(#92,#93),#40,.T.);
#116=ADVANCED_FACE('',(#94,#95),#41,.T.);
#117=ADVANCED_FACE('',(#96,#97),#42,.T.);
#118=ADVANCED_FACE('',(#98,#99),#43,.T.);
#119=ADVANCED_FACE('',(#100,#101),#105,.F.);
#120=ADVANCED_FACE('',(#102,#103),#44,.T.);
#121=SPHERICAL_SURFACE('',#224,9.);
#122=FACE_OUTER_BOUND('',#124,.T.);
#123=FACE_OUTER_BOUND('',#125,.T.);
#124=EDGE_LOOP('',(#152));
#125=EDGE_LOOP('',(#153));
#126=EDGE_LOOP('',(#154));
#127=EDGE_LOOP('',(#155));
#128=EDGE_LOOP('',(#156));
#129=EDGE_LOOP('',(#157));
#130=EDGE_LOOP('',(#158));
#131=EDGE_LOOP('',(#159));
#132=EDGE_LOOP('',(#160));
#133=EDGE_LOOP('',(#161));
#134=EDGE_LOOP('',(#162));
#135=EDGE_LOOP('',(#163));
#136=EDGE_LOOP('',(#164));
#137=EDGE_LOOP('',(#165));
#138=EDGE_LOOP('',(#166));
#139=EDGE_LOOP('',(#167));
#140=EDGE_LOOP('',(#168));
#141=EDGE_LOOP('',(#169));
#142=EDGE_LOOP('',(#170));
#143=EDGE_LOOP('',(#171));
#144=EDGE_LOOP('',(#172));
#145=EDGE_LOOP('',(#173));
#146=EDGE_LOOP('',(#174));
#147=EDGE_LOOP('',(#175));
#148=EDGE_LOOP('',(#176));
#149=EDGE_LOOP('',(#177));
#150=EDGE_LOOP('',(#178));
#151=EDGE_LOOP('',(#179));
#152=ORIENTED_EDGE('',*,*,#194,.T.);
#153=ORIENTED_EDGE('',*,*,#195,.F.);
#154=ORIENTED_EDGE('',*,*,#196,.F.);
#155=ORIENTED_EDGE('',*,*,#195,.T.);
#156=ORIENTED_EDGE('',*,*,#197,.F.);
#157=ORIENTED_EDGE('',*,*,#196,.T.);
#158=ORIENTED_EDGE('',*,*,#198,.F.);
#159=ORIENTED_EDGE('',*,*,#197,.T.);
#160=ORIENTED_EDGE('',*,*,#199,.F.);
#161=ORIENTED_EDGE('',*,*,#198,.T.);
#162=ORIENTED_EDGE('',*,*,#200,.F.);
#163=ORIENTED_EDGE('',*,*,#199,.T.);
#164=ORIENTED_EDGE('',*,*,#201,.F.);
#165=ORIENTED_EDGE('',*,*,#200,.T.);
#166=ORIENTED_EDGE('',*,*,#194,.F.);
#167=ORIENTED_EDGE('',*,*,#201,.T.);
#168=ORIENTED_EDGE('',*,*,#202,.F.);
#169=ORIENTED_EDGE('',*,*,#203,.T.);
#170=ORIENTED_EDGE('',*,*,#204,.F.);
#171=ORIENTED_EDGE('',*,*,#202,.T.);
#172=ORIENTED_EDGE('',*,*,#205,.F.);
#173=ORIENTED_EDGE('',*,*,#204,.T.);
#174=ORIENTED_EDGE('',*,*,#206,.F.);
#175=ORIENTED_EDGE('',*,*,#205,.T.);
#176=ORIENTED_EDGE('',*,*,#207,.F.);
#177=ORIENTED_EDGE('',*,*,#206,.T.);
#178=ORIENTED_EDGE('',*,*,#203,.F.);
#179=ORIENTED_EDGE('',*,*,#207,.T.);
#180=VERTEX_POINT('',#308);
#181=VERTEX_POINT('',#311);
#182=VERTEX_POINT('',#314);
#183=VERTEX_POINT('',#317);
#184=VERTEX_POINT('',#320);
#185=VERTEX_POINT('',#323);
#186=VERTEX_POINT('',#326);
#187=VERTEX_POINT('',#329);
#188=VERTEX_POINT('',#333);
#189=VERTEX_POINT('',#335);
#190=VERTEX_POINT('',#354);
#191=VERTEX_POINT('',#358);
#192=VERTEX_POINT('',#362);
#193=VERTEX_POINT('',#366);
#194=EDGE_CURVE('',#180,#180,#208,.T.);
#195=EDGE_CURVE('',#181,#181,#209,.T.);
#196=EDGE_CURVE('',#182,#182,#210,.T.);
#197=EDGE_CURVE('',#183,#183,#211,.T.);
#198=EDGE_CURVE('',#184,#184,#212,.T.);
#199=EDGE_CURVE('',#185,#185,#213,.T.);
#200=EDGE_CURVE('',#186,#186,#214,.T.);
#201=EDGE_CURVE('',#187,#187,#215,.T.);
#202=EDGE_CURVE('',#188,#188,#216,.T.);
#203=EDGE_CURVE('',#189,#189,#217,.T.);
#204=EDGE_CURVE('',#190,#190,#218,.T.);
#205=EDGE_CURVE('',#191,#191,#219,.T.);
#206=EDGE_CURVE('',#192,#192,#220,.T.);
#207=EDGE_CURVE('',#193,#193,#221,.T.);
#208=CIRCLE('',#223,8.99999999999965);
#209=CIRCLE('',#225,8.25);
#210=CIRCLE('',#227,9.75);
#211=CIRCLE('',#229,9.75);
#212=CIRCLE('',#231,10.);
#213=CIRCLE('',#233,9.9999999999998);
#214=CIRCLE('',#235,9.7499999999998);
#215=CIRCLE('',#237,8.99999999999972);
#216=CIRCLE('',#240,10.0727459405035);
#217=CIRCLE('',#241,0.000758272844714968);
#218=CIRCLE('',#242,9.44479434752945);
#219=CIRCLE('',#243,8.9866434326595);
#220=CIRCLE('',#244,7.72378501135894);
#221=CIRCLE('',#245,0.729156219575007);
#222=AXIS2_PLACEMENT_3D('',#306,#247,#248);
#223=AXIS2_PLACEMENT_3D('',#307,#249,#250);
#224=AXIS2_PLACEMENT_3D('',#309,#251,#252);
#225=AXIS2_PLACEMENT_3D('',#310,#253,#254);
#226=AXIS2_PLACEMENT_3D('',#312,#255,#256);
#227=AXIS2_PLACEMENT_3D('',#313,#257,#258);
#228=AXIS2_PLACEMENT_3D('',#315,#259,#260);
#229=AXIS2_PLACEMENT_3D('',#316,#261,#262);
#230=AXIS2_PLACEMENT_3D('',#318,#263,#264);
#231=AXIS2_PLACEMENT_3D('',#319,#265,#266);
#232=AXIS2_PLACEMENT_3D('',#321,#267,#268);
#233=AXIS2_PLACEMENT_3D('',#322,#269,#270);
#234=AXIS2_PLACEMENT_3D('',#324,#271,#272);
#235=AXIS2_PLACEMENT_3D('',#325,#273,#274);
#236=AXIS2_PLACEMENT_3D('',#327,#275,#276);
#237=AXIS2_PLACEMENT_3D('',#328,#277,#278);
#238=AXIS2_PLACEMENT_3D('',#330,#279,#280);
#239=AXIS2_PLACEMENT_3D('',#331,#281,#282);
#240=AXIS2_PLACEMENT_3D('',#332,#283,#284);
#241=AXIS2_PLACEMENT_3D('',#334,#285,#286);
#242=AXIS2_PLACEMENT_3D('',#353,#288,#289);
#243=AXIS2_PLACEMENT_3D('',#357,#292,#293);
#244=AXIS2_PLACEMENT_3D('',#361,#296,#297);
#245=AXIS2_PLACEMENT_3D('',#365,#300,#301);
#246=AXIS2_PLACEMENT_3D('',#367,#302,#303);
#247=DIRECTION('',(0.,0.,1.));
#248=DIRECTION('',(1.,0.,0.));
#249=DIRECTION('',(-1.,2.23712668780895E-15,0.));
#250=DIRECTION('',(-2.31296463463583E-15,-1.,0.));
#251=DIRECTION('',(-1.,2.29835902776632E-15,0.));
#252=DIRECTION('',(2.31296463463574E-15,1.,0.));
#253=DIRECTION('',(-1.,2.23712668780895E-15,0.));
#254=DIRECTION('',(-3.36431219583381E-15,-1.,0.));
#255=DIRECTION('',(-1.,2.23712668780895E-15,0.));
#256=DIRECTION('',(-2.24820162486594E-15,-1.,0.));
#257=DIRECTION('',(-1.,2.23712668780895E-15,0.));
#258=DIRECTION('',(-2.84672570416707E-15,-1.,0.));
#259=DIRECTION('',(-1.,2.23712668780895E-15,0.));
#260=DIRECTION('',(-2.84672570416707E-15,-1.,0.));
#261=DIRECTION('',(-1.,2.23712668780895E-15,0.));
#262=DIRECTION('',(-2.84672570416707E-15,-1.,0.));
#263=DIRECTION('',(-1.,2.23712668780895E-15,0.));
#264=DIRECTION('',(-2.23712668780895E-15,-1.,0.));
#265=DIRECTION('',(-1.,2.23712668780895E-15,0.));
#266=DIRECTION('',(-2.77555756156289E-15,-1.,0.));
#267=DIRECTION('',(-1.,2.23712668780895E-15,0.));
#268=DIRECTION('',(-2.23742685768708E-15,-1.,0.));
#269=DIRECTION('',(-1.,2.23712668780895E-15,0.));
#270=DIRECTION('',(-2.77555756156295E-15,-1.,0.));
#271=DIRECTION('',(-1.,2.23712668780895E-15,0.));
#272=DIRECTION('',(-2.23712668780895E-15,-1.,0.));
#273=DIRECTION('',(-1.,2.23712668780895E-15,0.));
#274=DIRECTION('',(-2.84672570416713E-15,-1.,0.));
#275=DIRECTION('',(1.,-2.23712668780895E-15,0.));
#276=DIRECTION('',(2.25342297077385E-15,1.,0.));
#277=DIRECTION('',(-1.,2.23712668780895E-15,0.));
#278=DIRECTION('',(-2.31296463463581E-15,-1.,0.));
#279=DIRECTION('',(1.,-2.23712668780895E-15,0.));
#280=DIRECTION('',(-7.93921879276385E-16,1.,0.));
#281=DIRECTION('',(-1.,2.23712668780895E-15,0.));
#282=DIRECTION('',(-2.23712668780895E-15,-1.,0.));
#283=DIRECTION('',(1.,0.,0.));
#284=DIRECTION('',(0.,0.,-1.));
#285=DIRECTION('',(1.,0.,0.));
#286=DIRECTION('',(0.,0.,-1.));
#287=DIRECTION('',(1.,0.,0.));
#288=DIRECTION('',(1.,0.,0.));
#289=DIRECTION('',(0.,0.,-1.));
#290=DIRECTION('',(0.980235735375449,0.1728420076013,-0.0962473038651203));
#291=DIRECTION('',(1.,0.,0.));
#292=DIRECTION('',(1.,0.,0.));
#293=DIRECTION('',(0.,0.,-1.));
#294=DIRECTION('',(0.115750661966722,0.9564306655364,-0.268033890162914));
#295=DIRECTION('',(1.,0.,0.));
#296=DIRECTION('',(1.,0.,0.));
#297=DIRECTION('',(0.,0.,-1.));
#298=DIRECTION('',(0.0921573992424333,0.959114418476525,-0.2675939947669));
#299=DIRECTION('',(1.,0.,0.));
#300=DIRECTION('',(1.,0.,0.));
#301=DIRECTION('',(0.,0.,-1.));
#302=DIRECTION('',(-1.,0.,0.));
#303=DIRECTION('',(0.,0.,1.));
#304=DIRECTION('',(-0.998846989145748,0.0126955232496888,0.0462981205222192));
#305=DIRECTION('',(1.,0.,0.));
#306=CARTESIAN_POINT('',(0.,0.,0.));
#307=CARTESIAN_POINT('',(10.,3.35569003171342E-13,0.));
#308=CARTESIAN_POINT('',(9.99999999999998,-8.99999999999932,0.));
#309=CARTESIAN_POINT('',(10.,-1.74574066942156E-14,0.));
#310=CARTESIAN_POINT('',(160.,9.86076131526265E-29,0.));
#311=CARTESIAN_POINT('',(160.,-8.25,0.));
#312=CARTESIAN_POINT('',(160.,8.25,0.));
#313=CARTESIAN_POINT('',(158.5,3.35569003171344E-15,0.));
#314=CARTESIAN_POINT('',(158.5,-9.75,0.));
#315=CARTESIAN_POINT('',(158.5,3.46944695195361E-15,0.));
#316=CARTESIAN_POINT('',(156.,8.94850675123586E-15,0.));
#317=CARTESIAN_POINT('',(156.,-9.74999999999999,0.));
#318=CARTESIAN_POINT('',(-2.27682456221956E-14,3.57940270049432E-13,0.));
#319=CARTESIAN_POINT('',(154.582179545095,1.2120350729424E-14,0.));
#320=CARTESIAN_POINT('',(154.582179545095,-9.99999999999999,0.));
#321=CARTESIAN_POINT('',(156.,8.94850675123586E-15,0.));
#322=CARTESIAN_POINT('',(70.,2.01341401902806E-13,0.));
#323=CARTESIAN_POINT('',(70.,-9.9999999999996,0.));
#324=CARTESIAN_POINT('',(-2.27682456221956E-14,3.57940270049432E-13,0.));
#325=CARTESIAN_POINT('',(69.75,2.01900683574758E-13,0.));
#326=CARTESIAN_POINT('',(69.75,-9.7499999999996,0.));
#327=CARTESIAN_POINT('',(70.,2.01341401902806E-13,0.));
#328=CARTESIAN_POINT('',(40.,2.68455202537074E-13,0.));
#329=CARTESIAN_POINT('',(40.,-8.99999999999945,0.));
#330=CARTESIAN_POINT('',(69.75,2.01900683574758E-13,0.));
#331=CARTESIAN_POINT('',(-2.27682456221956E-14,3.57940270049432E-13,0.));
#332=CARTESIAN_POINT('',(11.7364817766693,3.35569003171342E-13,0.));
#333=CARTESIAN_POINT('',(11.7364817766693,3.35569003171342E-13,-10.0727459405035));
#334=CARTESIAN_POINT('',(0.000774809088976633,3.35569003171342E-13,0.));
#335=CARTESIAN_POINT('',(0.000774809088976633,3.35569003171342E-13,-0.000758272844714968));
#336=CARTESIAN_POINT('',(0.000774809088975801,-0.000740243359850666,0.000164369932567737));
#337=CARTESIAN_POINT('',(0.00130358803819321,-0.119661944627412,0.0327478339435474));
#338=CARTESIAN_POINT('',(0.0040091432916797,-0.239747778864266,0.0655420340802089));
#339=CARTESIAN_POINT('',(0.0177800698117346,-0.576468088714463,0.157188651487282));
#340=CARTESIAN_POINT('',(0.033719394636204,-0.795291822177075,0.216398488107786));
#341=CARTESIAN_POINT('',(0.104058146284162,-1.45872191578883,0.394813848772351));
#342=CARTESIAN_POINT('',(0.180978345404311,-1.91028718025428,0.514805226904642));
#343=CARTESIAN_POINT('',(0.511087972766586,-3.27173002004687,0.871678242632397));
#344=CARTESIAN_POINT('',(0.863627594950542,-4.18835547393717,1.10545893173863));
#345=CARTESIAN_POINT('',(1.8830511631464,-5.92712306757008,1.53144587222685));
#346=CARTESIAN_POINT('',(2.54269721705082,-6.74425242669505,1.72263827028569));
#347=CARTESIAN_POINT('',(4.10142600418247,-8.14267322873825,2.0284205915894));
#348=CARTESIAN_POINT('',(4.99922806518235,-8.72215774956361,2.14257885888599));
#349=CARTESIAN_POINT('',(7.85487133281517,-9.98665871403657,2.34700454935712));
#350=CARTESIAN_POINT('',(9.9464545753002,-10.1637076219255,2.29131564366063));
#351=CARTESIAN_POINT('',(11.7364817766693,-9.84807753012206,2.11555660350381));
#352=CARTESIAN_POINT('',(10.,3.35569003171342E-13,0.));
#353=CARTESIAN_POINT('',(15.,3.35569003171342E-13,0.));
#354=CARTESIAN_POINT('',(15.,3.35569003171342E-13,-9.44479434752945));
#355=CARTESIAN_POINT('',(11.7364817766693,-9.84807753012209,2.11555660350403));
#356=CARTESIAN_POINT('',(10.,3.35569003171342E-13,0.));
#357=CARTESIAN_POINT('',(15.0535794058658,3.35569003171342E-13,0.));
#358=CARTESIAN_POINT('',(15.0535794058658,3.35569003171342E-13,-8.9866434326595));
#359=CARTESIAN_POINT('',(15.,-9.27263121531511,1.79511855092686));
#360=CARTESIAN_POINT('',(10.,3.35569003171342E-13,0.));
#361=CARTESIAN_POINT('',(15.1709522755818,3.35569003171342E-13,0.));
#362=CARTESIAN_POINT('',(15.1709522755818,3.35569003171342E-13,-7.72378501135894));
#363=CARTESIAN_POINT('',(15.0535794058658,-8.82991247884725,1.6710493115566));
#364=CARTESIAN_POINT('',(10.,3.35569003171342E-13,0.));
#365=CARTESIAN_POINT('',(15.1709522755818,3.35569003171342E-13,0.));
#366=CARTESIAN_POINT('',(15.1709522755818,3.35569003171342E-13,-0.729156219575007));
#367=CARTESIAN_POINT('',(15.1709522755818,-7.60837180378441,1.33023809788562));
#368=CARTESIAN_POINT('',(15.1709522755818,-0.193555902635568,-0.702997087547108));
#369=CARTESIAN_POINT('',(10.,3.35569003171342E-13,0.));
#370=MECHANICAL_DESIGN_GEOMETRIC_PRESENTATION_REPRESENTATION('',(#52,#53),
#371);
#371=(
GEOMETRIC_REPRESENTATION_CONTEXT(3)
GLOBAL_UNCERTAINTY_ASSIGNED_CONTEXT((#372))
GLOBAL_UNIT_ASSIGNED_CONTEXT((#378,#374,#373))
REPRESENTATION_CONTEXT('APMR-BNM20-D20-C20-L160',
'TOP_LEVEL_ASSEMBLY_PART')
);
#372=UNCERTAINTY_MEASURE_WITH_UNIT(LENGTH_MEASURE(2.E-5),#378,
'DISTANCE_ACCURACY_VALUE','Maximum Tolerance applied to model');
#373=(
NAMED_UNIT(*)
SI_UNIT($,.STERADIAN.)
SOLID_ANGLE_UNIT()
);
#374=(
CONVERSION_BASED_UNIT('DEGREE',#376)
NAMED_UNIT(#375)
PLANE_ANGLE_UNIT()
);
#375=DIMENSIONAL_EXPONENTS(0.,0.,0.,0.,0.,0.,0.);
#376=PLANE_ANGLE_MEASURE_WITH_UNIT(PLANE_ANGLE_MEASURE(0.0174532925),#377);
#377=(
NAMED_UNIT(*)
PLANE_ANGLE_UNIT()
SI_UNIT($,.RADIAN.)
);
#378=(
LENGTH_UNIT()
NAMED_UNIT(*)
SI_UNIT(.MILLI.,.METRE.)
);
ENDSEC;
END-ISO-10303-21;
