ISO-10303-21;
HEADER;
/* Generated by software containing ST-Developer
 * from STEP Tools, Inc. (www.steptools.com) 
 */
/* OPTION: using custom schema-name function */

FILE_DESCRIPTION(
/* description */ (''),
/* implementation_level */ '2;1');

FILE_NAME(
/* name */ 'APMR-BNM20-D20-C20-L200.stp',
/* time_stamp */ '2023-10-02T11:14:00+03:00',
/* author */ (''),
/* organization */ (''),
/* preprocessor_version */ 'ST-DEVELOPER v19.4',
/* originating_system */ 'SIEMENS PLM Software NX2306.5001',
/* authorisation */ '');

FILE_SCHEMA (('AUTOMOTIVE_DESIGN { 1 0 10303 214 3 1 1 1 }'));
ENDSEC;

DATA;
#10=PROPERTY_DEFINITION_REPRESENTATION(#14,#12);
#11=PROPERTY_DEFINITION_REPRESENTATION(#15,#13);
#12=REPRESENTATION('',(#16),#354);
#13=REPRESENTATION('',(#17),#354);
#14=PROPERTY_DEFINITION('pmi validation property','',#21);
#15=PROPERTY_DEFINITION('pmi validation property','',#21);
#16=VALUE_REPRESENTATION_ITEM('number of annotations',COUNT_MEASURE(0.));
#17=VALUE_REPRESENTATION_ITEM('number of views',COUNT_MEASURE(0.));
#18=SHAPE_REPRESENTATION_RELATIONSHIP('None',
'relationship between APMR-BNM20-D20-C20-L200-LIGHT_x_t_objects-None a
nd APMR-BNM20-D20-C20-L200-LIGHT_x_t_objects-None',#30,#19);
#19=ADVANCED_BREP_SHAPE_REPRESENTATION(
'APMR-BNM20-D20-C20-L200-LIGHT_x_t_objects-None',(#63,#64),#354);
#20=SHAPE_DEFINITION_REPRESENTATION(#21,#30);
#21=PRODUCT_DEFINITION_SHAPE('','',#22);
#22=PRODUCT_DEFINITION(' ','',#24,#23);
#23=PRODUCT_DEFINITION_CONTEXT('part definition',#29,'design');
#24=PRODUCT_DEFINITION_FORMATION_WITH_SPECIFIED_SOURCE(' ',' ',#26,
 .NOT_KNOWN.);
#25=PRODUCT_RELATED_PRODUCT_CATEGORY('part','',(#26));
#26=PRODUCT('APMR-BNM20-D20-C20-L200-LIGHT_x_t_objects',
'APMR-BNM20-D20-C20-L200-LIGHT_x_t_objects',' ',(#27));
#27=PRODUCT_CONTEXT(' ',#29,'mechanical');
#28=APPLICATION_PROTOCOL_DEFINITION('international standard',
'automotive_design',2010,#29);
#29=APPLICATION_CONTEXT(
'core data for automotive mechanical design processes');
#30=SHAPE_REPRESENTATION(
'APMR-BNM20-D20-C20-L200-LIGHT_x_t_objects-None',(#210),#354);
#31=DRAUGHTING_PRE_DEFINED_COLOUR('yellow');
#32=B_SPLINE_CURVE_WITH_KNOTS('',3,(#336,#337,#338,#339,#340,#341,#342,
#343,#344,#345,#346,#347,#348,#349,#350,#351),.UNSPECIFIED.,.F.,.F.,(4,
2,2,2,2,2,2,4),(0.,0.0238353298523786,0.0662772720327103,0.151161156393373,
0.320928925114699,0.490696693836024,0.660464462557349,1.),.UNSPECIFIED.);
#33=SURFACE_OF_REVOLUTION('',#41,#37);
#34=SURFACE_OF_REVOLUTION('',#42,#38);
#35=SURFACE_OF_REVOLUTION('',#43,#39);
#36=SURFACE_OF_REVOLUTION('',#32,#40);
#37=AXIS1_PLACEMENT('',#327,#282);
#38=AXIS1_PLACEMENT('',#331,#286);
#39=AXIS1_PLACEMENT('',#335,#290);
#40=AXIS1_PLACEMENT('',#352,#291);
#41=LINE('',#326,#44);
#42=LINE('',#330,#45);
#43=LINE('',#334,#46);
#44=VECTOR('',#281,1.27361308675055);
#45=VECTOR('',#285,0.462886388340096);
#46=VECTOR('',#289,3.3293197804921);
#47=PRESENTATION_LAYER_ASSIGNMENT('1','Layer 1',(#63,#64));
#48=STYLED_ITEM('',(#50),#63);
#49=STYLED_ITEM('',(#51),#64);
#50=PRESENTATION_STYLE_ASSIGNMENT((#52));
#51=PRESENTATION_STYLE_ASSIGNMENT((#53));
#52=SURFACE_STYLE_USAGE(.BOTH.,#54);
#53=SURFACE_STYLE_USAGE(.BOTH.,#55);
#54=SURFACE_SIDE_STYLE('',(#56));
#55=SURFACE_SIDE_STYLE('',(#57));
#56=SURFACE_STYLE_FILL_AREA(#58);
#57=SURFACE_STYLE_FILL_AREA(#59);
#58=FILL_AREA_STYLE('',(#60));
#59=FILL_AREA_STYLE('',(#61));
#60=FILL_AREA_STYLE_COLOUR('',#62);
#61=FILL_AREA_STYLE_COLOUR('',#31);
#62=COLOUR_RGB('silver gray',0.6,0.6,0.6);
#63=MANIFOLD_SOLID_BREP('',#65);
#64=MANIFOLD_SOLID_BREP('',#66);
#65=CLOSED_SHELL('',(#99,#100,#101,#102,#103,#104,#105,#106,#107));
#66=CLOSED_SHELL('',(#108,#109,#110,#111,#112,#113));
#67=CONICAL_SURFACE('',#220,9.75,9.99999999999983);
#68=CONICAL_SURFACE('',#224,9.99999999999982,45.);
#69=CONICAL_SURFACE('',#226,9.74999999999982,0.719156116545195);
#70=CYLINDRICAL_SURFACE('',#218,9.75);
#71=CYLINDRICAL_SURFACE('',#222,10.);
#72=CYLINDRICAL_SURFACE('',#227,8.99999999999967);
#73=TOROIDAL_SURFACE('',#216,8.25,1.5);
#74=FACE_BOUND('',#121,.T.);
#75=FACE_BOUND('',#122,.T.);
#76=FACE_BOUND('',#123,.T.);
#77=FACE_BOUND('',#124,.T.);
#78=FACE_BOUND('',#125,.T.);
#79=FACE_BOUND('',#126,.T.);
#80=FACE_BOUND('',#127,.T.);
#81=FACE_BOUND('',#128,.T.);
#82=FACE_BOUND('',#129,.T.);
#83=FACE_BOUND('',#130,.T.);
#84=FACE_BOUND('',#131,.T.);
#85=FACE_BOUND('',#132,.T.);
#86=FACE_BOUND('',#133,.T.);
#87=FACE_BOUND('',#134,.T.);
#88=FACE_BOUND('',#137,.T.);
#89=FACE_BOUND('',#138,.T.);
#90=FACE_BOUND('',#139,.T.);
#91=FACE_BOUND('',#140,.T.);
#92=FACE_BOUND('',#141,.T.);
#93=FACE_BOUND('',#142,.T.);
#94=FACE_BOUND('',#143,.T.);
#95=FACE_BOUND('',#144,.T.);
#96=PLANE('',#214);
#97=PLANE('',#229);
#98=PLANE('',#231);
#99=ADVANCED_FACE('',(#115),#114,.T.);
#100=ADVANCED_FACE('',(#116),#96,.F.);
#101=ADVANCED_FACE('',(#74,#75),#73,.T.);
#102=ADVANCED_FACE('',(#76,#77),#70,.T.);
#103=ADVANCED_FACE('',(#78,#79),#67,.T.);
#104=ADVANCED_FACE('',(#80,#81),#71,.T.);
#105=ADVANCED_FACE('',(#82,#83),#68,.T.);
#106=ADVANCED_FACE('',(#84,#85),#69,.T.);
#107=ADVANCED_FACE('',(#86,#87),#72,.T.);
#108=ADVANCED_FACE('',(#117),#97,.T.);
#109=ADVANCED_FACE('',(#118),#98,.T.);
#110=ADVANCED_FACE('',(#88,#89),#33,.F.);
#111=ADVANCED_FACE('',(#90,#91),#34,.F.);
#112=ADVANCED_FACE('',(#92,#93),#35,.F.);
#113=ADVANCED_FACE('',(#94,#95),#36,.F.);
#114=SPHERICAL_SURFACE('',#212,9.);
#115=FACE_OUTER_BOUND('',#119,.T.);
#116=FACE_OUTER_BOUND('',#120,.T.);
#117=FACE_OUTER_BOUND('',#135,.T.);
#118=FACE_OUTER_BOUND('',#136,.T.);
#119=EDGE_LOOP('',(#145));
#120=EDGE_LOOP('',(#146));
#121=EDGE_LOOP('',(#147));
#122=EDGE_LOOP('',(#148));
#123=EDGE_LOOP('',(#149));
#124=EDGE_LOOP('',(#150));
#125=EDGE_LOOP('',(#151));
#126=EDGE_LOOP('',(#152));
#127=EDGE_LOOP('',(#153));
#128=EDGE_LOOP('',(#154));
#129=EDGE_LOOP('',(#155));
#130=EDGE_LOOP('',(#156));
#131=EDGE_LOOP('',(#157));
#132=EDGE_LOOP('',(#158));
#133=EDGE_LOOP('',(#159));
#134=EDGE_LOOP('',(#160));
#135=EDGE_LOOP('',(#161));
#136=EDGE_LOOP('',(#162));
#137=EDGE_LOOP('',(#163));
#138=EDGE_LOOP('',(#164));
#139=EDGE_LOOP('',(#165));
#140=EDGE_LOOP('',(#166));
#141=EDGE_LOOP('',(#167));
#142=EDGE_LOOP('',(#168));
#143=EDGE_LOOP('',(#169));
#144=EDGE_LOOP('',(#170));
#145=ORIENTED_EDGE('',*,*,#184,.T.);
#146=ORIENTED_EDGE('',*,*,#185,.F.);
#147=ORIENTED_EDGE('',*,*,#186,.F.);
#148=ORIENTED_EDGE('',*,*,#185,.T.);
#149=ORIENTED_EDGE('',*,*,#187,.F.);
#150=ORIENTED_EDGE('',*,*,#186,.T.);
#151=ORIENTED_EDGE('',*,*,#188,.F.);
#152=ORIENTED_EDGE('',*,*,#187,.T.);
#153=ORIENTED_EDGE('',*,*,#189,.F.);
#154=ORIENTED_EDGE('',*,*,#188,.T.);
#155=ORIENTED_EDGE('',*,*,#190,.F.);
#156=ORIENTED_EDGE('',*,*,#189,.T.);
#157=ORIENTED_EDGE('',*,*,#191,.F.);
#158=ORIENTED_EDGE('',*,*,#190,.T.);
#159=ORIENTED_EDGE('',*,*,#184,.F.);
#160=ORIENTED_EDGE('',*,*,#191,.T.);
#161=ORIENTED_EDGE('',*,*,#192,.T.);
#162=ORIENTED_EDGE('',*,*,#193,.F.);
#163=ORIENTED_EDGE('',*,*,#193,.T.);
#164=ORIENTED_EDGE('',*,*,#194,.F.);
#165=ORIENTED_EDGE('',*,*,#194,.T.);
#166=ORIENTED_EDGE('',*,*,#195,.F.);
#167=ORIENTED_EDGE('',*,*,#195,.T.);
#168=ORIENTED_EDGE('',*,*,#196,.F.);
#169=ORIENTED_EDGE('',*,*,#196,.T.);
#170=ORIENTED_EDGE('',*,*,#192,.F.);
#171=VERTEX_POINT('',#294);
#172=VERTEX_POINT('',#297);
#173=VERTEX_POINT('',#300);
#174=VERTEX_POINT('',#303);
#175=VERTEX_POINT('',#306);
#176=VERTEX_POINT('',#309);
#177=VERTEX_POINT('',#312);
#178=VERTEX_POINT('',#315);
#179=VERTEX_POINT('',#319);
#180=VERTEX_POINT('',#322);
#181=VERTEX_POINT('',#325);
#182=VERTEX_POINT('',#329);
#183=VERTEX_POINT('',#333);
#184=EDGE_CURVE('',#171,#171,#197,.T.);
#185=EDGE_CURVE('',#172,#172,#198,.T.);
#186=EDGE_CURVE('',#173,#173,#199,.T.);
#187=EDGE_CURVE('',#174,#174,#200,.T.);
#188=EDGE_CURVE('',#175,#175,#201,.T.);
#189=EDGE_CURVE('',#176,#176,#202,.T.);
#190=EDGE_CURVE('',#177,#177,#203,.T.);
#191=EDGE_CURVE('',#178,#178,#204,.T.);
#192=EDGE_CURVE('',#179,#179,#205,.T.);
#193=EDGE_CURVE('',#180,#180,#206,.T.);
#194=EDGE_CURVE('',#181,#181,#207,.T.);
#195=EDGE_CURVE('',#182,#182,#208,.T.);
#196=EDGE_CURVE('',#183,#183,#209,.T.);
#197=CIRCLE('',#211,8.99999999999964);
#198=CIRCLE('',#213,8.25);
#199=CIRCLE('',#215,9.75);
#200=CIRCLE('',#217,9.75);
#201=CIRCLE('',#219,10.);
#202=CIRCLE('',#221,9.99999999999982);
#203=CIRCLE('',#223,9.74999999999982);
#204=CIRCLE('',#225,8.9999999999997);
#205=CIRCLE('',#228,0.000758272844719336);
#206=CIRCLE('',#230,7.72378501135894);
#207=CIRCLE('',#232,8.98664343265951);
#208=CIRCLE('',#233,9.44479434752945);
#209=CIRCLE('',#234,10.0727459405035);
#210=AXIS2_PLACEMENT_3D('',#292,#235,#236);
#211=AXIS2_PLACEMENT_3D('',#293,#237,#238);
#212=AXIS2_PLACEMENT_3D('',#295,#239,#240);
#213=AXIS2_PLACEMENT_3D('',#296,#241,#242);
#214=AXIS2_PLACEMENT_3D('',#298,#243,#244);
#215=AXIS2_PLACEMENT_3D('',#299,#245,#246);
#216=AXIS2_PLACEMENT_3D('',#301,#247,#248);
#217=AXIS2_PLACEMENT_3D('',#302,#249,#250);
#218=AXIS2_PLACEMENT_3D('',#304,#251,#252);
#219=AXIS2_PLACEMENT_3D('',#305,#253,#254);
#220=AXIS2_PLACEMENT_3D('',#307,#255,#256);
#221=AXIS2_PLACEMENT_3D('',#308,#257,#258);
#222=AXIS2_PLACEMENT_3D('',#310,#259,#260);
#223=AXIS2_PLACEMENT_3D('',#311,#261,#262);
#224=AXIS2_PLACEMENT_3D('',#313,#263,#264);
#225=AXIS2_PLACEMENT_3D('',#314,#265,#266);
#226=AXIS2_PLACEMENT_3D('',#316,#267,#268);
#227=AXIS2_PLACEMENT_3D('',#317,#269,#270);
#228=AXIS2_PLACEMENT_3D('',#318,#271,#272);
#229=AXIS2_PLACEMENT_3D('',#320,#273,#274);
#230=AXIS2_PLACEMENT_3D('',#321,#275,#276);
#231=AXIS2_PLACEMENT_3D('',#323,#277,#278);
#232=AXIS2_PLACEMENT_3D('',#324,#279,#280);
#233=AXIS2_PLACEMENT_3D('',#328,#283,#284);
#234=AXIS2_PLACEMENT_3D('',#332,#287,#288);
#235=DIRECTION('',(0.,0.,1.));
#236=DIRECTION('',(1.,0.,0.));
#237=DIRECTION('',(-1.,1.78970135024716E-15,0.));
#238=DIRECTION('',(-1.73472347597688E-15,-1.,0.));
#239=DIRECTION('',(-1.,1.85093369020453E-15,0.));
#240=DIRECTION('',(1.73472347597681E-15,1.,0.));
#241=DIRECTION('',(-1.,1.78970135024716E-15,0.));
#242=DIRECTION('',(-3.36431219583381E-15,-1.,0.));
#243=DIRECTION('',(-1.,1.78970135024716E-15,0.));
#244=DIRECTION('',(-1.77635683940025E-15,-1.,0.));
#245=DIRECTION('',(-1.,1.78970135024716E-15,0.));
#246=DIRECTION('',(-2.84672570416707E-15,-1.,0.));
#247=DIRECTION('',(-1.,1.78970135024716E-15,0.));
#248=DIRECTION('',(-2.84672570416707E-15,-1.,0.));
#249=DIRECTION('',(-1.,1.78970135024716E-15,0.));
#250=DIRECTION('',(-2.84672570416707E-15,-1.,0.));
#251=DIRECTION('',(-1.,1.78970135024716E-15,0.));
#252=DIRECTION('',(-1.78970135024716E-15,-1.,0.));
#253=DIRECTION('',(-1.,1.78970135024716E-15,0.));
#254=DIRECTION('',(-2.77555756156289E-15,-1.,0.));
#255=DIRECTION('',(-1.,1.78970135024716E-15,0.));
#256=DIRECTION('',(-2.08826506717461E-15,-1.,0.));
#257=DIRECTION('',(-1.,1.78970135024716E-15,0.));
#258=DIRECTION('',(-1.38777878078147E-15,-1.,0.));
#259=DIRECTION('',(-1.,1.78970135024716E-15,0.));
#260=DIRECTION('',(-1.78970135024716E-15,-1.,0.));
#261=DIRECTION('',(-1.,1.78970135024716E-15,0.));
#262=DIRECTION('',(-1.42336285208356E-15,-1.,0.));
#263=DIRECTION('',(1.,-1.78970135024716E-15,0.));
#264=DIRECTION('',(1.84121145172984E-15,1.,0.));
#265=DIRECTION('',(-1.,1.78970135024716E-15,0.));
#266=DIRECTION('',(-1.54197642309055E-15,-1.,0.));
#267=DIRECTION('',(1.,-1.78970135024716E-15,0.));
#268=DIRECTION('',(0.,1.,0.));
#269=DIRECTION('',(-1.,1.78970135024716E-15,0.));
#270=DIRECTION('',(-1.78970135024716E-15,-1.,0.));
#271=DIRECTION('',(-1.,0.,0.));
#272=DIRECTION('',(0.,0.,1.));
#273=DIRECTION('',(-1.,0.,0.));
#274=DIRECTION('',(0.,0.,1.));
#275=DIRECTION('',(-1.,0.,0.));
#276=DIRECTION('',(0.,0.,1.));
#277=DIRECTION('',(1.,0.,0.));
#278=DIRECTION('',(0.,0.,-1.));
#279=DIRECTION('',(-1.,0.,0.));
#280=DIRECTION('',(0.,0.,1.));
#281=DIRECTION('',(0.0921573992424332,0.959114418476525,-0.2675939947669));
#282=DIRECTION('',(-1.,0.,0.));
#283=DIRECTION('',(-1.,0.,0.));
#284=DIRECTION('',(0.,0.,1.));
#285=DIRECTION('',(0.115750661966722,0.9564306655364,-0.268033890162914));
#286=DIRECTION('',(-1.,0.,0.));
#287=DIRECTION('',(-1.,0.,0.));
#288=DIRECTION('',(0.,0.,1.));
#289=DIRECTION('',(0.980235735375449,0.1728420076013,-0.0962473038651203));
#290=DIRECTION('',(-1.,0.,0.));
#291=DIRECTION('',(-1.,0.,0.));
#292=CARTESIAN_POINT('',(0.,0.,0.));
#293=CARTESIAN_POINT('',(10.,3.40043256546961E-13,0.));
#294=CARTESIAN_POINT('',(9.99999999999998,-8.9999999999993,0.));
#295=CARTESIAN_POINT('',(10.,-1.74574066942156E-14,0.));
#296=CARTESIAN_POINT('',(200.,0.,0.));
#297=CARTESIAN_POINT('',(200.,-8.25,0.));
#298=CARTESIAN_POINT('',(200.,8.25,0.));
#299=CARTESIAN_POINT('',(198.5,2.68455202537078E-15,0.));
#300=CARTESIAN_POINT('',(198.5,-9.75,0.));
#301=CARTESIAN_POINT('',(198.5,1.7347234759768E-15,0.));
#302=CARTESIAN_POINT('',(196.,7.15880540098867E-15,0.));
#303=CARTESIAN_POINT('',(196.,-9.74999999999999,0.));
#304=CARTESIAN_POINT('',(-2.27682456221956E-14,3.57940270049432E-13,0.));
#305=CARTESIAN_POINT('',(194.582179545096,9.69628058353917E-15,0.));
#306=CARTESIAN_POINT('',(194.582179545095,-9.99999999999999,0.));
#307=CARTESIAN_POINT('',(196.,7.15880540098867E-15,0.));
#308=CARTESIAN_POINT('',(100.,1.78970135024716E-13,0.));
#309=CARTESIAN_POINT('',(100.,-9.99999999999964,0.));
#310=CARTESIAN_POINT('',(-2.27682456221956E-14,3.57940270049432E-13,0.));
#311=CARTESIAN_POINT('',(99.75,1.79417560362278E-13,0.));
#312=CARTESIAN_POINT('',(99.75,-9.74999999999964,0.));
#313=CARTESIAN_POINT('',(100.,1.78970135024716E-13,0.));
#314=CARTESIAN_POINT('',(40.,2.86352216039546E-13,0.));
#315=CARTESIAN_POINT('',(40.,-8.99999999999942,0.));
#316=CARTESIAN_POINT('',(99.75,1.79417560362278E-13,0.));
#317=CARTESIAN_POINT('',(-2.27682456221956E-14,3.57940270049432E-13,0.));
#318=CARTESIAN_POINT('',(0.000774809088976633,3.40043256546961E-13,0.));
#319=CARTESIAN_POINT('',(0.000774809088976633,3.40043256546961E-13,0.000758272844719336));
#320=CARTESIAN_POINT('',(0.000774809088976633,3.40043256546961E-13,0.));
#321=CARTESIAN_POINT('',(15.1709522755818,3.40043256546961E-13,0.));
#322=CARTESIAN_POINT('',(15.1709522755818,3.40043256546961E-13,7.72378501135894));
#323=CARTESIAN_POINT('',(15.1709522755818,-7.6083718037844,1.33023809788562));
#324=CARTESIAN_POINT('',(15.0535794058658,3.40043256546961E-13,0.));
#325=CARTESIAN_POINT('',(15.0535794058658,3.40043256546961E-13,8.98664343265951));
#326=CARTESIAN_POINT('',(15.0535794058658,-8.82991247884725,1.6710493115566));
#327=CARTESIAN_POINT('',(10.,3.40043256546961E-13,0.));
#328=CARTESIAN_POINT('',(15.,3.40043256546961E-13,0.));
#329=CARTESIAN_POINT('',(15.,3.40043256546961E-13,9.44479434752945));
#330=CARTESIAN_POINT('',(15.,-9.27263121531511,1.79511855092686));
#331=CARTESIAN_POINT('',(10.,3.40043256546961E-13,0.));
#332=CARTESIAN_POINT('',(11.7364817766693,3.40043256546961E-13,0.));
#333=CARTESIAN_POINT('',(11.7364817766693,3.40043256546961E-13,10.0727459405035));
#334=CARTESIAN_POINT('',(11.7364817766693,-9.84807753012209,2.11555660350403));
#335=CARTESIAN_POINT('',(10.,3.40043256546961E-13,0.));
#336=CARTESIAN_POINT('',(0.000774809088975801,-0.000740243359850666,0.000164369932567737));
#337=CARTESIAN_POINT('',(0.00130358803819321,-0.119661944627412,0.0327478339435474));
#338=CARTESIAN_POINT('',(0.0040091432916797,-0.239747778864266,0.0655420340802089));
#339=CARTESIAN_POINT('',(0.0177800698117346,-0.576468088714463,0.157188651487282));
#340=CARTESIAN_POINT('',(0.033719394636204,-0.795291822177075,0.216398488107786));
#341=CARTESIAN_POINT('',(0.104058146284162,-1.45872191578883,0.394813848772351));
#342=CARTESIAN_POINT('',(0.180978345404311,-1.91028718025428,0.514805226904642));
#343=CARTESIAN_POINT('',(0.511087972766586,-3.27173002004687,0.871678242632397));
#344=CARTESIAN_POINT('',(0.863627594950542,-4.18835547393717,1.10545893173863));
#345=CARTESIAN_POINT('',(1.8830511631464,-5.92712306757008,1.53144587222685));
#346=CARTESIAN_POINT('',(2.54269721705082,-6.74425242669505,1.72263827028569));
#347=CARTESIAN_POINT('',(4.10142600418247,-8.14267322873825,2.0284205915894));
#348=CARTESIAN_POINT('',(4.99922806518235,-8.72215774956361,2.14257885888599));
#349=CARTESIAN_POINT('',(7.85487133281517,-9.98665871403657,2.34700454935712));
#350=CARTESIAN_POINT('',(9.9464545753002,-10.1637076219255,2.29131564366063));
#351=CARTESIAN_POINT('',(11.7364817766693,-9.84807753012206,2.11555660350381));
#352=CARTESIAN_POINT('',(10.,3.40043256546961E-13,0.));
#353=MECHANICAL_DESIGN_GEOMETRIC_PRESENTATION_REPRESENTATION('',(#48,#49),
#354);
#354=(
GEOMETRIC_REPRESENTATION_CONTEXT(3)
GLOBAL_UNCERTAINTY_ASSIGNED_CONTEXT((#355))
GLOBAL_UNIT_ASSIGNED_CONTEXT((#361,#357,#356))
REPRESENTATION_CONTEXT('APMR-BNM20-D20-C20-L200',
'TOP_LEVEL_ASSEMBLY_PART')
);
#355=UNCERTAINTY_MEASURE_WITH_UNIT(LENGTH_MEASURE(2.E-5),#361,
'DISTANCE_ACCURACY_VALUE','Maximum Tolerance applied to model');
#356=(
NAMED_UNIT(*)
SI_UNIT($,.STERADIAN.)
SOLID_ANGLE_UNIT()
);
#357=(
CONVERSION_BASED_UNIT('DEGREE',#359)
NAMED_UNIT(#358)
PLANE_ANGLE_UNIT()
);
#358=DIMENSIONAL_EXPONENTS(0.,0.,0.,0.,0.,0.,0.);
#359=PLANE_ANGLE_MEASURE_WITH_UNIT(PLANE_ANGLE_MEASURE(0.0174532925),#360);
#360=(
NAMED_UNIT(*)
PLANE_ANGLE_UNIT()
SI_UNIT($,.RADIAN.)
);
#361=(
LENGTH_UNIT()
NAMED_UNIT(*)
SI_UNIT(.MILLI.,.METRE.)
);
ENDSEC;
END-ISO-10303-21;
