ISO-10303-21;
HEADER;
/* Generated by software containing ST-Developer
 * from STEP Tools, Inc. (www.steptools.com) 
 */
/* OPTION: using custom schema-name function */

FILE_DESCRIPTION(
/* description */ (''),
/* implementation_level */ '2;1');

FILE_NAME(
/* name */ 'APMR-BNM25-D25-C25-L250.stp',
/* time_stamp */ '2023-10-02T11:20:42+03:00',
/* author */ (''),
/* organization */ (''),
/* preprocessor_version */ 'ST-DEVELOPER v19.4',
/* originating_system */ 'SIEMENS PLM Software NX2306.5001',
/* authorisation */ '');

FILE_SCHEMA (('AUTOMOTIVE_DESIGN { 1 0 10303 214 3 1 1 1 }'));
ENDSEC;

DATA;
#10=PROPERTY_DEFINITION_REPRESENTATION(#14,#12);
#11=PROPERTY_DEFINITION_REPRESENTATION(#15,#13);
#12=REPRESENTATION('',(#16),#334);
#13=REPRESENTATION('',(#17),#334);
#14=PROPERTY_DEFINITION('pmi validation property','',#21);
#15=PROPERTY_DEFINITION('pmi validation property','',#21);
#16=VALUE_REPRESENTATION_ITEM('number of annotations',COUNT_MEASURE(0.));
#17=VALUE_REPRESENTATION_ITEM('number of views',COUNT_MEASURE(0.));
#18=SHAPE_REPRESENTATION_RELATIONSHIP('None',
'relationship between APMR-BNM25-D25-C25-L250-LIGHT_x_t_objects-None a
nd APMR-BNM25-D25-C25-L250-LIGHT_x_t_objects-None',#30,#19);
#19=ADVANCED_BREP_SHAPE_REPRESENTATION(
'APMR-BNM25-D25-C25-L250-LIGHT_x_t_objects-None',(#64,#65),#334);
#20=SHAPE_DEFINITION_REPRESENTATION(#21,#30);
#21=PRODUCT_DEFINITION_SHAPE('','',#22);
#22=PRODUCT_DEFINITION(' ','',#24,#23);
#23=PRODUCT_DEFINITION_CONTEXT('part definition',#29,'design');
#24=PRODUCT_DEFINITION_FORMATION_WITH_SPECIFIED_SOURCE(' ',' ',#26,
 .NOT_KNOWN.);
#25=PRODUCT_RELATED_PRODUCT_CATEGORY('part','',(#26));
#26=PRODUCT('APMR-BNM25-D25-C25-L250-LIGHT_x_t_objects',
'APMR-BNM25-D25-C25-L250-LIGHT_x_t_objects',' ',(#27));
#27=PRODUCT_CONTEXT(' ',#29,'mechanical');
#28=APPLICATION_PROTOCOL_DEFINITION('international standard',
'automotive_design',2010,#29);
#29=APPLICATION_CONTEXT(
'core data for automotive mechanical design processes');
#30=SHAPE_REPRESENTATION(
'APMR-BNM25-D25-C25-L250-LIGHT_x_t_objects-None',(#202),#334);
#31=DRAUGHTING_PRE_DEFINED_COLOUR('yellow');
#32=LINE('',#322,#35);
#33=LINE('',#326,#36);
#34=LINE('',#330,#37);
#35=VECTOR('',#266,3.90660903389387);
#36=VECTOR('',#270,0.462886388340072);
#37=VECTOR('',#274,1.73342874548772);
#38=SURFACE_OF_REVOLUTION('',#46,#42);
#39=SURFACE_OF_REVOLUTION('',#32,#43);
#40=SURFACE_OF_REVOLUTION('',#33,#44);
#41=SURFACE_OF_REVOLUTION('',#34,#45);
#42=AXIS1_PLACEMENT('',#319,#263);
#43=AXIS1_PLACEMENT('',#323,#267);
#44=AXIS1_PLACEMENT('',#327,#271);
#45=AXIS1_PLACEMENT('',#331,#275);
#46=B_SPLINE_CURVE_WITH_KNOTS('',3,(#307,#308,#309,#310,#311,#312,#313,
#314,#315,#316,#317,#318),.UNSPECIFIED.,.F.,.F.,(4,2,2,2,2,4),(0.,0.321442200852242,
0.482163301278364,0.642884401704486,0.96432660255673,1.),.UNSPECIFIED.);
#47=VERTEX_LOOP('',#173);
#48=PRESENTATION_LAYER_ASSIGNMENT('1','Layer 1',(#64,#65));
#49=STYLED_ITEM('',(#51),#64);
#50=STYLED_ITEM('',(#52),#65);
#51=PRESENTATION_STYLE_ASSIGNMENT((#53));
#52=PRESENTATION_STYLE_ASSIGNMENT((#54));
#53=SURFACE_STYLE_USAGE(.BOTH.,#55);
#54=SURFACE_STYLE_USAGE(.BOTH.,#56);
#55=SURFACE_SIDE_STYLE('',(#57));
#56=SURFACE_SIDE_STYLE('',(#58));
#57=SURFACE_STYLE_FILL_AREA(#59);
#58=SURFACE_STYLE_FILL_AREA(#60);
#59=FILL_AREA_STYLE('',(#61));
#60=FILL_AREA_STYLE('',(#62));
#61=FILL_AREA_STYLE_COLOUR('',#63);
#62=FILL_AREA_STYLE_COLOUR('',#31);
#63=COLOUR_RGB('silver gray',0.6,0.6,0.6);
#64=MANIFOLD_SOLID_BREP('',#66);
#65=MANIFOLD_SOLID_BREP('',#67);
#66=CLOSED_SHELL('',(#99,#100,#101,#102,#103,#104,#105,#106,#107));
#67=CLOSED_SHELL('',(#108,#109,#110,#111,#112));
#68=CONICAL_SURFACE('',#212,12.25,9.9999999999999);
#69=CONICAL_SURFACE('',#216,12.4999999999999,45.);
#70=CONICAL_SURFACE('',#218,12.2499999999999,0.391536817590828);
#71=CYLINDRICAL_SURFACE('',#210,12.25);
#72=CYLINDRICAL_SURFACE('',#214,12.5);
#73=CYLINDRICAL_SURFACE('',#219,11.4999999999997);
#74=TOROIDAL_SURFACE('',#208,10.25,2.);
#75=FACE_BOUND('',#119,.T.);
#76=FACE_BOUND('',#120,.T.);
#77=FACE_BOUND('',#121,.T.);
#78=FACE_BOUND('',#122,.T.);
#79=FACE_BOUND('',#123,.T.);
#80=FACE_BOUND('',#124,.T.);
#81=FACE_BOUND('',#125,.T.);
#82=FACE_BOUND('',#126,.T.);
#83=FACE_BOUND('',#127,.T.);
#84=FACE_BOUND('',#128,.T.);
#85=FACE_BOUND('',#129,.T.);
#86=FACE_BOUND('',#130,.T.);
#87=FACE_BOUND('',#131,.T.);
#88=FACE_BOUND('',#132,.T.);
#89=FACE_BOUND('',#47,.T.);
#90=FACE_BOUND('',#133,.T.);
#91=FACE_BOUND('',#134,.T.);
#92=FACE_BOUND('',#135,.T.);
#93=FACE_BOUND('',#136,.T.);
#94=FACE_BOUND('',#137,.T.);
#95=FACE_BOUND('',#138,.T.);
#96=FACE_BOUND('',#139,.T.);
#97=PLANE('',#206);
#98=PLANE('',#224);
#99=ADVANCED_FACE('',(#114),#113,.T.);
#100=ADVANCED_FACE('',(#115),#97,.F.);
#101=ADVANCED_FACE('',(#75,#76),#74,.T.);
#102=ADVANCED_FACE('',(#77,#78),#71,.T.);
#103=ADVANCED_FACE('',(#79,#80),#68,.T.);
#104=ADVANCED_FACE('',(#81,#82),#72,.T.);
#105=ADVANCED_FACE('',(#83,#84),#69,.T.);
#106=ADVANCED_FACE('',(#85,#86),#70,.T.);
#107=ADVANCED_FACE('',(#87,#88),#73,.T.);
#108=ADVANCED_FACE('',(#89,#90),#38,.T.);
#109=ADVANCED_FACE('',(#91,#92),#39,.T.);
#110=ADVANCED_FACE('',(#93,#94),#40,.T.);
#111=ADVANCED_FACE('',(#95,#96),#41,.T.);
#112=ADVANCED_FACE('',(#116),#98,.F.);
#113=SPHERICAL_SURFACE('',#204,11.5);
#114=FACE_OUTER_BOUND('',#117,.T.);
#115=FACE_OUTER_BOUND('',#118,.T.);
#116=FACE_OUTER_BOUND('',#140,.T.);
#117=EDGE_LOOP('',(#141));
#118=EDGE_LOOP('',(#142));
#119=EDGE_LOOP('',(#143));
#120=EDGE_LOOP('',(#144));
#121=EDGE_LOOP('',(#145));
#122=EDGE_LOOP('',(#146));
#123=EDGE_LOOP('',(#147));
#124=EDGE_LOOP('',(#148));
#125=EDGE_LOOP('',(#149));
#126=EDGE_LOOP('',(#150));
#127=EDGE_LOOP('',(#151));
#128=EDGE_LOOP('',(#152));
#129=EDGE_LOOP('',(#153));
#130=EDGE_LOOP('',(#154));
#131=EDGE_LOOP('',(#155));
#132=EDGE_LOOP('',(#156));
#133=EDGE_LOOP('',(#157));
#134=EDGE_LOOP('',(#158));
#135=EDGE_LOOP('',(#159));
#136=EDGE_LOOP('',(#160));
#137=EDGE_LOOP('',(#161));
#138=EDGE_LOOP('',(#162));
#139=EDGE_LOOP('',(#163));
#140=EDGE_LOOP('',(#164));
#141=ORIENTED_EDGE('',*,*,#178,.T.);
#142=ORIENTED_EDGE('',*,*,#179,.F.);
#143=ORIENTED_EDGE('',*,*,#180,.F.);
#144=ORIENTED_EDGE('',*,*,#179,.T.);
#145=ORIENTED_EDGE('',*,*,#181,.F.);
#146=ORIENTED_EDGE('',*,*,#180,.T.);
#147=ORIENTED_EDGE('',*,*,#182,.F.);
#148=ORIENTED_EDGE('',*,*,#181,.T.);
#149=ORIENTED_EDGE('',*,*,#183,.F.);
#150=ORIENTED_EDGE('',*,*,#182,.T.);
#151=ORIENTED_EDGE('',*,*,#184,.F.);
#152=ORIENTED_EDGE('',*,*,#183,.T.);
#153=ORIENTED_EDGE('',*,*,#185,.F.);
#154=ORIENTED_EDGE('',*,*,#184,.T.);
#155=ORIENTED_EDGE('',*,*,#178,.F.);
#156=ORIENTED_EDGE('',*,*,#185,.T.);
#157=ORIENTED_EDGE('',*,*,#186,.T.);
#158=ORIENTED_EDGE('',*,*,#186,.F.);
#159=ORIENTED_EDGE('',*,*,#187,.T.);
#160=ORIENTED_EDGE('',*,*,#187,.F.);
#161=ORIENTED_EDGE('',*,*,#188,.T.);
#162=ORIENTED_EDGE('',*,*,#188,.F.);
#163=ORIENTED_EDGE('',*,*,#189,.T.);
#164=ORIENTED_EDGE('',*,*,#189,.F.);
#165=VERTEX_POINT('',#280);
#166=VERTEX_POINT('',#283);
#167=VERTEX_POINT('',#286);
#168=VERTEX_POINT('',#289);
#169=VERTEX_POINT('',#292);
#170=VERTEX_POINT('',#295);
#171=VERTEX_POINT('',#298);
#172=VERTEX_POINT('',#301);
#173=VERTEX_POINT('',#304);
#174=VERTEX_POINT('',#306);
#175=VERTEX_POINT('',#321);
#176=VERTEX_POINT('',#325);
#177=VERTEX_POINT('',#329);
#178=EDGE_CURVE('',#165,#165,#190,.T.);
#179=EDGE_CURVE('',#166,#166,#191,.T.);
#180=EDGE_CURVE('',#167,#167,#192,.T.);
#181=EDGE_CURVE('',#168,#168,#193,.T.);
#182=EDGE_CURVE('',#169,#169,#194,.T.);
#183=EDGE_CURVE('',#170,#170,#195,.T.);
#184=EDGE_CURVE('',#171,#171,#196,.T.);
#185=EDGE_CURVE('',#172,#172,#197,.T.);
#186=EDGE_CURVE('',#174,#174,#198,.T.);
#187=EDGE_CURVE('',#175,#175,#199,.T.);
#188=EDGE_CURVE('',#176,#176,#200,.T.);
#189=EDGE_CURVE('',#177,#177,#201,.T.);
#190=CIRCLE('',#203,11.4999999999997);
#191=CIRCLE('',#205,10.25);
#192=CIRCLE('',#207,12.25);
#193=CIRCLE('',#209,12.25);
#194=CIRCLE('',#211,12.5);
#195=CIRCLE('',#213,12.4999999999999);
#196=CIRCLE('',#215,12.2499999999999);
#197=CIRCLE('',#217,11.4999999999997);
#198=CIRCLE('',#220,12.5909324256294);
#199=CIRCLE('',#221,11.8539470717953);
#200=CIRCLE('',#222,11.3957279335815);
#201=CIRCLE('',#223,9.67663893309804);
#202=AXIS2_PLACEMENT_3D('',#278,#225,#226);
#203=AXIS2_PLACEMENT_3D('',#279,#227,#228);
#204=AXIS2_PLACEMENT_3D('',#281,#229,#230);
#205=AXIS2_PLACEMENT_3D('',#282,#231,#232);
#206=AXIS2_PLACEMENT_3D('',#284,#233,#234);
#207=AXIS2_PLACEMENT_3D('',#285,#235,#236);
#208=AXIS2_PLACEMENT_3D('',#287,#237,#238);
#209=AXIS2_PLACEMENT_3D('',#288,#239,#240);
#210=AXIS2_PLACEMENT_3D('',#290,#241,#242);
#211=AXIS2_PLACEMENT_3D('',#291,#243,#244);
#212=AXIS2_PLACEMENT_3D('',#293,#245,#246);
#213=AXIS2_PLACEMENT_3D('',#294,#247,#248);
#214=AXIS2_PLACEMENT_3D('',#296,#249,#250);
#215=AXIS2_PLACEMENT_3D('',#297,#251,#252);
#216=AXIS2_PLACEMENT_3D('',#299,#253,#254);
#217=AXIS2_PLACEMENT_3D('',#300,#255,#256);
#218=AXIS2_PLACEMENT_3D('',#302,#257,#258);
#219=AXIS2_PLACEMENT_3D('',#303,#259,#260);
#220=AXIS2_PLACEMENT_3D('',#305,#261,#262);
#221=AXIS2_PLACEMENT_3D('',#320,#264,#265);
#222=AXIS2_PLACEMENT_3D('',#324,#268,#269);
#223=AXIS2_PLACEMENT_3D('',#328,#272,#273);
#224=AXIS2_PLACEMENT_3D('',#332,#276,#277);
#225=DIRECTION('',(0.,0.,1.));
#226=DIRECTION('',(1.,0.,0.));
#227=DIRECTION('',(-1.,1.43176108019773E-15,0.));
#228=DIRECTION('',(-1.35760967685145E-15,-1.,0.));
#229=DIRECTION('',(-1.,1.4929934201551E-15,0.));
#230=DIRECTION('',(1.35760967685141E-15,1.,0.));
#231=DIRECTION('',(-1.,1.43176108019773E-15,0.));
#232=DIRECTION('',(-2.70786103567111E-15,-1.,0.));
#233=DIRECTION('',(-1.,1.43176108019773E-15,0.));
#234=DIRECTION('',(-1.4432899320127E-15,-1.,0.));
#235=DIRECTION('',(-1.,1.43176108019773E-15,0.));
#236=DIRECTION('',(-2.26576127474522E-15,-1.,0.));
#237=DIRECTION('',(-1.,1.43176108019773E-15,0.));
#238=DIRECTION('',(-2.26576127474522E-15,-1.,0.));
#239=DIRECTION('',(-1.,1.43176108019773E-15,0.));
#240=DIRECTION('',(-2.26576127474522E-15,-1.,0.));
#241=DIRECTION('',(-1.,1.43176108019773E-15,0.));
#242=DIRECTION('',(-1.43176108019773E-15,-1.,0.));
#243=DIRECTION('',(-1.,1.43176108019773E-15,0.));
#244=DIRECTION('',(-2.22044604925031E-15,-1.,0.));
#245=DIRECTION('',(-1.,1.43176108019773E-15,0.));
#246=DIRECTION('',(-1.17747459997946E-15,-1.,0.));
#247=DIRECTION('',(-1.,1.43176108019773E-15,0.));
#248=DIRECTION('',(-2.22044604925034E-15,-1.,0.));
#249=DIRECTION('',(-1.,1.43176108019773E-15,0.));
#250=DIRECTION('',(-1.43176108019773E-15,-1.,0.));
#251=DIRECTION('',(-1.,1.43176108019773E-15,0.));
#252=DIRECTION('',(-2.26576127474524E-15,-1.,0.));
#253=DIRECTION('',(1.,-1.43176108019773E-15,0.));
#254=DIRECTION('',(1.4528844519786E-15,1.,0.));
#255=DIRECTION('',(-1.,1.43176108019773E-15,0.));
#256=DIRECTION('',(-1.20676415720129E-15,-1.,0.));
#257=DIRECTION('',(1.,-1.43176108019773E-15,0.));
#258=DIRECTION('',(2.90882341804426E-15,1.,0.));
#259=DIRECTION('',(-1.,1.43176108019773E-15,0.));
#260=DIRECTION('',(-1.43176108019773E-15,-1.,0.));
#261=DIRECTION('',(-1.,0.,0.));
#262=DIRECTION('',(0.,0.,1.));
#263=DIRECTION('',(-1.,0.,0.));
#264=DIRECTION('',(-1.,0.,0.));
#265=DIRECTION('',(0.,0.,1.));
#266=DIRECTION('',(-0.980235735375449,-0.1728420076013,0.0962473038651204));
#267=DIRECTION('',(-1.,0.,0.));
#268=DIRECTION('',(-1.,0.,0.));
#269=DIRECTION('',(0.,0.,1.));
#270=DIRECTION('',(-0.115750661966721,-0.9564306655364,0.268033890162916));
#271=DIRECTION('',(-1.,0.,0.));
#272=DIRECTION('',(-1.,0.,0.));
#273=DIRECTION('',(0.,0.,1.));
#274=DIRECTION('',(-0.0921573992424339,-0.959114418476525,0.2675939947669));
#275=DIRECTION('',(-1.,0.,0.));
#276=DIRECTION('',(-1.,0.,0.));
#277=DIRECTION('',(0.,0.,1.));
#278=CARTESIAN_POINT('',(0.,0.,0.));
#279=CARTESIAN_POINT('',(12.5,3.40043256546961E-13,0.));
#280=CARTESIAN_POINT('',(12.5,-11.4999999999993,0.));
#281=CARTESIAN_POINT('',(12.5,0.,0.));
#282=CARTESIAN_POINT('',(250.,4.93038065763132E-29,0.));
#283=CARTESIAN_POINT('',(250.,-10.25,0.));
#284=CARTESIAN_POINT('',(250.,10.25,0.));
#285=CARTESIAN_POINT('',(248.,2.86352216039544E-15,0.));
#286=CARTESIAN_POINT('',(248.,-12.25,0.));
#287=CARTESIAN_POINT('',(248.,1.7347234759768E-15,0.));
#288=CARTESIAN_POINT('',(246.,5.72704432079094E-15,0.));
#289=CARTESIAN_POINT('',(246.,-12.25,0.));
#290=CARTESIAN_POINT('',(-2.27682456221956E-14,3.57940270049432E-13,0.));
#291=CARTESIAN_POINT('',(244.582179545095,7.75702446683134E-15,0.));
#292=CARTESIAN_POINT('',(244.582179545095,-12.5,0.));
#293=CARTESIAN_POINT('',(246.,5.72704432079094E-15,0.));
#294=CARTESIAN_POINT('',(150.,1.43176108019773E-13,0.));
#295=CARTESIAN_POINT('',(150.,-12.4999999999997,0.));
#296=CARTESIAN_POINT('',(-2.27682456221956E-14,3.57940270049432E-13,0.));
#297=CARTESIAN_POINT('',(149.75,1.43534048289822E-13,0.));
#298=CARTESIAN_POINT('',(149.75,-12.2499999999997,0.));
#299=CARTESIAN_POINT('',(150.,1.43176108019773E-13,0.));
#300=CARTESIAN_POINT('',(40.,3.00669826841523E-13,0.));
#301=CARTESIAN_POINT('',(40.,-11.4999999999994,0.));
#302=CARTESIAN_POINT('',(149.75,1.43534048289822E-13,0.));
#303=CARTESIAN_POINT('',(-2.27682456221956E-14,3.57940270049432E-13,0.));
#304=CARTESIAN_POINT('',(-3.54707857466586E-5,4.39395987341306E-7,1.64726467623261E-6));
#305=CARTESIAN_POINT('',(14.6706022208367,3.40043256546961E-13,0.));
#306=CARTESIAN_POINT('',(14.6706022208367,3.40043256546961E-13,12.5909324256294));
#307=CARTESIAN_POINT('',(14.6706022208367,-12.3100969126526,2.64444575438022));
#308=CARTESIAN_POINT('',(12.5431320473909,-12.6852273048836,2.85333761667208));
#309=CARTESIAN_POINT('',(10.0846237490188,-12.5080007745677,2.92726420655013));
#310=CARTESIAN_POINT('',(6.66939463224048,-11.1248639226437,2.71819507142699));
#311=CARTESIAN_POINT('',(5.58351692379655,-10.485749748145,2.5970587064791));
#312=CARTESIAN_POINT('',(3.65759610331383,-8.92191578317773,2.26421772447364));
#313=CARTESIAN_POINT('',(2.81896267033777,-7.9987240280953,2.05286185984017));
#314=CARTESIAN_POINT('',(0.794421432601259,-5.00376436081251,1.33250325636188));
#315=CARTESIAN_POINT('',(0.129332934567816,-2.73188858134538,0.742672443707163));
#316=CARTESIAN_POINT('',(0.00585835742338875,-0.445789026044547,0.121948960006042));
#317=CARTESIAN_POINT('',(0.000407802630332929,-0.221420234605491,0.0606958718885607));
#318=CARTESIAN_POINT('',(-3.54707857466586E-5,4.39395987341306E-7,1.64726467623261E-6));
#319=CARTESIAN_POINT('',(12.5,3.40043256546961E-13,0.));
#320=CARTESIAN_POINT('',(18.5,3.40043256546961E-13,0.));
#321=CARTESIAN_POINT('',(18.5,3.40043256546961E-13,11.8539470717953));
#322=CARTESIAN_POINT('',(18.5,-11.634870764321,2.26844516761262));
#323=CARTESIAN_POINT('',(12.5,3.40043256546961E-13,0.));
#324=CARTESIAN_POINT('',(18.5535794058657,3.40043256546961E-13,0.));
#325=CARTESIAN_POINT('',(18.5535794058657,3.40043256546961E-13,11.3957279335815));
#326=CARTESIAN_POINT('',(18.5535794058657,-11.1921520278531,2.14437592824237));
#327=CARTESIAN_POINT('',(12.5,3.40043256546961E-13,0.));
#328=CARTESIAN_POINT('',(18.713327690822,3.40043256546961E-13,0.));
#329=CARTESIAN_POINT('',(18.713327690822,3.40043256546961E-13,9.67663893309804));
#330=CARTESIAN_POINT('',(18.713327690822,-9.52959552465421,1.68052080559354));
#331=CARTESIAN_POINT('',(12.5,3.40043256546961E-13,0.));
#332=CARTESIAN_POINT('',(18.713327690822,-0.237849730098317,-0.867392013207588));
#333=MECHANICAL_DESIGN_GEOMETRIC_PRESENTATION_REPRESENTATION('',(#49,#50),
#334);
#334=(
GEOMETRIC_REPRESENTATION_CONTEXT(3)
GLOBAL_UNCERTAINTY_ASSIGNED_CONTEXT((#335))
GLOBAL_UNIT_ASSIGNED_CONTEXT((#341,#337,#336))
REPRESENTATION_CONTEXT('APMR-BNM25-D25-C25-L250',
'TOP_LEVEL_ASSEMBLY_PART')
);
#335=UNCERTAINTY_MEASURE_WITH_UNIT(LENGTH_MEASURE(0.0508),#341,
'DISTANCE_ACCURACY_VALUE','Maximum Tolerance applied to model');
#336=(
NAMED_UNIT(*)
SI_UNIT($,.STERADIAN.)
SOLID_ANGLE_UNIT()
);
#337=(
CONVERSION_BASED_UNIT('DEGREE',#339)
NAMED_UNIT(#338)
PLANE_ANGLE_UNIT()
);
#338=DIMENSIONAL_EXPONENTS(0.,0.,0.,0.,0.,0.,0.);
#339=PLANE_ANGLE_MEASURE_WITH_UNIT(PLANE_ANGLE_MEASURE(0.0174532925),#340);
#340=(
NAMED_UNIT(*)
PLANE_ANGLE_UNIT()
SI_UNIT($,.RADIAN.)
);
#341=(
LENGTH_UNIT()
NAMED_UNIT(*)
SI_UNIT(.MILLI.,.METRE.)
);
ENDSEC;
END-ISO-10303-21;
