ISO-10303-21;
HEADER;
/* Generated by software containing ST-Developer
 * from STEP Tools, Inc. (www.steptools.com) 
 */
/* OPTION: using custom schema-name function */

FILE_DESCRIPTION(
/* description */ (''),
/* implementation_level */ '2;1');

FILE_NAME(
/* name */ 'APMR-P3210-D10-C10-L130.stp',
/* time_stamp */ '2023-10-02T12:28:06+03:00',
/* author */ (''),
/* organization */ (''),
/* preprocessor_version */ 'ST-DEVELOPER v19.4',
/* originating_system */ 'SIEMENS PLM Software NX2306.5001',
/* authorisation */ '');

FILE_SCHEMA (('AUTOMOTIVE_DESIGN { 1 0 10303 214 3 1 1 1 }'));
ENDSEC;

DATA;
#10=PROPERTY_DEFINITION_REPRESENTATION(#14,#12);
#11=PROPERTY_DEFINITION_REPRESENTATION(#15,#13);
#12=REPRESENTATION('',(#16),#369);
#13=REPRESENTATION('',(#17),#369);
#14=PROPERTY_DEFINITION('pmi validation property','',#21);
#15=PROPERTY_DEFINITION('pmi validation property','',#21);
#16=VALUE_REPRESENTATION_ITEM('number of annotations',COUNT_MEASURE(0.));
#17=VALUE_REPRESENTATION_ITEM('number of views',COUNT_MEASURE(0.));
#18=SHAPE_REPRESENTATION_RELATIONSHIP('None',
'relationship between APMR-P3210-D10-C10-L130-LIGHT_x_t_objects-None a
nd APMR-P3210-D10-C10-L130-LIGHT_x_t_objects-None',#30,#19);
#19=ADVANCED_BREP_SHAPE_REPRESENTATION(
'APMR-P3210-D10-C10-L130-LIGHT_x_t_objects-None',(#56,#57),#369);
#20=SHAPE_DEFINITION_REPRESENTATION(#21,#30);
#21=PRODUCT_DEFINITION_SHAPE('','',#22);
#22=PRODUCT_DEFINITION(' ','',#24,#23);
#23=PRODUCT_DEFINITION_CONTEXT('part definition',#29,'design');
#24=PRODUCT_DEFINITION_FORMATION_WITH_SPECIFIED_SOURCE(' ',' ',#26,
 .NOT_KNOWN.);
#25=PRODUCT_RELATED_PRODUCT_CATEGORY('part','',(#26));
#26=PRODUCT('APMR-P3210-D10-C10-L130-LIGHT_x_t_objects',
'APMR-P3210-D10-C10-L130-LIGHT_x_t_objects',' ',(#27));
#27=PRODUCT_CONTEXT(' ',#29,'mechanical');
#28=APPLICATION_PROTOCOL_DEFINITION('international standard',
'automotive_design',2010,#29);
#29=APPLICATION_CONTEXT(
'core data for automotive mechanical design processes');
#30=SHAPE_REPRESENTATION(
'APMR-P3210-D10-C10-L130-LIGHT_x_t_objects-None',(#221),#369);
#31=DRAUGHTING_PRE_DEFINED_COLOUR('yellow');
#32=LINE('',#344,#36);
#33=LINE('',#349,#37);
#34=LINE('',#353,#38);
#35=LINE('',#357,#39);
#36=VECTOR('',#288,1.);
#37=VECTOR('',#293,1.);
#38=VECTOR('',#298,1.);
#39=VECTOR('',#303,1.);
#40=PRESENTATION_LAYER_ASSIGNMENT('1','Layer 1',(#56,#57));
#41=STYLED_ITEM('',(#43),#56);
#42=STYLED_ITEM('',(#44),#57);
#43=PRESENTATION_STYLE_ASSIGNMENT((#45));
#44=PRESENTATION_STYLE_ASSIGNMENT((#46));
#45=SURFACE_STYLE_USAGE(.BOTH.,#47);
#46=SURFACE_STYLE_USAGE(.BOTH.,#48);
#47=SURFACE_SIDE_STYLE('',(#49));
#48=SURFACE_SIDE_STYLE('',(#50));
#49=SURFACE_STYLE_FILL_AREA(#51);
#50=SURFACE_STYLE_FILL_AREA(#52);
#51=FILL_AREA_STYLE('',(#53));
#52=FILL_AREA_STYLE('',(#54));
#53=FILL_AREA_STYLE_COLOUR('',#55);
#54=FILL_AREA_STYLE_COLOUR('',#31);
#55=COLOUR_RGB('silver gray',0.6,0.6,0.6);
#56=MANIFOLD_SOLID_BREP('',#58);
#57=MANIFOLD_SOLID_BREP('',#59);
#58=CLOSED_SHELL('',(#86,#87,#88,#89,#90,#91,#92,#93,#94));
#59=CLOSED_SHELL('',(#95,#96,#97,#98,#99,#100));
#60=CONICAL_SURFACE('',#231,4.74999999999994,10.);
#61=CONICAL_SURFACE('',#235,5.,29.9999999999993);
#62=CONICAL_SURFACE('',#244,4.68717427636304,3.00000000000024);
#63=CONICAL_SURFACE('',#246,4.99314767377287,3.00000000000016);
#64=CYLINDRICAL_SURFACE('',#229,4.74999999999994);
#65=CYLINDRICAL_SURFACE('',#233,5.);
#66=CYLINDRICAL_SURFACE('',#238,4.5);
#67=TOROIDAL_SURFACE('',#227,3.74999999999994,1.);
#68=TOROIDAL_SURFACE('',#237,7.5,3.);
#69=FACE_BOUND('',#114,.T.);
#70=FACE_BOUND('',#115,.T.);
#71=FACE_BOUND('',#116,.T.);
#72=FACE_BOUND('',#117,.T.);
#73=FACE_BOUND('',#118,.T.);
#74=FACE_BOUND('',#119,.T.);
#75=FACE_BOUND('',#120,.T.);
#76=FACE_BOUND('',#121,.T.);
#77=FACE_BOUND('',#122,.T.);
#78=FACE_BOUND('',#123,.T.);
#79=FACE_BOUND('',#124,.T.);
#80=FACE_BOUND('',#125,.T.);
#81=FACE_BOUND('',#126,.T.);
#82=FACE_BOUND('',#127,.T.);
#83=PLANE('',#225);
#84=PLANE('',#240);
#85=PLANE('',#242);
#86=ADVANCED_FACE('',(#104),#101,.T.);
#87=ADVANCED_FACE('',(#105),#83,.F.);
#88=ADVANCED_FACE('',(#69,#70),#67,.T.);
#89=ADVANCED_FACE('',(#71,#72),#64,.T.);
#90=ADVANCED_FACE('',(#73,#74),#60,.T.);
#91=ADVANCED_FACE('',(#75,#76),#65,.T.);
#92=ADVANCED_FACE('',(#77,#78),#61,.T.);
#93=ADVANCED_FACE('',(#79,#80),#68,.F.);
#94=ADVANCED_FACE('',(#81,#82),#66,.T.);
#95=ADVANCED_FACE('',(#106),#84,.T.);
#96=ADVANCED_FACE('',(#107),#85,.T.);
#97=ADVANCED_FACE('',(#108),#62,.T.);
#98=ADVANCED_FACE('',(#109),#63,.T.);
#99=ADVANCED_FACE('',(#110),#102,.T.);
#100=ADVANCED_FACE('',(#111),#103,.T.);
#101=SPHERICAL_SURFACE('',#223,4.5);
#102=SPHERICAL_SURFACE('',#249,5.);
#103=SPHERICAL_SURFACE('',#251,5.);
#104=FACE_OUTER_BOUND('',#112,.T.);
#105=FACE_OUTER_BOUND('',#113,.T.);
#106=FACE_OUTER_BOUND('',#128,.T.);
#107=FACE_OUTER_BOUND('',#129,.T.);
#108=FACE_OUTER_BOUND('',#130,.T.);
#109=FACE_OUTER_BOUND('',#131,.T.);
#110=FACE_OUTER_BOUND('',#132,.T.);
#111=FACE_OUTER_BOUND('',#133,.T.);
#112=EDGE_LOOP('',(#134));
#113=EDGE_LOOP('',(#135));
#114=EDGE_LOOP('',(#136));
#115=EDGE_LOOP('',(#137));
#116=EDGE_LOOP('',(#138));
#117=EDGE_LOOP('',(#139));
#118=EDGE_LOOP('',(#140));
#119=EDGE_LOOP('',(#141));
#120=EDGE_LOOP('',(#142));
#121=EDGE_LOOP('',(#143));
#122=EDGE_LOOP('',(#144));
#123=EDGE_LOOP('',(#145));
#124=EDGE_LOOP('',(#146));
#125=EDGE_LOOP('',(#147));
#126=EDGE_LOOP('',(#148));
#127=EDGE_LOOP('',(#149));
#128=EDGE_LOOP('',(#150,#151,#152));
#129=EDGE_LOOP('',(#153,#154,#155,#156));
#130=EDGE_LOOP('',(#157,#158,#159,#160));
#131=EDGE_LOOP('',(#161,#162,#163,#164));
#132=EDGE_LOOP('',(#165,#166,#167,#168));
#133=EDGE_LOOP('',(#169,#170,#171));
#134=ORIENTED_EDGE('',*,*,#187,.T.);
#135=ORIENTED_EDGE('',*,*,#188,.F.);
#136=ORIENTED_EDGE('',*,*,#189,.F.);
#137=ORIENTED_EDGE('',*,*,#188,.T.);
#138=ORIENTED_EDGE('',*,*,#190,.F.);
#139=ORIENTED_EDGE('',*,*,#189,.T.);
#140=ORIENTED_EDGE('',*,*,#191,.F.);
#141=ORIENTED_EDGE('',*,*,#190,.T.);
#142=ORIENTED_EDGE('',*,*,#192,.F.);
#143=ORIENTED_EDGE('',*,*,#191,.T.);
#144=ORIENTED_EDGE('',*,*,#193,.F.);
#145=ORIENTED_EDGE('',*,*,#192,.T.);
#146=ORIENTED_EDGE('',*,*,#194,.F.);
#147=ORIENTED_EDGE('',*,*,#193,.T.);
#148=ORIENTED_EDGE('',*,*,#187,.F.);
#149=ORIENTED_EDGE('',*,*,#194,.T.);
#150=ORIENTED_EDGE('',*,*,#195,.F.);
#151=ORIENTED_EDGE('',*,*,#196,.F.);
#152=ORIENTED_EDGE('',*,*,#195,.T.);
#153=ORIENTED_EDGE('',*,*,#197,.F.);
#154=ORIENTED_EDGE('',*,*,#198,.F.);
#155=ORIENTED_EDGE('',*,*,#197,.T.);
#156=ORIENTED_EDGE('',*,*,#196,.T.);
#157=ORIENTED_EDGE('',*,*,#199,.F.);
#158=ORIENTED_EDGE('',*,*,#200,.F.);
#159=ORIENTED_EDGE('',*,*,#199,.T.);
#160=ORIENTED_EDGE('',*,*,#198,.T.);
#161=ORIENTED_EDGE('',*,*,#201,.F.);
#162=ORIENTED_EDGE('',*,*,#202,.F.);
#163=ORIENTED_EDGE('',*,*,#201,.T.);
#164=ORIENTED_EDGE('',*,*,#200,.T.);
#165=ORIENTED_EDGE('',*,*,#203,.F.);
#166=ORIENTED_EDGE('',*,*,#204,.F.);
#167=ORIENTED_EDGE('',*,*,#203,.T.);
#168=ORIENTED_EDGE('',*,*,#202,.T.);
#169=ORIENTED_EDGE('',*,*,#205,.F.);
#170=ORIENTED_EDGE('',*,*,#205,.T.);
#171=ORIENTED_EDGE('',*,*,#204,.T.);
#172=VERTEX_POINT('',#320);
#173=VERTEX_POINT('',#323);
#174=VERTEX_POINT('',#326);
#175=VERTEX_POINT('',#329);
#176=VERTEX_POINT('',#332);
#177=VERTEX_POINT('',#335);
#178=VERTEX_POINT('',#338);
#179=VERTEX_POINT('',#341);
#180=VERTEX_POINT('',#345);
#181=VERTEX_POINT('',#346);
#182=VERTEX_POINT('',#350);
#183=VERTEX_POINT('',#354);
#184=VERTEX_POINT('',#358);
#185=VERTEX_POINT('',#362);
#186=VERTEX_POINT('',#366);
#187=EDGE_CURVE('',#172,#172,#206,.T.);
#188=EDGE_CURVE('',#173,#173,#207,.T.);
#189=EDGE_CURVE('',#174,#174,#208,.T.);
#190=EDGE_CURVE('',#175,#175,#209,.T.);
#191=EDGE_CURVE('',#176,#176,#210,.T.);
#192=EDGE_CURVE('',#177,#177,#211,.T.);
#193=EDGE_CURVE('',#178,#178,#212,.T.);
#194=EDGE_CURVE('',#179,#179,#213,.T.);
#195=EDGE_CURVE('',#180,#181,#32,.T.);
#196=EDGE_CURVE('',#180,#180,#214,.T.);
#197=EDGE_CURVE('',#182,#180,#33,.T.);
#198=EDGE_CURVE('',#182,#182,#215,.T.);
#199=EDGE_CURVE('',#183,#182,#34,.T.);
#200=EDGE_CURVE('',#183,#183,#216,.T.);
#201=EDGE_CURVE('',#184,#183,#35,.T.);
#202=EDGE_CURVE('',#184,#184,#217,.T.);
#203=EDGE_CURVE('',#185,#184,#218,.T.);
#204=EDGE_CURVE('',#185,#185,#219,.T.);
#205=EDGE_CURVE('',#186,#185,#220,.T.);
#206=CIRCLE('',#222,4.5);
#207=CIRCLE('',#224,3.74999999999994);
#208=CIRCLE('',#226,4.74999999999994);
#209=CIRCLE('',#228,4.74999999999994);
#210=CIRCLE('',#230,4.99999999999994);
#211=CIRCLE('',#232,5.);
#212=CIRCLE('',#234,4.90192378864666);
#213=CIRCLE('',#236,4.5);
#214=CIRCLE('',#239,1.5);
#215=CIRCLE('',#241,4.66621116464982);
#216=CIRCLE('',#243,4.68717427636304);
#217=CIRCLE('',#245,4.99314767377287);
#218=CIRCLE('',#247,5.);
#219=CIRCLE('',#248,3.00809925683672);
#220=CIRCLE('',#250,5.);
#221=AXIS2_PLACEMENT_3D('',#318,#252,#253);
#222=AXIS2_PLACEMENT_3D('',#319,#254,#255);
#223=AXIS2_PLACEMENT_3D('',#321,#256,#257);
#224=AXIS2_PLACEMENT_3D('',#322,#258,#259);
#225=AXIS2_PLACEMENT_3D('',#324,#260,#261);
#226=AXIS2_PLACEMENT_3D('',#325,#262,#263);
#227=AXIS2_PLACEMENT_3D('',#327,#264,#265);
#228=AXIS2_PLACEMENT_3D('',#328,#266,#267);
#229=AXIS2_PLACEMENT_3D('',#330,#268,#269);
#230=AXIS2_PLACEMENT_3D('',#331,#270,#271);
#231=AXIS2_PLACEMENT_3D('',#333,#272,#273);
#232=AXIS2_PLACEMENT_3D('',#334,#274,#275);
#233=AXIS2_PLACEMENT_3D('',#336,#276,#277);
#234=AXIS2_PLACEMENT_3D('',#337,#278,#279);
#235=AXIS2_PLACEMENT_3D('',#339,#280,#281);
#236=AXIS2_PLACEMENT_3D('',#340,#282,#283);
#237=AXIS2_PLACEMENT_3D('',#342,#284,#285);
#238=AXIS2_PLACEMENT_3D('',#343,#286,#287);
#239=AXIS2_PLACEMENT_3D('',#347,#289,#290);
#240=AXIS2_PLACEMENT_3D('',#348,#291,#292);
#241=AXIS2_PLACEMENT_3D('',#351,#294,#295);
#242=AXIS2_PLACEMENT_3D('',#352,#296,#297);
#243=AXIS2_PLACEMENT_3D('',#355,#299,#300);
#244=AXIS2_PLACEMENT_3D('',#356,#301,#302);
#245=AXIS2_PLACEMENT_3D('',#359,#304,#305);
#246=AXIS2_PLACEMENT_3D('',#360,#306,#307);
#247=AXIS2_PLACEMENT_3D('',#361,#308,#309);
#248=AXIS2_PLACEMENT_3D('',#363,#310,#311);
#249=AXIS2_PLACEMENT_3D('',#364,#312,#313);
#250=AXIS2_PLACEMENT_3D('',#365,#314,#315);
#251=AXIS2_PLACEMENT_3D('',#367,#316,#317);
#252=DIRECTION('',(0.,0.,1.));
#253=DIRECTION('',(1.,0.,0.));
#254=DIRECTION('',(-1.,-4.70737419258973E-16,0.));
#255=DIRECTION('',(3.85494105772624E-16,-1.,0.));
#256=DIRECTION('',(-1.,-4.09505079301605E-16,0.));
#257=DIRECTION('',(-3.85494105772624E-16,1.,0.));
#258=DIRECTION('',(-1.,-4.70737419258973E-16,0.));
#259=DIRECTION('',(0.,-1.,0.));
#260=DIRECTION('',(-1.,-4.70737419258973E-16,0.));
#261=DIRECTION('',(4.71844785465692E-16,-1.,0.));
#262=DIRECTION('',(-1.,-4.70737419258973E-16,0.));
#263=DIRECTION('',(0.,-1.,0.));
#264=DIRECTION('',(-1.,-4.70737419258973E-16,0.));
#265=DIRECTION('',(0.,-1.,0.));
#266=DIRECTION('',(-1.,-4.70737419258973E-16,0.));
#267=DIRECTION('',(0.,-1.,0.));
#268=DIRECTION('',(-1.,-4.70737419258973E-16,0.));
#269=DIRECTION('',(4.70737419258973E-16,-1.,0.));
#270=DIRECTION('',(-1.,-4.70737419258973E-16,0.));
#271=DIRECTION('',(0.,-1.,0.));
#272=DIRECTION('',(-1.,-4.70737419258973E-16,0.));
#273=DIRECTION('',(6.13122120924151E-16,-1.,0.));
#274=DIRECTION('',(-1.,-4.70737419258973E-16,0.));
#275=DIRECTION('',(6.93889390390723E-16,-1.,0.));
#276=DIRECTION('',(-1.,-4.70737419258973E-16,0.));
#277=DIRECTION('',(4.70737419258973E-16,-1.,0.));
#278=DIRECTION('',(-1.,-4.70737419258973E-16,0.));
#279=DIRECTION('',(7.07772519839904E-16,-1.,0.));
#280=DIRECTION('',(1.,4.70737419258973E-16,0.));
#281=DIRECTION('',(-3.33629156864257E-16,1.,0.));
#282=DIRECTION('',(-1.,-4.70737419258973E-16,0.));
#283=DIRECTION('',(7.70988211545248E-16,-1.,0.));
#284=DIRECTION('',(-1.,-4.70737419258973E-16,0.));
#285=DIRECTION('',(3.30423519233678E-16,-1.,0.));
#286=DIRECTION('',(-1.,-4.70737419258973E-16,0.));
#287=DIRECTION('',(4.70737419258973E-16,-1.,0.));
#288=DIRECTION('',(0.,1.,0.));
#289=DIRECTION('',(-1.,-4.70737419258973E-16,0.));
#290=DIRECTION('',(0.,-1.,0.));
#291=DIRECTION('',(1.,4.70737419258973E-16,0.));
#292=DIRECTION('',(-4.70110061989715E-16,1.,0.));
#293=DIRECTION('',(0.,1.,0.));
#294=DIRECTION('',(-1.,-4.70737419258973E-16,0.));
#295=DIRECTION('',(7.43525491996028E-16,-1.,0.));
#296=DIRECTION('',(1.,4.70737419258973E-16,0.));
#297=DIRECTION('',(-4.70110061989715E-16,1.,0.));
#298=DIRECTION('',(0.998629534754574,0.0523359562429481,0.));
#299=DIRECTION('',(-1.,-4.70737419258973E-16,0.));
#300=DIRECTION('',(7.40200117893993E-16,-1.,0.));
#301=DIRECTION('',(-1.,-4.70737419258973E-16,0.));
#302=DIRECTION('',(-3.03831313948227E-17,-1.,0.));
#303=DIRECTION('',(0.998629534754574,0.0523359562429474,0.));
#304=DIRECTION('',(-1.,-4.70737419258973E-16,0.));
#305=DIRECTION('',(5.21131235038969E-16,-1.,0.));
#306=DIRECTION('',(-1.,-4.70737419258973E-16,0.));
#307=DIRECTION('',(-3.02211753005635E-16,-1.,0.));
#308=DIRECTION('',(0.,0.,1.));
#309=DIRECTION('',(1.,0.,0.));
#310=DIRECTION('',(-1.,-4.70737419258973E-16,0.));
#311=DIRECTION('',(5.76684254029909E-16,-1.,0.));
#312=DIRECTION('',(-1.,-5.31969759216341E-16,0.));
#313=DIRECTION('',(5.20417042793042E-16,-1.,0.));
#314=DIRECTION('',(0.,0.,1.));
#315=DIRECTION('',(1.,0.,0.));
#316=DIRECTION('',(-1.,-4.09505079301605E-16,0.));
#317=DIRECTION('',(-5.20417042793042E-16,1.,0.));
#318=CARTESIAN_POINT('',(0.,0.,0.));
#319=CARTESIAN_POINT('',(5.,1.92000622730067E-15,0.));
#320=CARTESIAN_POINT('',(5.,-4.5,0.));
#321=CARTESIAN_POINT('',(5.,0.,0.));
#322=CARTESIAN_POINT('',(130.,6.07621836346723E-14,0.));
#323=CARTESIAN_POINT('',(130.,-3.74999999999988,0.));
#324=CARTESIAN_POINT('',(130.,3.75,0.));
#325=CARTESIAN_POINT('',(129.,6.02914462154133E-14,0.));
#326=CARTESIAN_POINT('',(129.,-4.74999999999988,0.));
#327=CARTESIAN_POINT('',(129.,6.02816407901941E-14,0.));
#328=CARTESIAN_POINT('',(126.,5.88792339576364E-14,0.));
#329=CARTESIAN_POINT('',(126.,-4.74999999999988,0.));
#330=CARTESIAN_POINT('',(0.,-4.33680868994202E-16,0.));
#331=CARTESIAN_POINT('',(124.582179545096,5.82118128157221E-14,0.));
#332=CARTESIAN_POINT('',(124.582179545096,-4.99999999999988,0.));
#333=CARTESIAN_POINT('',(126.,5.88792339576364E-14,0.));
#334=CARTESIAN_POINT('',(30.,1.3688441708775E-14,0.));
#335=CARTESIAN_POINT('',(30.,-4.99999999999999,0.));
#336=CARTESIAN_POINT('',(0.,-4.33680868994202E-16,0.));
#337=CARTESIAN_POINT('',(29.8301270189222,1.36084761400606E-14,0.));
#338=CARTESIAN_POINT('',(29.8301270189222,-4.90192378864665,0.));
#339=CARTESIAN_POINT('',(30.,1.3688441708775E-14,0.));
#340=CARTESIAN_POINT('',(28.3301270189222,1.29023700111721E-14,0.));
#341=CARTESIAN_POINT('',(28.3301270189222,-4.49999999999999,0.));
#342=CARTESIAN_POINT('',(28.3301270189222,1.30104260698261E-14,0.));
#343=CARTESIAN_POINT('',(0.,-4.33680868994202E-16,0.));
#344=CARTESIAN_POINT('',(11.5,0.,0.));
#345=CARTESIAN_POINT('',(11.5,-1.5,0.));
#346=CARTESIAN_POINT('',(11.5,0.,0.));
#347=CARTESIAN_POINT('',(11.5,4.97979945248399E-15,0.));
#348=CARTESIAN_POINT('',(11.5,-1.66195288417948E-31,0.));
#349=CARTESIAN_POINT('',(11.5,-1.5,0.));
#350=CARTESIAN_POINT('',(11.5,-4.66621116464981,0.));
#351=CARTESIAN_POINT('',(11.5,4.97979945248399E-15,0.));
#352=CARTESIAN_POINT('',(11.5,-1.5,0.));
#353=CARTESIAN_POINT('',(11.5,-4.66621116464981,0.));
#354=CARTESIAN_POINT('',(11.1,-4.68717427636303,0.));
#355=CARTESIAN_POINT('',(11.1,4.7915044847804E-15,0.));
#356=CARTESIAN_POINT('',(11.1,4.7915044847804E-15,0.));
#357=CARTESIAN_POINT('',(5.26167978121474,-4.99314767377287,0.));
#358=CARTESIAN_POINT('',(5.26167978121474,-4.99314767377287,0.));
#359=CARTESIAN_POINT('',(5.26167978121474,2.04318869218194E-15,0.));
#360=CARTESIAN_POINT('',(5.26167978121474,2.04318869218194E-15,0.));
#361=CARTESIAN_POINT('',(5.,0.,0.));
#362=CARTESIAN_POINT('',(1.00608727423616,-3.00809925683672,0.));
#363=CARTESIAN_POINT('',(1.00608727423616,3.99220580290212E-17,0.));
#364=CARTESIAN_POINT('',(5.,0.,0.));
#365=CARTESIAN_POINT('',(5.,0.,0.));
#366=CARTESIAN_POINT('',(8.67361737988404E-16,6.12323399573677E-16,0.));
#367=CARTESIAN_POINT('',(5.,0.,0.));
#368=MECHANICAL_DESIGN_GEOMETRIC_PRESENTATION_REPRESENTATION('',(#41,#42),
#369);
#369=(
GEOMETRIC_REPRESENTATION_CONTEXT(3)
GLOBAL_UNCERTAINTY_ASSIGNED_CONTEXT((#370))
GLOBAL_UNIT_ASSIGNED_CONTEXT((#376,#372,#371))
REPRESENTATION_CONTEXT('APMR-P3210-D10-C10-L130',
'TOP_LEVEL_ASSEMBLY_PART')
);
#370=UNCERTAINTY_MEASURE_WITH_UNIT(LENGTH_MEASURE(2.E-5),#376,
'DISTANCE_ACCURACY_VALUE','Maximum Tolerance applied to model');
#371=(
NAMED_UNIT(*)
SI_UNIT($,.STERADIAN.)
SOLID_ANGLE_UNIT()
);
#372=(
CONVERSION_BASED_UNIT('DEGREE',#374)
NAMED_UNIT(#373)
PLANE_ANGLE_UNIT()
);
#373=DIMENSIONAL_EXPONENTS(0.,0.,0.,0.,0.,0.,0.);
#374=PLANE_ANGLE_MEASURE_WITH_UNIT(PLANE_ANGLE_MEASURE(0.0174532925),#375);
#375=(
NAMED_UNIT(*)
PLANE_ANGLE_UNIT()
SI_UNIT($,.RADIAN.)
);
#376=(
LENGTH_UNIT()
NAMED_UNIT(*)
SI_UNIT(.MILLI.,.METRE.)
);
ENDSEC;
END-ISO-10303-21;
