ISO-10303-21;
HEADER;
/* Generated by software containing ST-Developer
 * from STEP Tools, Inc. (www.steptools.com) 
 */
/* OPTION: using custom schema-name function */

FILE_DESCRIPTION(
/* description */ (''),
/* implementation_level */ '2;1');

FILE_NAME(
/* name */ 'APMR-P3210-D10-C12-L130.stp',
/* time_stamp */ '2023-10-02T12:46:31+03:00',
/* author */ (''),
/* organization */ (''),
/* preprocessor_version */ 'ST-DEVELOPER v19.4',
/* originating_system */ 'SIEMENS PLM Software NX2306.5001',
/* authorisation */ '');

FILE_SCHEMA (('AUTOMOTIVE_DESIGN { 1 0 10303 214 3 1 1 1 }'));
ENDSEC;

DATA;
#10=PROPERTY_DEFINITION_REPRESENTATION(#14,#12);
#11=PROPERTY_DEFINITION_REPRESENTATION(#15,#13);
#12=REPRESENTATION('',(#16),#349);
#13=REPRESENTATION('',(#17),#349);
#14=PROPERTY_DEFINITION('pmi validation property','',#21);
#15=PROPERTY_DEFINITION('pmi validation property','',#21);
#16=VALUE_REPRESENTATION_ITEM('number of annotations',COUNT_MEASURE(0.));
#17=VALUE_REPRESENTATION_ITEM('number of views',COUNT_MEASURE(0.));
#18=SHAPE_REPRESENTATION_RELATIONSHIP('None',
'relationship between APMR-P3210-D10-C12-L130-LIGHT_x_t_objects-None a
nd APMR-P3210-D10-C12-L130-LIGHT_x_t_objects-None',#30,#19);
#19=ADVANCED_BREP_SHAPE_REPRESENTATION(
'APMR-P3210-D10-C12-L130-LIGHT_x_t_objects-None',(#65,#66),#349);
#20=SHAPE_DEFINITION_REPRESENTATION(#21,#30);
#21=PRODUCT_DEFINITION_SHAPE('','',#22);
#22=PRODUCT_DEFINITION(' ','',#24,#23);
#23=PRODUCT_DEFINITION_CONTEXT('part definition',#29,'design');
#24=PRODUCT_DEFINITION_FORMATION_WITH_SPECIFIED_SOURCE(' ',' ',#26,
 .NOT_KNOWN.);
#25=PRODUCT_RELATED_PRODUCT_CATEGORY('part','',(#26));
#26=PRODUCT('APMR-P3210-D10-C12-L130-LIGHT_x_t_objects',
'APMR-P3210-D10-C12-L130-LIGHT_x_t_objects',' ',(#27));
#27=PRODUCT_CONTEXT(' ',#29,'mechanical');
#28=APPLICATION_PROTOCOL_DEFINITION('international standard',
'automotive_design',2010,#29);
#29=APPLICATION_CONTEXT(
'core data for automotive mechanical design processes');
#30=SHAPE_REPRESENTATION(
'APMR-P3210-D10-C12-L130-LIGHT_x_t_objects-None',(#210),#349);
#31=COLOUR_RGB('silver gray',0.6,0.6,0.6);
#32=CYLINDRICAL_SURFACE('',#231,5.75);
#33=CYLINDRICAL_SURFACE('',#235,6.);
#34=CYLINDRICAL_SURFACE('',#238,4.5);
#35=TOROIDAL_SURFACE('',#229,4.24999999999994,1.5);
#36=TOROIDAL_SURFACE('',#237,10.5,6.);
#37=FACE_BOUND('',#108,.T.);
#38=FACE_BOUND('',#109,.T.);
#39=FACE_BOUND('',#110,.T.);
#40=FACE_BOUND('',#111,.T.);
#41=FACE_BOUND('',#112,.T.);
#42=FACE_BOUND('',#113,.T.);
#43=FACE_BOUND('',#114,.T.);
#44=FACE_BOUND('',#115,.T.);
#45=FACE_BOUND('',#116,.T.);
#46=FACE_BOUND('',#117,.T.);
#47=FACE_BOUND('',#118,.T.);
#48=FACE_BOUND('',#119,.T.);
#49=PRESENTATION_LAYER_ASSIGNMENT('1','Layer 1',(#65,#66));
#50=STYLED_ITEM('',(#52),#65);
#51=STYLED_ITEM('',(#53),#66);
#52=PRESENTATION_STYLE_ASSIGNMENT((#54));
#53=PRESENTATION_STYLE_ASSIGNMENT((#55));
#54=SURFACE_STYLE_USAGE(.BOTH.,#56);
#55=SURFACE_STYLE_USAGE(.BOTH.,#57);
#56=SURFACE_SIDE_STYLE('',(#58));
#57=SURFACE_SIDE_STYLE('',(#59));
#58=SURFACE_STYLE_FILL_AREA(#60);
#59=SURFACE_STYLE_FILL_AREA(#61);
#60=FILL_AREA_STYLE('',(#62));
#61=FILL_AREA_STYLE('',(#63));
#62=FILL_AREA_STYLE_COLOUR('',#64);
#63=FILL_AREA_STYLE_COLOUR('',#31);
#64=DRAUGHTING_PRE_DEFINED_COLOUR('yellow');
#65=MANIFOLD_SOLID_BREP('',#67);
#66=MANIFOLD_SOLID_BREP('',#68);
#67=CLOSED_SHELL('',(#75,#76,#77,#78,#79,#80));
#68=CLOSED_SHELL('',(#81,#82,#83,#84,#85,#86,#87,#88));
#69=SPHERICAL_SURFACE('',#221,5.);
#70=SPHERICAL_SURFACE('',#223,5.);
#71=SPHERICAL_SURFACE('',#225,4.5);
#72=CONICAL_SURFACE('',#216,4.68717427636304,3.00000000000024);
#73=CONICAL_SURFACE('',#218,4.99314767377287,3.00000000000016);
#74=CONICAL_SURFACE('',#233,5.75,10.0000000000001);
#75=ADVANCED_FACE('',(#92),#89,.T.);
#76=ADVANCED_FACE('',(#93),#90,.T.);
#77=ADVANCED_FACE('',(#94),#72,.T.);
#78=ADVANCED_FACE('',(#95),#73,.T.);
#79=ADVANCED_FACE('',(#96),#69,.T.);
#80=ADVANCED_FACE('',(#97),#70,.T.);
#81=ADVANCED_FACE('',(#98),#71,.T.);
#82=ADVANCED_FACE('',(#99),#91,.F.);
#83=ADVANCED_FACE('',(#37,#38),#35,.T.);
#84=ADVANCED_FACE('',(#39,#40),#32,.T.);
#85=ADVANCED_FACE('',(#41,#42),#74,.T.);
#86=ADVANCED_FACE('',(#43,#44),#33,.T.);
#87=ADVANCED_FACE('',(#45,#46),#36,.F.);
#88=ADVANCED_FACE('',(#47,#48),#34,.T.);
#89=PLANE('',#212);
#90=PLANE('',#214);
#91=PLANE('',#227);
#92=FACE_OUTER_BOUND('',#100,.T.);
#93=FACE_OUTER_BOUND('',#101,.T.);
#94=FACE_OUTER_BOUND('',#102,.T.);
#95=FACE_OUTER_BOUND('',#103,.T.);
#96=FACE_OUTER_BOUND('',#104,.T.);
#97=FACE_OUTER_BOUND('',#105,.T.);
#98=FACE_OUTER_BOUND('',#106,.T.);
#99=FACE_OUTER_BOUND('',#107,.T.);
#100=EDGE_LOOP('',(#134,#135,#136));
#101=EDGE_LOOP('',(#137,#138,#139,#140));
#102=EDGE_LOOP('',(#141,#142,#143,#144));
#103=EDGE_LOOP('',(#145,#146,#147,#148));
#104=EDGE_LOOP('',(#149,#150,#151,#152));
#105=EDGE_LOOP('',(#153,#154,#155));
#106=EDGE_LOOP('',(#156));
#107=EDGE_LOOP('',(#157));
#108=EDGE_LOOP('',(#158));
#109=EDGE_LOOP('',(#159));
#110=EDGE_LOOP('',(#160));
#111=EDGE_LOOP('',(#161));
#112=EDGE_LOOP('',(#162));
#113=EDGE_LOOP('',(#163));
#114=EDGE_LOOP('',(#164));
#115=EDGE_LOOP('',(#165));
#116=EDGE_LOOP('',(#166));
#117=EDGE_LOOP('',(#167));
#118=EDGE_LOOP('',(#168));
#119=EDGE_LOOP('',(#169));
#120=CIRCLE('',#211,1.5);
#121=CIRCLE('',#213,4.66621116464982);
#122=CIRCLE('',#215,4.68717427636304);
#123=CIRCLE('',#217,4.99314767377287);
#124=CIRCLE('',#219,5.);
#125=CIRCLE('',#220,3.00809925683672);
#126=CIRCLE('',#222,5.);
#127=CIRCLE('',#224,4.5);
#128=CIRCLE('',#226,4.24999999999994);
#129=CIRCLE('',#228,5.75);
#130=CIRCLE('',#230,5.75);
#131=CIRCLE('',#232,6.);
#132=CIRCLE('',#234,6.);
#133=CIRCLE('',#236,4.5);
#134=ORIENTED_EDGE('',*,*,#184,.F.);
#135=ORIENTED_EDGE('',*,*,#185,.F.);
#136=ORIENTED_EDGE('',*,*,#184,.T.);
#137=ORIENTED_EDGE('',*,*,#186,.F.);
#138=ORIENTED_EDGE('',*,*,#187,.F.);
#139=ORIENTED_EDGE('',*,*,#186,.T.);
#140=ORIENTED_EDGE('',*,*,#185,.T.);
#141=ORIENTED_EDGE('',*,*,#188,.F.);
#142=ORIENTED_EDGE('',*,*,#189,.F.);
#143=ORIENTED_EDGE('',*,*,#188,.T.);
#144=ORIENTED_EDGE('',*,*,#187,.T.);
#145=ORIENTED_EDGE('',*,*,#190,.F.);
#146=ORIENTED_EDGE('',*,*,#191,.F.);
#147=ORIENTED_EDGE('',*,*,#190,.T.);
#148=ORIENTED_EDGE('',*,*,#189,.T.);
#149=ORIENTED_EDGE('',*,*,#192,.F.);
#150=ORIENTED_EDGE('',*,*,#193,.F.);
#151=ORIENTED_EDGE('',*,*,#192,.T.);
#152=ORIENTED_EDGE('',*,*,#191,.T.);
#153=ORIENTED_EDGE('',*,*,#194,.F.);
#154=ORIENTED_EDGE('',*,*,#194,.T.);
#155=ORIENTED_EDGE('',*,*,#193,.T.);
#156=ORIENTED_EDGE('',*,*,#195,.T.);
#157=ORIENTED_EDGE('',*,*,#196,.F.);
#158=ORIENTED_EDGE('',*,*,#197,.F.);
#159=ORIENTED_EDGE('',*,*,#196,.T.);
#160=ORIENTED_EDGE('',*,*,#198,.F.);
#161=ORIENTED_EDGE('',*,*,#197,.T.);
#162=ORIENTED_EDGE('',*,*,#199,.F.);
#163=ORIENTED_EDGE('',*,*,#198,.T.);
#164=ORIENTED_EDGE('',*,*,#200,.F.);
#165=ORIENTED_EDGE('',*,*,#199,.T.);
#166=ORIENTED_EDGE('',*,*,#201,.F.);
#167=ORIENTED_EDGE('',*,*,#200,.T.);
#168=ORIENTED_EDGE('',*,*,#195,.F.);
#169=ORIENTED_EDGE('',*,*,#201,.T.);
#170=VERTEX_POINT('',#303);
#171=VERTEX_POINT('',#304);
#172=VERTEX_POINT('',#308);
#173=VERTEX_POINT('',#312);
#174=VERTEX_POINT('',#316);
#175=VERTEX_POINT('',#320);
#176=VERTEX_POINT('',#324);
#177=VERTEX_POINT('',#327);
#178=VERTEX_POINT('',#330);
#179=VERTEX_POINT('',#333);
#180=VERTEX_POINT('',#336);
#181=VERTEX_POINT('',#339);
#182=VERTEX_POINT('',#342);
#183=VERTEX_POINT('',#345);
#184=EDGE_CURVE('',#170,#171,#202,.T.);
#185=EDGE_CURVE('',#170,#170,#120,.T.);
#186=EDGE_CURVE('',#172,#170,#203,.T.);
#187=EDGE_CURVE('',#172,#172,#121,.T.);
#188=EDGE_CURVE('',#173,#172,#204,.T.);
#189=EDGE_CURVE('',#173,#173,#122,.T.);
#190=EDGE_CURVE('',#174,#173,#205,.T.);
#191=EDGE_CURVE('',#174,#174,#123,.T.);
#192=EDGE_CURVE('',#175,#174,#124,.T.);
#193=EDGE_CURVE('',#175,#175,#125,.T.);
#194=EDGE_CURVE('',#176,#175,#126,.T.);
#195=EDGE_CURVE('',#177,#177,#127,.T.);
#196=EDGE_CURVE('',#178,#178,#128,.T.);
#197=EDGE_CURVE('',#179,#179,#129,.T.);
#198=EDGE_CURVE('',#180,#180,#130,.T.);
#199=EDGE_CURVE('',#181,#181,#131,.T.);
#200=EDGE_CURVE('',#182,#182,#132,.T.);
#201=EDGE_CURVE('',#183,#183,#133,.T.);
#202=LINE('',#302,#206);
#203=LINE('',#307,#207);
#204=LINE('',#311,#208);
#205=LINE('',#315,#209);
#206=VECTOR('',#241,1.);
#207=VECTOR('',#246,1.);
#208=VECTOR('',#251,1.);
#209=VECTOR('',#256,1.);
#210=AXIS2_PLACEMENT_3D('',#301,#239,#240);
#211=AXIS2_PLACEMENT_3D('',#305,#242,#243);
#212=AXIS2_PLACEMENT_3D('',#306,#244,#245);
#213=AXIS2_PLACEMENT_3D('',#309,#247,#248);
#214=AXIS2_PLACEMENT_3D('',#310,#249,#250);
#215=AXIS2_PLACEMENT_3D('',#313,#252,#253);
#216=AXIS2_PLACEMENT_3D('',#314,#254,#255);
#217=AXIS2_PLACEMENT_3D('',#317,#257,#258);
#218=AXIS2_PLACEMENT_3D('',#318,#259,#260);
#219=AXIS2_PLACEMENT_3D('',#319,#261,#262);
#220=AXIS2_PLACEMENT_3D('',#321,#263,#264);
#221=AXIS2_PLACEMENT_3D('',#322,#265,#266);
#222=AXIS2_PLACEMENT_3D('',#323,#267,#268);
#223=AXIS2_PLACEMENT_3D('',#325,#269,#270);
#224=AXIS2_PLACEMENT_3D('',#326,#271,#272);
#225=AXIS2_PLACEMENT_3D('',#328,#273,#274);
#226=AXIS2_PLACEMENT_3D('',#329,#275,#276);
#227=AXIS2_PLACEMENT_3D('',#331,#277,#278);
#228=AXIS2_PLACEMENT_3D('',#332,#279,#280);
#229=AXIS2_PLACEMENT_3D('',#334,#281,#282);
#230=AXIS2_PLACEMENT_3D('',#335,#283,#284);
#231=AXIS2_PLACEMENT_3D('',#337,#285,#286);
#232=AXIS2_PLACEMENT_3D('',#338,#287,#288);
#233=AXIS2_PLACEMENT_3D('',#340,#289,#290);
#234=AXIS2_PLACEMENT_3D('',#341,#291,#292);
#235=AXIS2_PLACEMENT_3D('',#343,#293,#294);
#236=AXIS2_PLACEMENT_3D('',#344,#295,#296);
#237=AXIS2_PLACEMENT_3D('',#346,#297,#298);
#238=AXIS2_PLACEMENT_3D('',#347,#299,#300);
#239=DIRECTION('',(0.,0.,1.));
#240=DIRECTION('',(1.,0.,0.));
#241=DIRECTION('',(0.,1.,0.));
#242=DIRECTION('',(-1.,-4.70737419258973E-16,0.));
#243=DIRECTION('',(0.,-1.,0.));
#244=DIRECTION('',(1.,4.70737419258973E-16,0.));
#245=DIRECTION('',(-4.70110061989715E-16,1.,0.));
#246=DIRECTION('',(0.,1.,0.));
#247=DIRECTION('',(-1.,-4.70737419258973E-16,0.));
#248=DIRECTION('',(7.43525491996028E-16,-1.,0.));
#249=DIRECTION('',(1.,4.70737419258973E-16,0.));
#250=DIRECTION('',(-4.70110061989715E-16,1.,0.));
#251=DIRECTION('',(0.998629534754574,0.0523359562429481,0.));
#252=DIRECTION('',(-1.,-4.70737419258973E-16,0.));
#253=DIRECTION('',(7.40200117893993E-16,-1.,0.));
#254=DIRECTION('',(-1.,-4.70737419258973E-16,0.));
#255=DIRECTION('',(-3.03831313948227E-17,-1.,0.));
#256=DIRECTION('',(0.998629534754574,0.0523359562429474,0.));
#257=DIRECTION('',(-1.,-4.70737419258973E-16,0.));
#258=DIRECTION('',(5.21131235038969E-16,-1.,0.));
#259=DIRECTION('',(-1.,-4.70737419258973E-16,0.));
#260=DIRECTION('',(-3.02211753005635E-16,-1.,0.));
#261=DIRECTION('',(0.,0.,1.));
#262=DIRECTION('',(1.,0.,0.));
#263=DIRECTION('',(-1.,-4.70737419258973E-16,0.));
#264=DIRECTION('',(5.76684254029909E-16,-1.,0.));
#265=DIRECTION('',(-1.,-5.31969759216341E-16,0.));
#266=DIRECTION('',(5.20417042793042E-16,-1.,0.));
#267=DIRECTION('',(0.,0.,1.));
#268=DIRECTION('',(1.,0.,0.));
#269=DIRECTION('',(-1.,-4.09505079301605E-16,0.));
#270=DIRECTION('',(-5.20417042793042E-16,1.,0.));
#271=DIRECTION('',(-1.,-4.70737419258973E-16,0.));
#272=DIRECTION('',(3.85494105772624E-16,-1.,0.));
#273=DIRECTION('',(-1.,-4.09505079301605E-16,0.));
#274=DIRECTION('',(-3.85494105772624E-16,1.,0.));
#275=DIRECTION('',(-1.,-4.70737419258973E-16,0.));
#276=DIRECTION('',(0.,-1.,0.));
#277=DIRECTION('',(-1.,-4.70737419258973E-16,0.));
#278=DIRECTION('',(4.71844785465692E-16,-1.,0.));
#279=DIRECTION('',(-1.,-4.70737419258973E-16,0.));
#280=DIRECTION('',(0.,-1.,0.));
#281=DIRECTION('',(-1.,-4.70737419258973E-16,0.));
#282=DIRECTION('',(0.,-1.,0.));
#283=DIRECTION('',(-1.,-4.70737419258973E-16,0.));
#284=DIRECTION('',(0.,-1.,0.));
#285=DIRECTION('',(-1.,-4.70737419258973E-16,0.));
#286=DIRECTION('',(4.70737419258973E-16,-1.,0.));
#287=DIRECTION('',(-1.,-4.70737419258973E-16,0.));
#288=DIRECTION('',(0.,-1.,0.));
#289=DIRECTION('',(-1.,-4.70737419258973E-16,0.));
#290=DIRECTION('',(6.09754742365151E-16,-1.,0.));
#291=DIRECTION('',(-1.,-4.70737419258973E-16,0.));
#292=DIRECTION('',(5.78241158658936E-16,-1.,0.));
#293=DIRECTION('',(-1.,-4.70737419258973E-16,0.));
#294=DIRECTION('',(4.70737419258973E-16,-1.,0.));
#295=DIRECTION('',(-1.,-4.70737419258973E-16,0.));
#296=DIRECTION('',(7.70988211545248E-16,-1.,0.));
#297=DIRECTION('',(-1.,-4.70737419258973E-16,0.));
#298=DIRECTION('',(4.20539024479226E-16,-1.,0.));
#299=DIRECTION('',(-1.,-4.70737419258973E-16,0.));
#300=DIRECTION('',(4.70737419258973E-16,-1.,0.));
#301=CARTESIAN_POINT('',(0.,0.,0.));
#302=CARTESIAN_POINT('',(11.5,0.,0.));
#303=CARTESIAN_POINT('',(11.5,-1.5,0.));
#304=CARTESIAN_POINT('',(11.5,0.,0.));
#305=CARTESIAN_POINT('',(11.5,4.97979945248399E-15,0.));
#306=CARTESIAN_POINT('',(11.5,-1.66195288417948E-31,0.));
#307=CARTESIAN_POINT('',(11.5,-1.5,0.));
#308=CARTESIAN_POINT('',(11.5,-4.66621116464981,0.));
#309=CARTESIAN_POINT('',(11.5,4.97979945248399E-15,0.));
#310=CARTESIAN_POINT('',(11.5,-1.5,0.));
#311=CARTESIAN_POINT('',(11.5,-4.66621116464981,0.));
#312=CARTESIAN_POINT('',(11.1,-4.68717427636303,0.));
#313=CARTESIAN_POINT('',(11.1,4.7915044847804E-15,0.));
#314=CARTESIAN_POINT('',(11.1,4.7915044847804E-15,0.));
#315=CARTESIAN_POINT('',(5.26167978121474,-4.99314767377287,0.));
#316=CARTESIAN_POINT('',(5.26167978121474,-4.99314767377287,0.));
#317=CARTESIAN_POINT('',(5.26167978121474,2.04318869218194E-15,0.));
#318=CARTESIAN_POINT('',(5.26167978121474,2.04318869218194E-15,0.));
#319=CARTESIAN_POINT('',(5.,0.,0.));
#320=CARTESIAN_POINT('',(1.00608727423616,-3.00809925683672,0.));
#321=CARTESIAN_POINT('',(1.00608727423616,3.99220580290212E-17,0.));
#322=CARTESIAN_POINT('',(5.,0.,0.));
#323=CARTESIAN_POINT('',(5.,0.,0.));
#324=CARTESIAN_POINT('',(8.67361737988404E-16,6.12323399573677E-16,0.));
#325=CARTESIAN_POINT('',(5.,0.,0.));
#326=CARTESIAN_POINT('',(5.,1.92000622730067E-15,0.));
#327=CARTESIAN_POINT('',(5.,-4.5,0.));
#328=CARTESIAN_POINT('',(5.,0.,0.));
#329=CARTESIAN_POINT('',(130.,6.07621836346723E-14,0.));
#330=CARTESIAN_POINT('',(130.,-4.24999999999988,0.));
#331=CARTESIAN_POINT('',(130.,4.25,0.));
#332=CARTESIAN_POINT('',(128.5,6.00560775057838E-14,0.));
#333=CARTESIAN_POINT('',(128.5,-5.74999999999994,0.));
#334=CARTESIAN_POINT('',(128.5,6.07153216591883E-14,0.));
#335=CARTESIAN_POINT('',(126.,5.88792339576364E-14,0.));
#336=CARTESIAN_POINT('',(126.,-5.74999999999994,0.));
#337=CARTESIAN_POINT('',(0.,-4.33680868994202E-16,0.));
#338=CARTESIAN_POINT('',(124.582179545096,5.82118128157221E-14,0.));
#339=CARTESIAN_POINT('',(124.582179545096,-5.99999999999994,0.));
#340=CARTESIAN_POINT('',(126.,5.88792339576364E-14,0.));
#341=CARTESIAN_POINT('',(30.,1.3688441708775E-14,0.));
#342=CARTESIAN_POINT('',(30.,-5.99999999999999,0.));
#343=CARTESIAN_POINT('',(0.,-4.33680868994202E-16,0.));
#344=CARTESIAN_POINT('',(26.0313730334031,1.18202604925176E-14,0.));
#345=CARTESIAN_POINT('',(26.0313730334031,-4.49999999999999,0.));
#346=CARTESIAN_POINT('',(26.0313730334031,1.21430643318376E-14,0.));
#347=CARTESIAN_POINT('',(0.,-4.33680868994202E-16,0.));
#348=MECHANICAL_DESIGN_GEOMETRIC_PRESENTATION_REPRESENTATION('',(#50,#51),
#349);
#349=(
GEOMETRIC_REPRESENTATION_CONTEXT(3)
GLOBAL_UNCERTAINTY_ASSIGNED_CONTEXT((#350))
GLOBAL_UNIT_ASSIGNED_CONTEXT((#356,#352,#351))
REPRESENTATION_CONTEXT('APMR-P3210-D10-C12-L130',
'TOP_LEVEL_ASSEMBLY_PART')
);
#350=UNCERTAINTY_MEASURE_WITH_UNIT(LENGTH_MEASURE(2.E-5),#356,
'DISTANCE_ACCURACY_VALUE','Maximum Tolerance applied to model');
#351=(
NAMED_UNIT(*)
SI_UNIT($,.STERADIAN.)
SOLID_ANGLE_UNIT()
);
#352=(
CONVERSION_BASED_UNIT('DEGREE',#354)
NAMED_UNIT(#353)
PLANE_ANGLE_UNIT()
);
#353=DIMENSIONAL_EXPONENTS(0.,0.,0.,0.,0.,0.,0.);
#354=PLANE_ANGLE_MEASURE_WITH_UNIT(PLANE_ANGLE_MEASURE(0.0174532925),#355);
#355=(
NAMED_UNIT(*)
PLANE_ANGLE_UNIT()
SI_UNIT($,.RADIAN.)
);
#356=(
LENGTH_UNIT()
NAMED_UNIT(*)
SI_UNIT(.MILLI.,.METRE.)
);
ENDSEC;
END-ISO-10303-21;
