ISO-10303-21;
HEADER;
/* Generated by software containing ST-Developer
 * from STEP Tools, Inc. (www.steptools.com) 
 */
/* OPTION: using custom schema-name function */

FILE_DESCRIPTION(
/* description */ (''),
/* implementation_level */ '2;1');

FILE_NAME(
/* name */ 'APMR-P3216-D16-C16-L175.stp',
/* time_stamp */ '2023-10-02T12:37:23+03:00',
/* author */ (''),
/* organization */ (''),
/* preprocessor_version */ 'ST-DEVELOPER v19.4',
/* originating_system */ 'SIEMENS PLM Software NX2306.5001',
/* authorisation */ '');

FILE_SCHEMA (('AUTOMOTIVE_DESIGN { 1 0 10303 214 3 1 1 1 }'));
ENDSEC;

DATA;
#10=PROPERTY_DEFINITION_REPRESENTATION(#14,#12);
#11=PROPERTY_DEFINITION_REPRESENTATION(#15,#13);
#12=REPRESENTATION('',(#16),#411);
#13=REPRESENTATION('',(#17),#411);
#14=PROPERTY_DEFINITION('pmi validation property','',#21);
#15=PROPERTY_DEFINITION('pmi validation property','',#21);
#16=VALUE_REPRESENTATION_ITEM('number of annotations',COUNT_MEASURE(0.));
#17=VALUE_REPRESENTATION_ITEM('number of views',COUNT_MEASURE(0.));
#18=SHAPE_REPRESENTATION_RELATIONSHIP('None',
'relationship between APMR-P3216-D16-C16-L175-LIGHT_x_t_objects-None a
nd APMR-P3216-D16-C16-L175-LIGHT_x_t_objects-None',#30,#19);
#19=ADVANCED_BREP_SHAPE_REPRESENTATION(
'APMR-P3216-D16-C16-L175-LIGHT_x_t_objects-None',(#74,#75),#411);
#20=SHAPE_DEFINITION_REPRESENTATION(#21,#30);
#21=PRODUCT_DEFINITION_SHAPE('','',#22);
#22=PRODUCT_DEFINITION(' ','',#24,#23);
#23=PRODUCT_DEFINITION_CONTEXT('part definition',#29,'design');
#24=PRODUCT_DEFINITION_FORMATION_WITH_SPECIFIED_SOURCE(' ',' ',#26,
 .NOT_KNOWN.);
#25=PRODUCT_RELATED_PRODUCT_CATEGORY('part','',(#26));
#26=PRODUCT('APMR-P3216-D16-C16-L175-LIGHT_x_t_objects',
'APMR-P3216-D16-C16-L175-LIGHT_x_t_objects',' ',(#27));
#27=PRODUCT_CONTEXT(' ',#29,'mechanical');
#28=APPLICATION_PROTOCOL_DEFINITION('international standard',
'automotive_design',2010,#29);
#29=APPLICATION_CONTEXT(
'core data for automotive mechanical design processes');
#30=SHAPE_REPRESENTATION(
'APMR-P3216-D16-C16-L175-LIGHT_x_t_objects-None',(#242),#411);
#31=DRAUGHTING_PRE_DEFINED_COLOUR('yellow');
#32=(
BOUNDED_CURVE()
B_SPLINE_CURVE(3,(#388,#389,#390,#391),.UNSPECIFIED.,.F.,.F.)
B_SPLINE_CURVE_WITH_KNOTS((4,4),(0.,1.),.UNSPECIFIED.)
CURVE()
GEOMETRIC_REPRESENTATION_ITEM()
RATIONAL_B_SPLINE_CURVE((1.,0.99092585011047,0.99092585011047,1.))
REPRESENTATION_ITEM('')
);
#33=(
BOUNDED_CURVE()
B_SPLINE_CURVE(3,(#399,#400,#401,#402),.UNSPECIFIED.,.F.,.F.)
B_SPLINE_CURVE_WITH_KNOTS((4,4),(0.,1.),.UNSPECIFIED.)
CURVE()
GEOMETRIC_REPRESENTATION_ITEM()
RATIONAL_B_SPLINE_CURVE((1.,0.999560036606206,0.999560036606206,1.))
REPRESENTATION_ITEM('')
);
#34=LINE('',#384,#38);
#35=LINE('',#395,#39);
#36=LINE('',#406,#40);
#37=LINE('',#408,#41);
#38=VECTOR('',#313,2.53977330328506);
#39=VECTOR('',#320,0.646598551444714);
#40=VECTOR('',#327,0.486686495353679);
#41=VECTOR('',#329,3.46590153490566);
#42=SURFACE_OF_REVOLUTION('',#56,#49);
#43=SURFACE_OF_REVOLUTION('',#34,#50);
#44=SURFACE_OF_REVOLUTION('',#32,#51);
#45=SURFACE_OF_REVOLUTION('',#35,#52);
#46=SURFACE_OF_REVOLUTION('',#33,#53);
#47=SURFACE_OF_REVOLUTION('',#36,#54);
#48=SURFACE_OF_REVOLUTION('',#37,#55);
#49=AXIS1_PLACEMENT('',#381,#310);
#50=AXIS1_PLACEMENT('',#385,#314);
#51=AXIS1_PLACEMENT('',#392,#317);
#52=AXIS1_PLACEMENT('',#396,#321);
#53=AXIS1_PLACEMENT('',#403,#324);
#54=AXIS1_PLACEMENT('',#407,#328);
#55=AXIS1_PLACEMENT('',#409,#330);
#56=B_SPLINE_CURVE_WITH_KNOTS('',3,(#363,#364,#365,#366,#367,#368,#369,
#370,#371,#372,#373,#374,#375,#376,#377,#378,#379,#380),.UNSPECIFIED.,.F.,
 .F.,(4,2,2,2,2,2,2,2,4),(0.,0.125,0.250000000000002,0.375000000000002,
0.500000000000003,0.624999999999998,0.749999999999998,0.874999999999999,
1.),.UNSPECIFIED.);
#57=VERTEX_LOOP('',#205);
#58=PRESENTATION_LAYER_ASSIGNMENT('1','Layer 1',(#74,#75));
#59=STYLED_ITEM('',(#61),#74);
#60=STYLED_ITEM('',(#62),#75);
#61=PRESENTATION_STYLE_ASSIGNMENT((#63));
#62=PRESENTATION_STYLE_ASSIGNMENT((#64));
#63=SURFACE_STYLE_USAGE(.BOTH.,#65);
#64=SURFACE_STYLE_USAGE(.BOTH.,#66);
#65=SURFACE_SIDE_STYLE('',(#67));
#66=SURFACE_SIDE_STYLE('',(#68));
#67=SURFACE_STYLE_FILL_AREA(#69);
#68=SURFACE_STYLE_FILL_AREA(#70);
#69=FILL_AREA_STYLE('',(#71));
#70=FILL_AREA_STYLE('',(#72));
#71=FILL_AREA_STYLE_COLOUR('',#73);
#72=FILL_AREA_STYLE_COLOUR('',#31);
#73=COLOUR_RGB('silver gray',0.6,0.6,0.6);
#74=MANIFOLD_SOLID_BREP('',#76);
#75=MANIFOLD_SOLID_BREP('',#77);
#76=CLOSED_SHELL('',(#115,#116,#117,#118,#119,#120,#121,#122,#123));
#77=CLOSED_SHELL('',(#124,#125,#126,#127,#128,#129,#130,#131));
#78=CONICAL_SURFACE('',#252,7.7499999999994,9.99999999999972);
#79=CONICAL_SURFACE('',#256,7.99999999999895,44.9999999999986);
#80=CONICAL_SURFACE('',#258,7.74999999999895,1.22757883213481);
#81=CYLINDRICAL_SURFACE('',#250,7.74999999999941);
#82=CYLINDRICAL_SURFACE('',#254,7.99999999999917);
#83=CYLINDRICAL_SURFACE('',#259,6.99999999999871);
#84=TOROIDAL_SURFACE('',#248,6.24999999999941,1.5);
#85=FACE_BOUND('',#138,.T.);
#86=FACE_BOUND('',#139,.T.);
#87=FACE_BOUND('',#140,.T.);
#88=FACE_BOUND('',#141,.T.);
#89=FACE_BOUND('',#142,.T.);
#90=FACE_BOUND('',#143,.T.);
#91=FACE_BOUND('',#144,.T.);
#92=FACE_BOUND('',#145,.T.);
#93=FACE_BOUND('',#146,.T.);
#94=FACE_BOUND('',#147,.T.);
#95=FACE_BOUND('',#148,.T.);
#96=FACE_BOUND('',#149,.T.);
#97=FACE_BOUND('',#150,.T.);
#98=FACE_BOUND('',#151,.T.);
#99=FACE_BOUND('',#57,.T.);
#100=FACE_BOUND('',#153,.T.);
#101=FACE_BOUND('',#154,.T.);
#102=FACE_BOUND('',#155,.T.);
#103=FACE_BOUND('',#156,.T.);
#104=FACE_BOUND('',#157,.T.);
#105=FACE_BOUND('',#158,.T.);
#106=FACE_BOUND('',#159,.T.);
#107=FACE_BOUND('',#160,.T.);
#108=FACE_BOUND('',#161,.T.);
#109=FACE_BOUND('',#162,.T.);
#110=FACE_BOUND('',#163,.T.);
#111=FACE_BOUND('',#164,.T.);
#112=FACE_BOUND('',#165,.T.);
#113=PLANE('',#246);
#114=PLANE('',#261);
#115=ADVANCED_FACE('',(#133),#132,.T.);
#116=ADVANCED_FACE('',(#134),#113,.F.);
#117=ADVANCED_FACE('',(#85,#86),#84,.T.);
#118=ADVANCED_FACE('',(#87,#88),#81,.T.);
#119=ADVANCED_FACE('',(#89,#90),#78,.T.);
#120=ADVANCED_FACE('',(#91,#92),#82,.T.);
#121=ADVANCED_FACE('',(#93,#94),#79,.T.);
#122=ADVANCED_FACE('',(#95,#96),#80,.T.);
#123=ADVANCED_FACE('',(#97,#98),#83,.T.);
#124=ADVANCED_FACE('',(#135),#114,.F.);
#125=ADVANCED_FACE('',(#99,#100),#42,.T.);
#126=ADVANCED_FACE('',(#101,#102),#43,.T.);
#127=ADVANCED_FACE('',(#103,#104),#44,.T.);
#128=ADVANCED_FACE('',(#105,#106),#45,.T.);
#129=ADVANCED_FACE('',(#107,#108),#46,.T.);
#130=ADVANCED_FACE('',(#109,#110),#47,.T.);
#131=ADVANCED_FACE('',(#111,#112),#48,.T.);
#132=SPHERICAL_SURFACE('',#244,7.);
#133=FACE_OUTER_BOUND('',#136,.T.);
#134=FACE_OUTER_BOUND('',#137,.T.);
#135=FACE_OUTER_BOUND('',#152,.T.);
#136=EDGE_LOOP('',(#166));
#137=EDGE_LOOP('',(#167));
#138=EDGE_LOOP('',(#168));
#139=EDGE_LOOP('',(#169));
#140=EDGE_LOOP('',(#170));
#141=EDGE_LOOP('',(#171));
#142=EDGE_LOOP('',(#172));
#143=EDGE_LOOP('',(#173));
#144=EDGE_LOOP('',(#174));
#145=EDGE_LOOP('',(#175));
#146=EDGE_LOOP('',(#176));
#147=EDGE_LOOP('',(#177));
#148=EDGE_LOOP('',(#178));
#149=EDGE_LOOP('',(#179));
#150=EDGE_LOOP('',(#180));
#151=EDGE_LOOP('',(#181));
#152=EDGE_LOOP('',(#182));
#153=EDGE_LOOP('',(#183));
#154=EDGE_LOOP('',(#184));
#155=EDGE_LOOP('',(#185));
#156=EDGE_LOOP('',(#186));
#157=EDGE_LOOP('',(#187));
#158=EDGE_LOOP('',(#188));
#159=EDGE_LOOP('',(#189));
#160=EDGE_LOOP('',(#190));
#161=EDGE_LOOP('',(#191));
#162=EDGE_LOOP('',(#192));
#163=EDGE_LOOP('',(#193));
#164=EDGE_LOOP('',(#194));
#165=EDGE_LOOP('',(#195));
#166=ORIENTED_EDGE('',*,*,#212,.T.);
#167=ORIENTED_EDGE('',*,*,#213,.F.);
#168=ORIENTED_EDGE('',*,*,#214,.F.);
#169=ORIENTED_EDGE('',*,*,#213,.T.);
#170=ORIENTED_EDGE('',*,*,#215,.F.);
#171=ORIENTED_EDGE('',*,*,#214,.T.);
#172=ORIENTED_EDGE('',*,*,#216,.F.);
#173=ORIENTED_EDGE('',*,*,#215,.T.);
#174=ORIENTED_EDGE('',*,*,#217,.F.);
#175=ORIENTED_EDGE('',*,*,#216,.T.);
#176=ORIENTED_EDGE('',*,*,#218,.F.);
#177=ORIENTED_EDGE('',*,*,#217,.T.);
#178=ORIENTED_EDGE('',*,*,#219,.F.);
#179=ORIENTED_EDGE('',*,*,#218,.T.);
#180=ORIENTED_EDGE('',*,*,#212,.F.);
#181=ORIENTED_EDGE('',*,*,#219,.T.);
#182=ORIENTED_EDGE('',*,*,#220,.F.);
#183=ORIENTED_EDGE('',*,*,#221,.T.);
#184=ORIENTED_EDGE('',*,*,#221,.F.);
#185=ORIENTED_EDGE('',*,*,#222,.T.);
#186=ORIENTED_EDGE('',*,*,#222,.F.);
#187=ORIENTED_EDGE('',*,*,#223,.T.);
#188=ORIENTED_EDGE('',*,*,#223,.F.);
#189=ORIENTED_EDGE('',*,*,#224,.T.);
#190=ORIENTED_EDGE('',*,*,#224,.F.);
#191=ORIENTED_EDGE('',*,*,#225,.T.);
#192=ORIENTED_EDGE('',*,*,#225,.F.);
#193=ORIENTED_EDGE('',*,*,#226,.T.);
#194=ORIENTED_EDGE('',*,*,#226,.F.);
#195=ORIENTED_EDGE('',*,*,#220,.T.);
#196=VERTEX_POINT('',#333);
#197=VERTEX_POINT('',#336);
#198=VERTEX_POINT('',#339);
#199=VERTEX_POINT('',#342);
#200=VERTEX_POINT('',#345);
#201=VERTEX_POINT('',#348);
#202=VERTEX_POINT('',#351);
#203=VERTEX_POINT('',#354);
#204=VERTEX_POINT('',#358);
#205=VERTEX_POINT('',#360);
#206=VERTEX_POINT('',#362);
#207=VERTEX_POINT('',#383);
#208=VERTEX_POINT('',#387);
#209=VERTEX_POINT('',#394);
#210=VERTEX_POINT('',#398);
#211=VERTEX_POINT('',#405);
#212=EDGE_CURVE('',#196,#196,#227,.T.);
#213=EDGE_CURVE('',#197,#197,#228,.T.);
#214=EDGE_CURVE('',#198,#198,#229,.T.);
#215=EDGE_CURVE('',#199,#199,#230,.T.);
#216=EDGE_CURVE('',#200,#200,#231,.T.);
#217=EDGE_CURVE('',#201,#201,#232,.T.);
#218=EDGE_CURVE('',#202,#202,#233,.T.);
#219=EDGE_CURVE('',#203,#203,#234,.T.);
#220=EDGE_CURVE('',#204,#204,#235,.T.);
#221=EDGE_CURVE('',#206,#206,#236,.T.);
#222=EDGE_CURVE('',#207,#207,#237,.T.);
#223=EDGE_CURVE('',#208,#208,#238,.T.);
#224=EDGE_CURVE('',#209,#209,#239,.T.);
#225=EDGE_CURVE('',#210,#210,#240,.T.);
#226=EDGE_CURVE('',#211,#211,#241,.T.);
#227=CIRCLE('',#243,6.99999999999864);
#228=CIRCLE('',#245,6.24999999999942);
#229=CIRCLE('',#247,7.74999999999941);
#230=CIRCLE('',#249,7.7499999999994);
#231=CIRCLE('',#251,7.9999999999994);
#232=CIRCLE('',#253,7.99999999999895);
#233=CIRCLE('',#255,7.74999999999895);
#234=CIRCLE('',#257,6.99999999999879);
#235=CIRCLE('',#260,1.87973072794365);
#236=CIRCLE('',#262,8.06162259142615);
#237=CIRCLE('',#263,7.59359146938384);
#238=CIRCLE('',#264,6.30905811994552);
#239=CIRCLE('',#265,6.00272940738596);
#240=CIRCLE('',#266,5.52398724861211);
#241=CIRCLE('',#267,5.08425204401256);
#242=AXIS2_PLACEMENT_3D('',#331,#268,#269);
#243=AXIS2_PLACEMENT_3D('',#332,#270,#271);
#244=AXIS2_PLACEMENT_3D('',#334,#272,#273);
#245=AXIS2_PLACEMENT_3D('',#335,#274,#275);
#246=AXIS2_PLACEMENT_3D('',#337,#276,#277);
#247=AXIS2_PLACEMENT_3D('',#338,#278,#279);
#248=AXIS2_PLACEMENT_3D('',#340,#280,#281);
#249=AXIS2_PLACEMENT_3D('',#341,#282,#283);
#250=AXIS2_PLACEMENT_3D('',#343,#284,#285);
#251=AXIS2_PLACEMENT_3D('',#344,#286,#287);
#252=AXIS2_PLACEMENT_3D('',#346,#288,#289);
#253=AXIS2_PLACEMENT_3D('',#347,#290,#291);
#254=AXIS2_PLACEMENT_3D('',#349,#292,#293);
#255=AXIS2_PLACEMENT_3D('',#350,#294,#295);
#256=AXIS2_PLACEMENT_3D('',#352,#296,#297);
#257=AXIS2_PLACEMENT_3D('',#353,#298,#299);
#258=AXIS2_PLACEMENT_3D('',#355,#300,#301);
#259=AXIS2_PLACEMENT_3D('',#356,#302,#303);
#260=AXIS2_PLACEMENT_3D('',#357,#304,#305);
#261=AXIS2_PLACEMENT_3D('',#359,#306,#307);
#262=AXIS2_PLACEMENT_3D('',#361,#308,#309);
#263=AXIS2_PLACEMENT_3D('',#382,#311,#312);
#264=AXIS2_PLACEMENT_3D('',#386,#315,#316);
#265=AXIS2_PLACEMENT_3D('',#393,#318,#319);
#266=AXIS2_PLACEMENT_3D('',#397,#322,#323);
#267=AXIS2_PLACEMENT_3D('',#404,#325,#326);
#268=DIRECTION('',(0.,0.,1.));
#269=DIRECTION('',(1.,0.,0.));
#270=DIRECTION('',(-1.,4.68374225353004E-15,0.));
#271=DIRECTION('',(-4.70853514908082E-15,-1.,0.));
#272=DIRECTION('',(-1.,4.74497459348741E-15,0.));
#273=DIRECTION('',(4.7085351490799E-15,1.,0.));
#274=DIRECTION('',(-1.,4.68374225353004E-15,0.));
#275=DIRECTION('',(-4.44089209850104E-15,-1.,0.));
#276=DIRECTION('',(-1.,4.68374225353004E-15,0.));
#277=DIRECTION('',(-4.69069227904129E-15,-1.,0.));
#278=DIRECTION('',(-1.,4.68374225353004E-15,0.));
#279=DIRECTION('',(-3.58136459556529E-15,-1.,0.));
#280=DIRECTION('',(-1.,4.68374225353004E-15,0.));
#281=DIRECTION('',(-3.58136459556529E-15,-1.,0.));
#282=DIRECTION('',(-1.,4.68374225353004E-15,0.));
#283=DIRECTION('',(-3.5813645955653E-15,-1.,0.));
#284=DIRECTION('',(-1.,4.68374225353004E-15,0.));
#285=DIRECTION('',(-4.68374225351829E-15,-1.,0.));
#286=DIRECTION('',(-1.,4.68374225353004E-15,0.));
#287=DIRECTION('',(-3.46944695195387E-15,-1.,0.));
#288=DIRECTION('',(-1.,4.68374225353004E-15,0.));
#289=DIRECTION('',(-4.67425552490581E-15,-1.,0.));
#290=DIRECTION('',(-1.,4.68374225353004E-15,0.));
#291=DIRECTION('',(-5.20417042793111E-15,-1.,0.));
#292=DIRECTION('',(-1.,4.68374225353004E-15,0.));
#293=DIRECTION('',(-4.68374225353552E-15,-1.,0.));
#294=DIRECTION('',(-1.,4.68374225353004E-15,0.));
#295=DIRECTION('',(-5.37204689334826E-15,-1.,0.));
#296=DIRECTION('',(1.,-4.68374225353004E-15,0.));
#297=DIRECTION('',(4.66723220917593E-15,1.,0.));
#298=DIRECTION('',(-1.,4.68374225353004E-15,0.));
#299=DIRECTION('',(-4.95635278850602E-15,-1.,0.));
#300=DIRECTION('',(1.,-4.68374225353004E-15,0.));
#301=DIRECTION('',(6.18300460470481E-15,1.,0.));
#302=DIRECTION('',(-1.,4.68374225353004E-15,0.));
#303=DIRECTION('',(-4.68374225351786E-15,-1.,0.));
#304=DIRECTION('',(-1.,0.,0.));
#305=DIRECTION('',(0.,0.,1.));
#306=DIRECTION('',(-1.,0.,0.));
#307=DIRECTION('',(0.,0.,1.));
#308=DIRECTION('',(-1.,0.,0.));
#309=DIRECTION('',(0.,0.,1.));
#310=DIRECTION('',(-1.,0.,0.));
#311=DIRECTION('',(-1.,0.,0.));
#312=DIRECTION('',(0.,0.,1.));
#313=DIRECTION('',(-0.977878872211502,-0.172426429035658,0.118414685965769));
#314=DIRECTION('',(-1.,0.,0.));
#315=DIRECTION('',(-1.,0.,0.));
#316=DIRECTION('',(0.,0.,1.));
#317=DIRECTION('',(-1.,0.,0.));
#318=DIRECTION('',(-1.,0.,0.));
#319=DIRECTION('',(0.,0.,1.));
#320=DIRECTION('',(-0.866523327553658,-0.468743104409743,0.171514503391557));
#321=DIRECTION('',(-1.,0.,0.));
#322=DIRECTION('',(-1.,0.,0.));
#323=DIRECTION('',(0.,0.,1.));
#324=DIRECTION('',(-1.,0.,0.));
#325=DIRECTION('',(-1.,0.,0.));
#326=DIRECTION('',(0.,0.,1.));
#327=DIRECTION('',(-0.360843951747024,-0.906009300309878,0.221221134251673));
#328=DIRECTION('',(-1.,0.,0.));
#329=DIRECTION('',(0.0171896959130854,-0.978652821897937,0.204800313831843));
#330=DIRECTION('',(-1.,0.,0.));
#331=CARTESIAN_POINT('',(0.,0.,0.));
#332=CARTESIAN_POINT('',(8.,1.36296817079811E-12,0.));
#333=CARTESIAN_POINT('',(7.99999999999997,-6.99999999999728,0.));
#334=CARTESIAN_POINT('',(8.,0.,0.));
#335=CARTESIAN_POINT('',(175.,5.80783214458595E-13,0.));
#336=CARTESIAN_POINT('',(175.,-6.24999999999884,0.));
#337=CARTESIAN_POINT('',(175.,6.25,0.));
#338=CARTESIAN_POINT('',(173.5,5.8780882783889E-13,0.));
#339=CARTESIAN_POINT('',(173.5,-7.74999999999882,0.));
#340=CARTESIAN_POINT('',(173.5,5.88071258356138E-13,0.));
#341=CARTESIAN_POINT('',(171.,5.99518183472715E-13,0.));
#342=CARTESIAN_POINT('',(171.,-7.7499999999988,0.));
#343=CARTESIAN_POINT('',(-1.51118741983325E-9,1.40043810883343E-12,0.));
#344=CARTESIAN_POINT('',(169.582179545096,6.0615888904527E-13,0.));
#345=CARTESIAN_POINT('',(169.582179545095,-7.99999999999879,0.));
#346=CARTESIAN_POINT('',(171.,5.99518183472715E-13,0.));
#347=CARTESIAN_POINT('',(75.25,1.04798650424822E-12,0.));
#348=CARTESIAN_POINT('',(75.25,-7.9999999999979,0.));
#349=CARTESIAN_POINT('',(-1.51118741983325E-9,1.40043810883343E-12,0.));
#350=CARTESIAN_POINT('',(75.,1.0491574398116E-12,0.));
#351=CARTESIAN_POINT('',(75.,-7.7499999999979,0.));
#352=CARTESIAN_POINT('',(75.25,1.04798650424822E-12,0.));
#353=CARTESIAN_POINT('',(40.,1.21308841868515E-12,0.));
#354=CARTESIAN_POINT('',(40.,-6.99999999999758,0.));
#355=CARTESIAN_POINT('',(75.,1.0491574398116E-12,0.));
#356=CARTESIAN_POINT('',(-1.51118741983325E-9,1.40043810883343E-12,0.));
#357=CARTESIAN_POINT('',(14.0234468371678,1.36296817079811E-12,0.));
#358=CARTESIAN_POINT('',(14.0234468371678,1.36296817079811E-12,1.87973072794365));
#359=CARTESIAN_POINT('',(14.0234468371678,1.36296817079811E-12,0.));
#360=CARTESIAN_POINT('',(-3.79470760372461E-15,1.37700699690724E-14,-6.17950344293606E-16));
#361=CARTESIAN_POINT('',(8.13002527682415,1.36296817079811E-12,0.));
#362=CARTESIAN_POINT('',(8.13002527682415,1.36296817079811E-12,8.06162259142615));
#363=CARTESIAN_POINT('',(8.13002527682416,-7.99894326941921,1.003327154613));
#364=CARTESIAN_POINT('',(7.60107100378499,-8.00754158340478,1.04953639202037));
#365=CARTESIAN_POINT('',(7.07128954668368,-7.96350146589625,1.08472193746022));
#366=CARTESIAN_POINT('',(6.0307553209196,-7.77186812145746,1.13167290113721));
#367=CARTESIAN_POINT('',(5.52003677292156,-7.62427970996321,1.14343646191345));
#368=CARTESIAN_POINT('',(4.53767826526033,-7.23133368809446,1.1430795013454));
#369=CARTESIAN_POINT('',(4.06606360887251,-6.98598619909793,1.13095898919576));
#370=CARTESIAN_POINT('',(3.18041504077154,-6.40714129110625,1.08330810660056));
#371=CARTESIAN_POINT('',(2.76640394132119,-6.07365878182331,1.04777896353207));
#372=CARTESIAN_POINT('',(2.01220596783825,-5.33162089160801,0.954703323421724));
#373=CARTESIAN_POINT('',(1.67203852023415,-4.92308462389661,0.897159223799412));
#374=CARTESIAN_POINT('',(1.07887548508134,-4.04696110092861,0.762309832705334));
#375=CARTESIAN_POINT('',(0.825895176101791,-3.57939641269004,0.685008014659199));
#376=CARTESIAN_POINT('',(0.417034629353337,-2.60355428040752,0.513674505905706));
#377=CARTESIAN_POINT('',(0.261164922956413,-2.09530197198254,0.419647228386836));
#378=CARTESIAN_POINT('',(0.0526449227594932,-1.05801983900361,0.21855036971632));
#379=CARTESIAN_POINT('',(1.89789926308349E-12,-0.529024074692987,0.111487515671569));
#380=CARTESIAN_POINT('',(-3.79470760372461E-15,1.37700699690724E-14,-6.17950344293606E-16));
#381=CARTESIAN_POINT('',(8.,1.36296817079811E-12,0.));
#382=CARTESIAN_POINT('',(10.6136159303134,1.36296817079811E-12,0.));
#383=CARTESIAN_POINT('',(10.6136159303134,1.36296817079811E-12,7.59359146938384));
#384=CARTESIAN_POINT('',(10.6136159303134,-7.56101922817367,0.702580696480249));
#385=CARTESIAN_POINT('',(8.,1.36296817079811E-12,0.));
#386=CARTESIAN_POINT('',(12.9249566990698,1.36296817079811E-12,0.));
#387=CARTESIAN_POINT('',(12.9249566990698,1.36296817079811E-12,6.30905811994552));
#388=CARTESIAN_POINT('',(12.9249566990698,-6.30434782608697,0.243747509824727));
#389=CARTESIAN_POINT('',(12.2275462028047,-6.84916492538622,0.417099683007976));
#390=CARTESIAN_POINT('',(11.4500441093505,-7.27189127500716,0.57144462772285));
#391=CARTESIAN_POINT('',(10.6136159303134,-7.56101922817366,0.702580696480248));
#392=CARTESIAN_POINT('',(8.,1.36296817079811E-12,0.));
#393=CARTESIAN_POINT('',(13.485249427459,1.36296817079811E-12,0.));
#394=CARTESIAN_POINT('',(13.485249427459,1.36296817079811E-12,6.00272940738596));
#395=CARTESIAN_POINT('',(13.485249427459,-6.00125921377593,0.132846480379986));
#396=CARTESIAN_POINT('',(8.,1.36296817079811E-12,0.));
#397=CARTESIAN_POINT('',(13.9074067523722,1.36296817079811E-12,0.));
#398=CARTESIAN_POINT('',(13.9074067523722,1.36296817079811E-12,5.52398724861211));
#399=CARTESIAN_POINT('',(13.9074067523722,-5.52398634006475,-0.00316821593419973));
#400=CARTESIAN_POINT('',(13.7722811258883,-5.68674522774938,0.0424735195714106));
#401=CARTESIAN_POINT('',(13.6315000790768,-5.84590621065931,0.0878317076184884));
#402=CARTESIAN_POINT('',(13.485249427459,-6.00125921377593,0.132846480379985));
#403=CARTESIAN_POINT('',(8.,1.36296817079811E-12,0.));
#404=CARTESIAN_POINT('',(14.0830246306175,1.36296817079811E-12,0.));
#405=CARTESIAN_POINT('',(14.0830246306175,1.36296817079811E-12,5.08425204401256));
#406=CARTESIAN_POINT('',(14.0830246306175,-5.08304384893909,-0.110833554461313));
#407=CARTESIAN_POINT('',(8.,1.36296817079811E-12,0.));
#408=CARTESIAN_POINT('',(14.0234468371678,-1.69112953138327,-0.820651276520258));
#409=CARTESIAN_POINT('',(8.,1.36296817079811E-12,0.));
#410=MECHANICAL_DESIGN_GEOMETRIC_PRESENTATION_REPRESENTATION('',(#59,#60),
#411);
#411=(
GEOMETRIC_REPRESENTATION_CONTEXT(3)
GLOBAL_UNCERTAINTY_ASSIGNED_CONTEXT((#412))
GLOBAL_UNIT_ASSIGNED_CONTEXT((#418,#414,#413))
REPRESENTATION_CONTEXT('APMR-P3216-D16-C16-L175',
'TOP_LEVEL_ASSEMBLY_PART')
);
#412=UNCERTAINTY_MEASURE_WITH_UNIT(LENGTH_MEASURE(0.0508),#418,
'DISTANCE_ACCURACY_VALUE','Maximum Tolerance applied to model');
#413=(
NAMED_UNIT(*)
SI_UNIT($,.STERADIAN.)
SOLID_ANGLE_UNIT()
);
#414=(
CONVERSION_BASED_UNIT('DEGREE',#416)
NAMED_UNIT(#415)
PLANE_ANGLE_UNIT()
);
#415=DIMENSIONAL_EXPONENTS(0.,0.,0.,0.,0.,0.,0.);
#416=PLANE_ANGLE_MEASURE_WITH_UNIT(PLANE_ANGLE_MEASURE(0.0174532925),#417);
#417=(
NAMED_UNIT(*)
PLANE_ANGLE_UNIT()
SI_UNIT($,.RADIAN.)
);
#418=(
LENGTH_UNIT()
NAMED_UNIT(*)
SI_UNIT(.MILLI.,.METRE.)
);
ENDSEC;
END-ISO-10303-21;
