ISO-10303-21;
HEADER;
/* Generated by software containing ST-Developer
 * from STEP Tools, Inc. (www.steptools.com) 
 */
/* OPTION: using custom schema-name function */

FILE_DESCRIPTION(
/* description */ (''),
/* implementation_level */ '2;1');

FILE_NAME(
/* name */ 'APMR-P3220-D20-M10-L30.stp',
/* time_stamp */ '2023-09-29T19:44:42+03:00',
/* author */ (''),
/* organization */ (''),
/* preprocessor_version */ 'ST-DEVELOPER v19.4',
/* originating_system */ 'SIEMENS PLM Software NX2306.5001',
/* authorisation */ '');

FILE_SCHEMA (('AUTOMOTIVE_DESIGN { 1 0 10303 214 3 1 1 1 }'));
ENDSEC;

DATA;
#10=PROPERTY_DEFINITION_REPRESENTATION(#14,#12);
#11=PROPERTY_DEFINITION_REPRESENTATION(#15,#13);
#12=REPRESENTATION('',(#16),#419);
#13=REPRESENTATION('',(#17),#419);
#14=PROPERTY_DEFINITION('pmi validation property','',#21);
#15=PROPERTY_DEFINITION('pmi validation property','',#21);
#16=VALUE_REPRESENTATION_ITEM('number of annotations',COUNT_MEASURE(0.));
#17=VALUE_REPRESENTATION_ITEM('number of views',COUNT_MEASURE(0.));
#18=SHAPE_REPRESENTATION_RELATIONSHIP('None',
'relationship between APMR-P3220-D20-M10-L30-LIGHT_x_t_objects-None an
d APMR-P3220-D20-M10-L30-LIGHT_x_t_objects-None',#30,#19);
#19=ADVANCED_BREP_SHAPE_REPRESENTATION(
'APMR-P3220-D20-M10-L30-LIGHT_x_t_objects-None',(#52,#53),#419);
#20=SHAPE_DEFINITION_REPRESENTATION(#21,#30);
#21=PRODUCT_DEFINITION_SHAPE('','',#22);
#22=PRODUCT_DEFINITION(' ','',#24,#23);
#23=PRODUCT_DEFINITION_CONTEXT('part definition',#29,'design');
#24=PRODUCT_DEFINITION_FORMATION_WITH_SPECIFIED_SOURCE(' ',' ',#26,
 .NOT_KNOWN.);
#25=PRODUCT_RELATED_PRODUCT_CATEGORY('part','',(#26));
#26=PRODUCT('APMR-P3220-D20-M10-L30-LIGHT_x_t_objects',
'APMR-P3220-D20-M10-L30-LIGHT_x_t_objects',' ',(#27));
#27=PRODUCT_CONTEXT(' ',#29,'mechanical');
#28=APPLICATION_PROTOCOL_DEFINITION('international standard',
'automotive_design',2010,#29);
#29=APPLICATION_CONTEXT(
'core data for automotive mechanical design processes');
#30=SHAPE_REPRESENTATION(
'APMR-P3220-D20-M10-L30-LIGHT_x_t_objects-None',(#248),#419);
#31=DRAUGHTING_PRE_DEFINED_COLOUR('yellow');
#32=LINE('',#402,#34);
#33=LINE('',#411,#35);
#34=VECTOR('',#341,1.);
#35=VECTOR('',#352,1.);
#36=PRESENTATION_LAYER_ASSIGNMENT('1','Layer 1',(#52,#53));
#37=STYLED_ITEM('',(#39),#52);
#38=STYLED_ITEM('',(#40),#53);
#39=PRESENTATION_STYLE_ASSIGNMENT((#41));
#40=PRESENTATION_STYLE_ASSIGNMENT((#42));
#41=SURFACE_STYLE_USAGE(.BOTH.,#43);
#42=SURFACE_STYLE_USAGE(.BOTH.,#44);
#43=SURFACE_SIDE_STYLE('',(#45));
#44=SURFACE_SIDE_STYLE('',(#46));
#45=SURFACE_STYLE_FILL_AREA(#47);
#46=SURFACE_STYLE_FILL_AREA(#48);
#47=FILL_AREA_STYLE('',(#49));
#48=FILL_AREA_STYLE('',(#50));
#49=FILL_AREA_STYLE_COLOUR('',#51);
#50=FILL_AREA_STYLE_COLOUR('',#31);
#51=COLOUR_RGB('silver gray',0.6,0.6,0.6);
#52=MANIFOLD_SOLID_BREP('',#54);
#53=MANIFOLD_SOLID_BREP('',#55);
#54=CLOSED_SHELL('',(#73,#74,#75,#76,#77,#78,#79,#80,#81,#82,#83,#84,#85,
#86));
#55=CLOSED_SHELL('',(#87,#88,#89,#90));
#56=SPHERICAL_SURFACE('',#274,8.8);
#57=SPHERICAL_SURFACE('',#280,10.);
#58=SPHERICAL_SURFACE('',#284,10.);
#59=FACE_OUTER_BOUND('',#146,.T.);
#60=FACE_OUTER_BOUND('',#147,.T.);
#61=FACE_OUTER_BOUND('',#148,.T.);
#62=FACE_OUTER_BOUND('',#149,.T.);
#63=FACE_OUTER_BOUND('',#150,.T.);
#64=FACE_OUTER_BOUND('',#151,.T.);
#65=PLANE('',#265);
#66=PLANE('',#275);
#67=PLANE('',#282);
#68=TOROIDAL_SURFACE('',#261,5.62999999999932,0.6);
#69=CYLINDRICAL_SURFACE('',#253,4.87499999999955);
#70=CYLINDRICAL_SURFACE('',#257,5.24999999999938);
#71=CYLINDRICAL_SURFACE('',#269,8.99999999999853);
#72=CYLINDRICAL_SURFACE('',#273,8.79999999999908);
#73=ADVANCED_FACE('',(#98,#99),#91,.T.);
#74=ADVANCED_FACE('',(#100,#101),#69,.T.);
#75=ADVANCED_FACE('',(#102,#103),#92,.T.);
#76=ADVANCED_FACE('',(#104,#105),#70,.T.);
#77=ADVANCED_FACE('',(#106,#107),#93,.T.);
#78=ADVANCED_FACE('',(#108,#109),#68,.F.);
#79=ADVANCED_FACE('',(#110,#111),#94,.F.);
#80=ADVANCED_FACE('',(#112,#113),#65,.F.);
#81=ADVANCED_FACE('',(#114,#115),#95,.T.);
#82=ADVANCED_FACE('',(#116,#117),#71,.T.);
#83=ADVANCED_FACE('',(#118,#119),#96,.T.);
#84=ADVANCED_FACE('',(#120,#121),#72,.T.);
#85=ADVANCED_FACE('',(#59),#56,.T.);
#86=ADVANCED_FACE('',(#60),#66,.F.);
#87=ADVANCED_FACE('',(#61),#97,.T.);
#88=ADVANCED_FACE('',(#62),#57,.T.);
#89=ADVANCED_FACE('',(#63),#67,.T.);
#90=ADVANCED_FACE('',(#64),#58,.T.);
#91=CONICAL_SURFACE('',#251,3.6249999999997,44.9999999999987);
#92=CONICAL_SURFACE('',#255,4.87499999999944,29.9999999999989);
#93=CONICAL_SURFACE('',#259,5.24999999999933,16.7332078527046);
#94=CONICAL_SURFACE('',#263,5.78529142706082,75.000000000001);
#95=CONICAL_SURFACE('',#267,8.49999999999931,44.9999999999565);
#96=CONICAL_SURFACE('',#271,8.9999999999985,45.0000000000005);
#97=CONICAL_SURFACE('',#278,9.99455765439168,10.0000000000013);
#98=FACE_BOUND('',#122,.T.);
#99=FACE_BOUND('',#123,.T.);
#100=FACE_BOUND('',#124,.T.);
#101=FACE_BOUND('',#125,.T.);
#102=FACE_BOUND('',#126,.T.);
#103=FACE_BOUND('',#127,.T.);
#104=FACE_BOUND('',#128,.T.);
#105=FACE_BOUND('',#129,.T.);
#106=FACE_BOUND('',#130,.T.);
#107=FACE_BOUND('',#131,.T.);
#108=FACE_BOUND('',#132,.T.);
#109=FACE_BOUND('',#133,.T.);
#110=FACE_BOUND('',#134,.T.);
#111=FACE_BOUND('',#135,.T.);
#112=FACE_BOUND('',#136,.T.);
#113=FACE_BOUND('',#137,.T.);
#114=FACE_BOUND('',#138,.T.);
#115=FACE_BOUND('',#139,.T.);
#116=FACE_BOUND('',#140,.T.);
#117=FACE_BOUND('',#141,.T.);
#118=FACE_BOUND('',#142,.T.);
#119=FACE_BOUND('',#143,.T.);
#120=FACE_BOUND('',#144,.T.);
#121=FACE_BOUND('',#145,.T.);
#122=EDGE_LOOP('',(#152));
#123=EDGE_LOOP('',(#153));
#124=EDGE_LOOP('',(#154));
#125=EDGE_LOOP('',(#155));
#126=EDGE_LOOP('',(#156));
#127=EDGE_LOOP('',(#157));
#128=EDGE_LOOP('',(#158));
#129=EDGE_LOOP('',(#159));
#130=EDGE_LOOP('',(#160));
#131=EDGE_LOOP('',(#161));
#132=EDGE_LOOP('',(#162));
#133=EDGE_LOOP('',(#163));
#134=EDGE_LOOP('',(#164));
#135=EDGE_LOOP('',(#165));
#136=EDGE_LOOP('',(#166));
#137=EDGE_LOOP('',(#167));
#138=EDGE_LOOP('',(#168));
#139=EDGE_LOOP('',(#169));
#140=EDGE_LOOP('',(#170));
#141=EDGE_LOOP('',(#171));
#142=EDGE_LOOP('',(#172));
#143=EDGE_LOOP('',(#173));
#144=EDGE_LOOP('',(#174));
#145=EDGE_LOOP('',(#175));
#146=EDGE_LOOP('',(#176));
#147=EDGE_LOOP('',(#177));
#148=EDGE_LOOP('',(#178,#179,#180,#181));
#149=EDGE_LOOP('',(#182,#183,#184));
#150=EDGE_LOOP('',(#185,#186,#187));
#151=EDGE_LOOP('',(#188,#189,#190,#191));
#152=ORIENTED_EDGE('',*,*,#210,.F.);
#153=ORIENTED_EDGE('',*,*,#211,.T.);
#154=ORIENTED_EDGE('',*,*,#212,.F.);
#155=ORIENTED_EDGE('',*,*,#210,.T.);
#156=ORIENTED_EDGE('',*,*,#213,.F.);
#157=ORIENTED_EDGE('',*,*,#212,.T.);
#158=ORIENTED_EDGE('',*,*,#214,.F.);
#159=ORIENTED_EDGE('',*,*,#213,.T.);
#160=ORIENTED_EDGE('',*,*,#215,.F.);
#161=ORIENTED_EDGE('',*,*,#214,.T.);
#162=ORIENTED_EDGE('',*,*,#216,.F.);
#163=ORIENTED_EDGE('',*,*,#215,.T.);
#164=ORIENTED_EDGE('',*,*,#217,.F.);
#165=ORIENTED_EDGE('',*,*,#216,.T.);
#166=ORIENTED_EDGE('',*,*,#218,.F.);
#167=ORIENTED_EDGE('',*,*,#217,.T.);
#168=ORIENTED_EDGE('',*,*,#219,.F.);
#169=ORIENTED_EDGE('',*,*,#218,.T.);
#170=ORIENTED_EDGE('',*,*,#220,.F.);
#171=ORIENTED_EDGE('',*,*,#219,.T.);
#172=ORIENTED_EDGE('',*,*,#221,.F.);
#173=ORIENTED_EDGE('',*,*,#220,.T.);
#174=ORIENTED_EDGE('',*,*,#222,.F.);
#175=ORIENTED_EDGE('',*,*,#221,.T.);
#176=ORIENTED_EDGE('',*,*,#222,.T.);
#177=ORIENTED_EDGE('',*,*,#211,.F.);
#178=ORIENTED_EDGE('',*,*,#223,.F.);
#179=ORIENTED_EDGE('',*,*,#224,.F.);
#180=ORIENTED_EDGE('',*,*,#223,.T.);
#181=ORIENTED_EDGE('',*,*,#225,.T.);
#182=ORIENTED_EDGE('',*,*,#226,.F.);
#183=ORIENTED_EDGE('',*,*,#226,.T.);
#184=ORIENTED_EDGE('',*,*,#224,.T.);
#185=ORIENTED_EDGE('',*,*,#227,.F.);
#186=ORIENTED_EDGE('',*,*,#228,.F.);
#187=ORIENTED_EDGE('',*,*,#227,.T.);
#188=ORIENTED_EDGE('',*,*,#229,.F.);
#189=ORIENTED_EDGE('',*,*,#225,.F.);
#190=ORIENTED_EDGE('',*,*,#229,.T.);
#191=ORIENTED_EDGE('',*,*,#228,.T.);
#192=VERTEX_POINT('',#363);
#193=VERTEX_POINT('',#365);
#194=VERTEX_POINT('',#368);
#195=VERTEX_POINT('',#371);
#196=VERTEX_POINT('',#374);
#197=VERTEX_POINT('',#377);
#198=VERTEX_POINT('',#380);
#199=VERTEX_POINT('',#383);
#200=VERTEX_POINT('',#386);
#201=VERTEX_POINT('',#389);
#202=VERTEX_POINT('',#392);
#203=VERTEX_POINT('',#395);
#204=VERTEX_POINT('',#398);
#205=VERTEX_POINT('',#403);
#206=VERTEX_POINT('',#404);
#207=VERTEX_POINT('',#409);
#208=VERTEX_POINT('',#412);
#209=VERTEX_POINT('',#413);
#210=EDGE_CURVE('',#192,#192,#230,.T.);
#211=EDGE_CURVE('',#193,#193,#231,.T.);
#212=EDGE_CURVE('',#194,#194,#232,.T.);
#213=EDGE_CURVE('',#195,#195,#233,.T.);
#214=EDGE_CURVE('',#196,#196,#234,.T.);
#215=EDGE_CURVE('',#197,#197,#235,.T.);
#216=EDGE_CURVE('',#198,#198,#236,.T.);
#217=EDGE_CURVE('',#199,#199,#237,.T.);
#218=EDGE_CURVE('',#200,#200,#238,.T.);
#219=EDGE_CURVE('',#201,#201,#239,.T.);
#220=EDGE_CURVE('',#202,#202,#240,.T.);
#221=EDGE_CURVE('',#203,#203,#241,.T.);
#222=EDGE_CURVE('',#204,#204,#242,.T.);
#223=EDGE_CURVE('',#205,#206,#32,.T.);
#224=EDGE_CURVE('',#205,#205,#243,.T.);
#225=EDGE_CURVE('',#206,#206,#244,.T.);
#226=EDGE_CURVE('',#207,#205,#245,.T.);
#227=EDGE_CURVE('',#208,#209,#33,.T.);
#228=EDGE_CURVE('',#208,#208,#246,.T.);
#229=EDGE_CURVE('',#206,#208,#247,.T.);
#230=CIRCLE('',#249,4.87499999999967);
#231=CIRCLE('',#250,3.6249999999997);
#232=CIRCLE('',#252,4.87499999999944);
#233=CIRCLE('',#254,5.24999999999943);
#234=CIRCLE('',#256,5.24999999999933);
#235=CIRCLE('',#258,5.05540652975602);
#236=CIRCLE('',#260,5.78529142706082);
#237=CIRCLE('',#262,6.53004267621691);
#238=CIRCLE('',#264,8.49999999999931);
#239=CIRCLE('',#266,8.99999999999856);
#240=CIRCLE('',#268,8.9999999999985);
#241=CIRCLE('',#270,8.79999999999924);
#242=CIRCLE('',#272,8.79999999999893);
#243=CIRCLE('',#276,9.99455765439168);
#244=CIRCLE('',#277,9.50463585525211);
#245=CIRCLE('',#279,10.);
#246=CIRCLE('',#281,8.00000000000096);
#247=CIRCLE('',#283,10.);
#248=AXIS2_PLACEMENT_3D('',#361,#285,#286);
#249=AXIS2_PLACEMENT_3D('',#362,#287,#288);
#250=AXIS2_PLACEMENT_3D('',#364,#289,#290);
#251=AXIS2_PLACEMENT_3D('',#366,#291,#292);
#252=AXIS2_PLACEMENT_3D('',#367,#293,#294);
#253=AXIS2_PLACEMENT_3D('',#369,#295,#296);
#254=AXIS2_PLACEMENT_3D('',#370,#297,#298);
#255=AXIS2_PLACEMENT_3D('',#372,#299,#300);
#256=AXIS2_PLACEMENT_3D('',#373,#301,#302);
#257=AXIS2_PLACEMENT_3D('',#375,#303,#304);
#258=AXIS2_PLACEMENT_3D('',#376,#305,#306);
#259=AXIS2_PLACEMENT_3D('',#378,#307,#308);
#260=AXIS2_PLACEMENT_3D('',#379,#309,#310);
#261=AXIS2_PLACEMENT_3D('',#381,#311,#312);
#262=AXIS2_PLACEMENT_3D('',#382,#313,#314);
#263=AXIS2_PLACEMENT_3D('',#384,#315,#316);
#264=AXIS2_PLACEMENT_3D('',#385,#317,#318);
#265=AXIS2_PLACEMENT_3D('',#387,#319,#320);
#266=AXIS2_PLACEMENT_3D('',#388,#321,#322);
#267=AXIS2_PLACEMENT_3D('',#390,#323,#324);
#268=AXIS2_PLACEMENT_3D('',#391,#325,#326);
#269=AXIS2_PLACEMENT_3D('',#393,#327,#328);
#270=AXIS2_PLACEMENT_3D('',#394,#329,#330);
#271=AXIS2_PLACEMENT_3D('',#396,#331,#332);
#272=AXIS2_PLACEMENT_3D('',#397,#333,#334);
#273=AXIS2_PLACEMENT_3D('',#399,#335,#336);
#274=AXIS2_PLACEMENT_3D('',#400,#337,#338);
#275=AXIS2_PLACEMENT_3D('',#401,#339,#340);
#276=AXIS2_PLACEMENT_3D('',#405,#342,#343);
#277=AXIS2_PLACEMENT_3D('',#406,#344,#345);
#278=AXIS2_PLACEMENT_3D('',#407,#346,#347);
#279=AXIS2_PLACEMENT_3D('',#408,#348,#349);
#280=AXIS2_PLACEMENT_3D('',#410,#350,#351);
#281=AXIS2_PLACEMENT_3D('',#414,#353,#354);
#282=AXIS2_PLACEMENT_3D('',#415,#355,#356);
#283=AXIS2_PLACEMENT_3D('',#416,#357,#358);
#284=AXIS2_PLACEMENT_3D('',#417,#359,#360);
#285=DIRECTION('',(0.,0.,1.));
#286=DIRECTION('',(1.,0.,0.));
#287=DIRECTION('',(-1.,1.92767811428532E-14,0.));
#288=DIRECTION('',(-1.99270799291708E-14,-1.,0.));
#289=DIRECTION('',(-1.,1.92767811428532E-14,0.));
#290=DIRECTION('',(-1.91417762866422E-14,-1.,0.));
#291=DIRECTION('',(-1.,1.92767811428532E-14,0.));
#292=DIRECTION('',(-1.92066232557531E-14,-1.,0.));
#293=DIRECTION('',(-1.,1.92767811428532E-14,0.));
#294=DIRECTION('',(-1.99270799291718E-14,-1.,0.));
#295=DIRECTION('',(-1.,1.92767811428532E-14,0.));
#296=DIRECTION('',(-1.92767811428571E-14,-1.,0.));
#297=DIRECTION('',(-1.,1.92767811428532E-14,0.));
#298=DIRECTION('',(-1.98254111540228E-14,-1.,0.));
#299=DIRECTION('',(-1.,1.92767811428532E-14,0.));
#300=DIRECTION('',(-1.93427276382504E-14,-1.,0.));
#301=DIRECTION('',(-1.,1.92767811428532E-14,0.));
#302=DIRECTION('',(-1.91645641155557E-14,-1.,0.));
#303=DIRECTION('',(-1.,1.92767811428532E-14,0.));
#304=DIRECTION('',(-1.92767811428606E-14,-1.,0.));
#305=DIRECTION('',(-1.,1.92767811428532E-14,0.));
#306=DIRECTION('',(-1.92159649442454E-14,-1.,0.));
#307=DIRECTION('',(1.,-1.92767811428532E-14,0.));
#308=DIRECTION('',(1.92585593332205E-14,1.,0.));
#309=DIRECTION('',(-1.,1.92767811428532E-14,0.));
#310=DIRECTION('',(-1.91904424975389E-14,-1.,0.));
#311=DIRECTION('',(-1.,1.92767811428532E-14,0.));
#312=DIRECTION('',(-1.94912750109775E-14,-1.,0.));
#313=DIRECTION('',(-1.,1.92767811428532E-14,0.));
#314=DIRECTION('',(-1.91269944873759E-14,-1.,0.));
#315=DIRECTION('',(1.,-1.92767811428532E-14,0.));
#316=DIRECTION('',(1.92248090514619E-14,1.,0.));
#317=DIRECTION('',(-1.,1.92767811428532E-14,0.));
#318=DIRECTION('',(-1.91840007931568E-14,-1.,0.));
#319=DIRECTION('',(-1.,1.92767811428532E-14,0.));
#320=DIRECTION('',(-1.92762472650543E-14,-1.,0.));
#321=DIRECTION('',(-1.,1.92767811428532E-14,0.));
#322=DIRECTION('',(-1.92747052886343E-14,-1.,0.));
#323=DIRECTION('',(-1.,1.92767811428532E-14,0.));
#324=DIRECTION('',(-1.92376275214217E-14,-1.,0.));
#325=DIRECTION('',(-1.,1.92767811428532E-14,0.));
#326=DIRECTION('',(-1.92747052886344E-14,-1.,0.));
#327=DIRECTION('',(-1.,1.92767811428532E-14,0.));
#328=DIRECTION('',(-1.92767811428551E-14,-1.,0.));
#329=DIRECTION('',(-1.,1.92767811428532E-14,0.));
#330=DIRECTION('',(-1.93185114370161E-14,-1.,0.));
#331=DIRECTION('',(1.,-1.92767811428532E-14,0.));
#332=DIRECTION('',(1.93793885244899E-14,1.,0.));
#333=DIRECTION('',(-1.,1.92767811428532E-14,0.));
#334=DIRECTION('',(-1.93185114370168E-14,-1.,0.));
#335=DIRECTION('',(-1.,1.92767811428532E-14,0.));
#336=DIRECTION('',(-1.9276781142859E-14,-1.,0.));
#337=DIRECTION('',(-1.,1.93380134828105E-14,0.));
#338=DIRECTION('',(1.93185114370144E-14,1.,0.));
#339=DIRECTION('',(-1.,1.92767811428532E-14,0.));
#340=DIRECTION('',(-1.92762472650543E-14,-1.,0.));
#341=DIRECTION('',(0.984807753012207,0.173648177666935,0.));
#342=DIRECTION('',(-1.,1.92767811428532E-14,0.));
#343=DIRECTION('',(-1.92659157605455E-14,-1.,0.));
#344=DIRECTION('',(-1.,1.92767811428532E-14,0.));
#345=DIRECTION('',(-1.93464211837145E-14,-1.,0.));
#346=DIRECTION('',(-1.,1.92767811428532E-14,0.));
#347=DIRECTION('',(-1.92352356730116E-14,-1.,0.));
#348=DIRECTION('',(0.,0.,1.));
#349=DIRECTION('',(1.,0.,0.));
#350=DIRECTION('',(-1.,1.92155488028958E-14,0.));
#351=DIRECTION('',(-1.92554305833426E-14,-1.,0.));
#352=DIRECTION('',(8.67361737988403E-16,1.,0.));
#353=DIRECTION('',(-1.,1.92767811428532E-14,0.));
#354=DIRECTION('',(-1.95156391047367E-14,-1.,0.));
#355=DIRECTION('',(1.,-1.92767811428532E-14,0.));
#356=DIRECTION('',(1.92762472650543E-14,1.,0.));
#357=DIRECTION('',(0.,0.,1.));
#358=DIRECTION('',(1.,0.,0.));
#359=DIRECTION('',(-1.,1.92155488028958E-14,0.));
#360=DIRECTION('',(-1.92554305833426E-14,-1.,0.));
#361=CARTESIAN_POINT('',(0.,0.,0.));
#362=CARTESIAN_POINT('',(48.75,3.2830610635222E-13,0.));
#363=CARTESIAN_POINT('',(48.7499999999999,-4.87499999999934,0.));
#364=CARTESIAN_POINT('',(50.,3.04210129923654E-13,0.));
#365=CARTESIAN_POINT('',(49.9999999999999,-3.6249999999994,0.));
#366=CARTESIAN_POINT('',(50.,3.04210129923654E-13,0.));
#367=CARTESIAN_POINT('',(36.6495190528382,5.6156442929392E-13,0.));
#368=CARTESIAN_POINT('',(36.6495190528382,-4.87499999999888,0.));
#369=CARTESIAN_POINT('',(-1.56468573483885E-9,1.26804918709647E-12,0.));
#370=CARTESIAN_POINT('',(36.,5.74085065923598E-13,0.));
#371=CARTESIAN_POINT('',(35.9999999999999,-5.24999999999886,0.));
#372=CARTESIAN_POINT('',(36.6495190528382,5.6156442929392E-13,0.));
#373=CARTESIAN_POINT('',(31.2,6.66613615409293E-13,0.));
#374=CARTESIAN_POINT('',(31.1999999999999,-5.24999999999866,0.));
#375=CARTESIAN_POINT('',(-1.56468573483885E-9,1.26804918709647E-12,0.));
#376=CARTESIAN_POINT('',(30.5527493674482,6.79090524197567E-13,0.));
#377=CARTESIAN_POINT('',(30.5527493674481,-5.05540652975534,0.));
#378=CARTESIAN_POINT('',(31.2,6.66613615409293E-13,0.));
#379=CARTESIAN_POINT('',(29.8004445042264,6.93592540398595E-13,0.));
#380=CARTESIAN_POINT('',(29.8004445042263,-5.78529142706013,0.));
#381=CARTESIAN_POINT('',(30.38,6.82613687796874E-13,0.));
#382=CARTESIAN_POINT('',(30.,6.89745752780717E-13,0.));
#383=CARTESIAN_POINT('',(29.9999999999999,-6.53004267621622,0.));
#384=CARTESIAN_POINT('',(29.8004445042264,6.93592540398595E-13,0.));
#385=CARTESIAN_POINT('',(30.,6.89745752780718E-13,0.));
#386=CARTESIAN_POINT('',(29.9999999999998,-8.49999999999862,0.));
#387=CARTESIAN_POINT('',(30.,6.5300426762176,0.));
#388=CARTESIAN_POINT('',(29.5,6.99384143352145E-13,0.));
#389=CARTESIAN_POINT('',(29.4999999999998,-8.99999999999786,0.));
#390=CARTESIAN_POINT('',(30.,6.89745752780718E-13,0.));
#391=CARTESIAN_POINT('',(26.1999999999991,7.62997521123575E-13,0.));
#392=CARTESIAN_POINT('',(26.1999999999989,-8.99999999999774,0.));
#393=CARTESIAN_POINT('',(-1.56468573483885E-9,1.26804918709647E-12,0.));
#394=CARTESIAN_POINT('',(26.,7.66852877352131E-13,0.));
#395=CARTESIAN_POINT('',(25.9999999999998,-8.79999999999847,0.));
#396=CARTESIAN_POINT('',(26.1999999999991,7.62997521123575E-13,0.));
#397=CARTESIAN_POINT('',(9.99999999999983,1.07528137563778E-12,0.));
#398=CARTESIAN_POINT('',(9.99999999999966,-8.79999999999785,0.));
#399=CARTESIAN_POINT('',(-1.56468573483885E-9,1.26804918709647E-12,0.));
#400=CARTESIAN_POINT('',(10.,0.,0.));
#401=CARTESIAN_POINT('',(50.,3.625,0.));
#402=CARTESIAN_POINT('',(10.3298746626555,-9.99455765439061,0.));
#403=CARTESIAN_POINT('',(10.3298746626555,-9.99455765439061,0.));
#404=CARTESIAN_POINT('',(13.1083592551498,-9.50463585525109,0.));
#405=CARTESIAN_POINT('',(10.3298746626557,1.06892245396119E-12,0.));
#406=CARTESIAN_POINT('',(13.10835925515,1.01536221456289E-12,0.));
#407=CARTESIAN_POINT('',(10.3298746626557,1.06892245396119E-12,0.));
#408=CARTESIAN_POINT('',(10.,0.,0.));
#409=CARTESIAN_POINT('',(0.,0.,0.));
#410=CARTESIAN_POINT('',(10.,0.,0.));
#411=CARTESIAN_POINT('',(16.,0.,0.));
#412=CARTESIAN_POINT('',(16.,-8.,0.));
#413=CARTESIAN_POINT('',(16.,0.,0.));
#414=CARTESIAN_POINT('',(16.,9.59620688780656E-13,0.));
#415=CARTESIAN_POINT('',(16.,-1.41949739533828E-27,0.));
#416=CARTESIAN_POINT('',(10.,0.,0.));
#417=CARTESIAN_POINT('',(10.,0.,0.));
#418=MECHANICAL_DESIGN_GEOMETRIC_PRESENTATION_REPRESENTATION('',(#37,#38),
#419);
#419=(
GEOMETRIC_REPRESENTATION_CONTEXT(3)
GLOBAL_UNCERTAINTY_ASSIGNED_CONTEXT((#420))
GLOBAL_UNIT_ASSIGNED_CONTEXT((#426,#422,#421))
REPRESENTATION_CONTEXT('APMR-P3220-D20-M10-L30',
'TOP_LEVEL_ASSEMBLY_PART')
);
#420=UNCERTAINTY_MEASURE_WITH_UNIT(LENGTH_MEASURE(2.E-5),#426,
'DISTANCE_ACCURACY_VALUE','Maximum Tolerance applied to model');
#421=(
NAMED_UNIT(*)
SI_UNIT($,.STERADIAN.)
SOLID_ANGLE_UNIT()
);
#422=(
CONVERSION_BASED_UNIT('DEGREE',#424)
NAMED_UNIT(#423)
PLANE_ANGLE_UNIT()
);
#423=DIMENSIONAL_EXPONENTS(0.,0.,0.,0.,0.,0.,0.);
#424=PLANE_ANGLE_MEASURE_WITH_UNIT(PLANE_ANGLE_MEASURE(0.0174532925),#425);
#425=(
NAMED_UNIT(*)
PLANE_ANGLE_UNIT()
SI_UNIT($,.RADIAN.)
);
#426=(
LENGTH_UNIT()
NAMED_UNIT(*)
SI_UNIT(.MILLI.,.METRE.)
);
ENDSEC;
END-ISO-10303-21;
