ISO-10303-21;
HEADER;
/* Generated by software containing ST-Developer
 * from STEP Tools, Inc. (www.steptools.com) 
 */
/* OPTION: using custom schema-name function */

FILE_DESCRIPTION(
/* description */ (''),
/* implementation_level */ '2;1');

FILE_NAME(
/* name */ 'APMR-P3225-D25-C25-L200.stp',
/* time_stamp */ '2023-10-02T12:07:17+03:00',
/* author */ (''),
/* organization */ (''),
/* preprocessor_version */ 'ST-DEVELOPER v19.4',
/* originating_system */ 'SIEMENS PLM Software NX2306.5001',
/* authorisation */ '');

FILE_SCHEMA (('AUTOMOTIVE_DESIGN { 1 0 10303 214 3 1 1 1 }'));
ENDSEC;

DATA;
#10=PROPERTY_DEFINITION_REPRESENTATION(#14,#12);
#11=PROPERTY_DEFINITION_REPRESENTATION(#15,#13);
#12=REPRESENTATION('',(#16),#318);
#13=REPRESENTATION('',(#17),#318);
#14=PROPERTY_DEFINITION('pmi validation property','',#21);
#15=PROPERTY_DEFINITION('pmi validation property','',#21);
#16=VALUE_REPRESENTATION_ITEM('number of annotations',COUNT_MEASURE(0.));
#17=VALUE_REPRESENTATION_ITEM('number of views',COUNT_MEASURE(0.));
#18=SHAPE_REPRESENTATION_RELATIONSHIP('None',
'relationship between APMR-P3225-D25-C25-L200-LIGHT_x_t_objects-None a
nd APMR-P3225-D25-C25-L200-LIGHT_x_t_objects-None',#30,#19);
#19=ADVANCED_BREP_SHAPE_REPRESENTATION(
'APMR-P3225-D25-C25-L200-LIGHT_x_t_objects-None',(#59,#60),#318);
#20=SHAPE_DEFINITION_REPRESENTATION(#21,#30);
#21=PRODUCT_DEFINITION_SHAPE('','',#22);
#22=PRODUCT_DEFINITION(' ','',#24,#23);
#23=PRODUCT_DEFINITION_CONTEXT('part definition',#29,'design');
#24=PRODUCT_DEFINITION_FORMATION_WITH_SPECIFIED_SOURCE(' ',' ',#26,
 .NOT_KNOWN.);
#25=PRODUCT_RELATED_PRODUCT_CATEGORY('part','',(#26));
#26=PRODUCT('APMR-P3225-D25-C25-L200-LIGHT_x_t_objects',
'APMR-P3225-D25-C25-L200-LIGHT_x_t_objects',' ',(#27));
#27=PRODUCT_CONTEXT(' ',#29,'mechanical');
#28=APPLICATION_PROTOCOL_DEFINITION('international standard',
'automotive_design',2010,#29);
#29=APPLICATION_CONTEXT(
'core data for automotive mechanical design processes');
#30=SHAPE_REPRESENTATION(
'APMR-P3225-D25-C25-L200-LIGHT_x_t_objects-None',(#187),#318);
#31=DRAUGHTING_PRE_DEFINED_COLOUR('yellow');
#32=(
BOUNDED_CURVE()
B_SPLINE_CURVE(3,(#311,#312,#313,#314),.UNSPECIFIED.,.F.,.F.)
B_SPLINE_CURVE_WITH_KNOTS((4,4),(0.,1.),.UNSPECIFIED.)
CURVE()
GEOMETRIC_REPRESENTATION_ITEM()
RATIONAL_B_SPLINE_CURVE((1.,0.97800547494557,0.97800547494557,1.))
REPRESENTATION_ITEM('')
);
#33=LINE('',#307,#34);
#34=VECTOR('',#250,3.1783086158812);
#35=SURFACE_OF_REVOLUTION('',#41,#38);
#36=SURFACE_OF_REVOLUTION('',#33,#39);
#37=SURFACE_OF_REVOLUTION('',#32,#40);
#38=AXIS1_PLACEMENT('',#304,#247);
#39=AXIS1_PLACEMENT('',#308,#251);
#40=AXIS1_PLACEMENT('',#315,#254);
#41=B_SPLINE_CURVE_WITH_KNOTS('',3,(#286,#287,#288,#289,#290,#291,#292,
#293,#294,#295,#296,#297,#298,#299,#300,#301,#302,#303),.UNSPECIFIED.,.F.,
 .F.,(4,2,2,2,2,2,2,2,4),(0.,0.124999999999999,0.249999999999998,0.374999999999998,
0.499999999999997,0.624999999999996,0.749999999999996,0.875000000000001,
1.),.UNSPECIFIED.);
#42=VERTEX_LOOP('',#161);
#43=PRESENTATION_LAYER_ASSIGNMENT('1','Layer 1',(#59,#60));
#44=STYLED_ITEM('',(#46),#59);
#45=STYLED_ITEM('',(#47),#60);
#46=PRESENTATION_STYLE_ASSIGNMENT((#48));
#47=PRESENTATION_STYLE_ASSIGNMENT((#49));
#48=SURFACE_STYLE_USAGE(.BOTH.,#50);
#49=SURFACE_STYLE_USAGE(.BOTH.,#51);
#50=SURFACE_SIDE_STYLE('',(#52));
#51=SURFACE_SIDE_STYLE('',(#53));
#52=SURFACE_STYLE_FILL_AREA(#54);
#53=SURFACE_STYLE_FILL_AREA(#55);
#54=FILL_AREA_STYLE('',(#56));
#55=FILL_AREA_STYLE('',(#57));
#56=FILL_AREA_STYLE_COLOUR('',#58);
#57=FILL_AREA_STYLE_COLOUR('',#31);
#58=COLOUR_RGB('silver gray',0.6,0.6,0.6);
#59=MANIFOLD_SOLID_BREP('',#61);
#60=MANIFOLD_SOLID_BREP('',#62);
#61=CLOSED_SHELL('',(#92,#93,#94,#95,#96,#97,#98,#99,#100));
#62=CLOSED_SHELL('',(#101,#102,#103,#104));
#63=CONICAL_SURFACE('',#197,12.2499999999998,9.99999999999998);
#64=CONICAL_SURFACE('',#201,12.4999999999997,44.9999999999984);
#65=CONICAL_SURFACE('',#203,12.2499999999997,0.716159945470459);
#66=CYLINDRICAL_SURFACE('',#195,12.2499999999998);
#67=CYLINDRICAL_SURFACE('',#199,12.4999999999998);
#68=CYLINDRICAL_SURFACE('',#204,11.4999999999997);
#69=TOROIDAL_SURFACE('',#193,10.7499999999998,1.5);
#70=FACE_BOUND('',#111,.T.);
#71=FACE_BOUND('',#112,.T.);
#72=FACE_BOUND('',#113,.T.);
#73=FACE_BOUND('',#114,.T.);
#74=FACE_BOUND('',#115,.T.);
#75=FACE_BOUND('',#116,.T.);
#76=FACE_BOUND('',#117,.T.);
#77=FACE_BOUND('',#118,.T.);
#78=FACE_BOUND('',#119,.T.);
#79=FACE_BOUND('',#120,.T.);
#80=FACE_BOUND('',#121,.T.);
#81=FACE_BOUND('',#122,.T.);
#82=FACE_BOUND('',#123,.T.);
#83=FACE_BOUND('',#124,.T.);
#84=FACE_BOUND('',#42,.T.);
#85=FACE_BOUND('',#125,.T.);
#86=FACE_BOUND('',#126,.T.);
#87=FACE_BOUND('',#127,.T.);
#88=FACE_BOUND('',#128,.T.);
#89=FACE_BOUND('',#129,.T.);
#90=PLANE('',#191);
#91=PLANE('',#208);
#92=ADVANCED_FACE('',(#106),#105,.T.);
#93=ADVANCED_FACE('',(#107),#90,.F.);
#94=ADVANCED_FACE('',(#70,#71),#69,.T.);
#95=ADVANCED_FACE('',(#72,#73),#66,.T.);
#96=ADVANCED_FACE('',(#74,#75),#63,.T.);
#97=ADVANCED_FACE('',(#76,#77),#67,.T.);
#98=ADVANCED_FACE('',(#78,#79),#64,.T.);
#99=ADVANCED_FACE('',(#80,#81),#65,.T.);
#100=ADVANCED_FACE('',(#82,#83),#68,.T.);
#101=ADVANCED_FACE('',(#84,#85),#35,.T.);
#102=ADVANCED_FACE('',(#86,#87),#36,.T.);
#103=ADVANCED_FACE('',(#88,#89),#37,.T.);
#104=ADVANCED_FACE('',(#108),#91,.F.);
#105=SPHERICAL_SURFACE('',#189,11.5);
#106=FACE_OUTER_BOUND('',#109,.T.);
#107=FACE_OUTER_BOUND('',#110,.T.);
#108=FACE_OUTER_BOUND('',#130,.T.);
#109=EDGE_LOOP('',(#131));
#110=EDGE_LOOP('',(#132));
#111=EDGE_LOOP('',(#133));
#112=EDGE_LOOP('',(#134));
#113=EDGE_LOOP('',(#135));
#114=EDGE_LOOP('',(#136));
#115=EDGE_LOOP('',(#137));
#116=EDGE_LOOP('',(#138));
#117=EDGE_LOOP('',(#139));
#118=EDGE_LOOP('',(#140));
#119=EDGE_LOOP('',(#141));
#120=EDGE_LOOP('',(#142));
#121=EDGE_LOOP('',(#143));
#122=EDGE_LOOP('',(#144));
#123=EDGE_LOOP('',(#145));
#124=EDGE_LOOP('',(#146));
#125=EDGE_LOOP('',(#147));
#126=EDGE_LOOP('',(#148));
#127=EDGE_LOOP('',(#149));
#128=EDGE_LOOP('',(#150));
#129=EDGE_LOOP('',(#151));
#130=EDGE_LOOP('',(#152));
#131=ORIENTED_EDGE('',*,*,#165,.T.);
#132=ORIENTED_EDGE('',*,*,#166,.F.);
#133=ORIENTED_EDGE('',*,*,#167,.F.);
#134=ORIENTED_EDGE('',*,*,#166,.T.);
#135=ORIENTED_EDGE('',*,*,#168,.F.);
#136=ORIENTED_EDGE('',*,*,#167,.T.);
#137=ORIENTED_EDGE('',*,*,#169,.F.);
#138=ORIENTED_EDGE('',*,*,#168,.T.);
#139=ORIENTED_EDGE('',*,*,#170,.F.);
#140=ORIENTED_EDGE('',*,*,#169,.T.);
#141=ORIENTED_EDGE('',*,*,#171,.F.);
#142=ORIENTED_EDGE('',*,*,#170,.T.);
#143=ORIENTED_EDGE('',*,*,#172,.F.);
#144=ORIENTED_EDGE('',*,*,#171,.T.);
#145=ORIENTED_EDGE('',*,*,#165,.F.);
#146=ORIENTED_EDGE('',*,*,#172,.T.);
#147=ORIENTED_EDGE('',*,*,#173,.T.);
#148=ORIENTED_EDGE('',*,*,#173,.F.);
#149=ORIENTED_EDGE('',*,*,#174,.T.);
#150=ORIENTED_EDGE('',*,*,#174,.F.);
#151=ORIENTED_EDGE('',*,*,#175,.T.);
#152=ORIENTED_EDGE('',*,*,#175,.F.);
#153=VERTEX_POINT('',#259);
#154=VERTEX_POINT('',#262);
#155=VERTEX_POINT('',#265);
#156=VERTEX_POINT('',#268);
#157=VERTEX_POINT('',#271);
#158=VERTEX_POINT('',#274);
#159=VERTEX_POINT('',#277);
#160=VERTEX_POINT('',#280);
#161=VERTEX_POINT('',#283);
#162=VERTEX_POINT('',#285);
#163=VERTEX_POINT('',#306);
#164=VERTEX_POINT('',#310);
#165=EDGE_CURVE('',#153,#153,#176,.T.);
#166=EDGE_CURVE('',#154,#154,#177,.T.);
#167=EDGE_CURVE('',#155,#155,#178,.T.);
#168=EDGE_CURVE('',#156,#156,#179,.T.);
#169=EDGE_CURVE('',#157,#157,#180,.T.);
#170=EDGE_CURVE('',#158,#158,#181,.T.);
#171=EDGE_CURVE('',#159,#159,#182,.T.);
#172=EDGE_CURVE('',#160,#160,#183,.T.);
#173=EDGE_CURVE('',#162,#162,#184,.T.);
#174=EDGE_CURVE('',#163,#163,#185,.T.);
#175=EDGE_CURVE('',#164,#164,#186,.T.);
#176=CIRCLE('',#188,11.4999999999996);
#177=CIRCLE('',#190,10.7499999999998);
#178=CIRCLE('',#192,12.2499999999998);
#179=CIRCLE('',#194,12.2499999999998);
#180=CIRCLE('',#196,12.4999999999998);
#181=CIRCLE('',#198,12.4999999999997);
#182=CIRCLE('',#200,12.2499999999997);
#183=CIRCLE('',#202,11.4999999999997);
#184=CIRCLE('',#205,12.5792387155987);
#185=CIRCLE('',#206,11.9933887163972);
#186=CIRCLE('',#207,8.56173743362454);
#187=AXIS2_PLACEMENT_3D('',#257,#209,#210);
#188=AXIS2_PLACEMENT_3D('',#258,#211,#212);
#189=AXIS2_PLACEMENT_3D('',#260,#213,#214);
#190=AXIS2_PLACEMENT_3D('',#261,#215,#216);
#191=AXIS2_PLACEMENT_3D('',#263,#217,#218);
#192=AXIS2_PLACEMENT_3D('',#264,#219,#220);
#193=AXIS2_PLACEMENT_3D('',#266,#221,#222);
#194=AXIS2_PLACEMENT_3D('',#267,#223,#224);
#195=AXIS2_PLACEMENT_3D('',#269,#225,#226);
#196=AXIS2_PLACEMENT_3D('',#270,#227,#228);
#197=AXIS2_PLACEMENT_3D('',#272,#229,#230);
#198=AXIS2_PLACEMENT_3D('',#273,#231,#232);
#199=AXIS2_PLACEMENT_3D('',#275,#233,#234);
#200=AXIS2_PLACEMENT_3D('',#276,#235,#236);
#201=AXIS2_PLACEMENT_3D('',#278,#237,#238);
#202=AXIS2_PLACEMENT_3D('',#279,#239,#240);
#203=AXIS2_PLACEMENT_3D('',#281,#241,#242);
#204=AXIS2_PLACEMENT_3D('',#282,#243,#244);
#205=AXIS2_PLACEMENT_3D('',#284,#245,#246);
#206=AXIS2_PLACEMENT_3D('',#305,#248,#249);
#207=AXIS2_PLACEMENT_3D('',#309,#252,#253);
#208=AXIS2_PLACEMENT_3D('',#316,#255,#256);
#209=DIRECTION('',(0.,0.,1.));
#210=DIRECTION('',(1.,0.,0.));
#211=DIRECTION('',(-1.,8.47892350327466E-16,0.));
#212=DIRECTION('',(-9.05073117900971E-16,-1.,0.));
#213=DIRECTION('',(-1.,9.09124690284834E-16,0.));
#214=DIRECTION('',(9.05073117900943E-16,1.,0.));
#215=DIRECTION('',(-1.,8.47892350327466E-16,0.));
#216=DIRECTION('',(0.,-1.,0.));
#217=DIRECTION('',(-1.,8.47892350327466E-16,0.));
#218=DIRECTION('',(-8.60422844084496E-16,-1.,0.));
#219=DIRECTION('',(-1.,8.47892350327466E-16,0.));
#220=DIRECTION('',(0.,-1.,0.));
#221=DIRECTION('',(-1.,8.47892350327466E-16,0.));
#222=DIRECTION('',(0.,-1.,0.));
#223=DIRECTION('',(-1.,8.47892350327466E-16,0.));
#224=DIRECTION('',(0.,-1.,0.));
#225=DIRECTION('',(-1.,8.47892350327466E-16,0.));
#226=DIRECTION('',(-8.47892350327466E-16,-1.,0.));
#227=DIRECTION('',(-1.,8.47892350327466E-16,0.));
#228=DIRECTION('',(0.,-1.,0.));
#229=DIRECTION('',(-1.,8.47892350327466E-16,0.));
#230=DIRECTION('',(-8.83105949984586E-16,-1.,0.));
#231=DIRECTION('',(-1.,8.47892350327466E-16,0.));
#232=DIRECTION('',(-1.11022302462518E-15,-1.,0.));
#233=DIRECTION('',(-1.,8.47892350327466E-16,0.));
#234=DIRECTION('',(-8.47892350327466E-16,-1.,0.));
#235=DIRECTION('',(-1.,8.47892350327466E-16,0.));
#236=DIRECTION('',(-1.13288063737263E-15,-1.,0.));
#237=DIRECTION('',(1.,-8.47892350327466E-16,0.));
#238=DIRECTION('',(8.22387425648309E-16,1.,0.));
#239=DIRECTION('',(-1.,8.47892350327466E-16,0.));
#240=DIRECTION('',(-6.03382078600645E-16,-1.,0.));
#241=DIRECTION('',(1.,-8.47892350327466E-16,0.));
#242=DIRECTION('',(3.36431219583373E-15,1.,0.));
#243=DIRECTION('',(-1.,8.47892350327466E-16,0.));
#244=DIRECTION('',(-8.47892350327466E-16,-1.,0.));
#245=DIRECTION('',(-1.,0.,0.));
#246=DIRECTION('',(0.,0.,1.));
#247=DIRECTION('',(-1.,0.,0.));
#248=DIRECTION('',(-1.,0.,0.));
#249=DIRECTION('',(0.,0.,1.));
#250=DIRECTION('',(-0.977878872211502,-0.172426429035658,0.118414685965769));
#251=DIRECTION('',(-1.,0.,0.));
#252=DIRECTION('',(-1.,0.,0.));
#253=DIRECTION('',(0.,0.,1.));
#254=DIRECTION('',(-1.,0.,0.));
#255=DIRECTION('',(-1.,0.,0.));
#256=DIRECTION('',(0.,0.,1.));
#257=CARTESIAN_POINT('',(0.,0.,0.));
#258=CARTESIAN_POINT('',(12.5,3.47341615670339E-13,0.));
#259=CARTESIAN_POINT('',(12.5,-11.4999999999993,0.));
#260=CARTESIAN_POINT('',(12.5,0.,0.));
#261=CARTESIAN_POINT('',(200.,1.88361799983939E-13,0.));
#262=CARTESIAN_POINT('',(200.,-10.7499999999996,0.));
#263=CARTESIAN_POINT('',(200.,10.75,0.));
#264=CARTESIAN_POINT('',(198.5,1.8963363850943E-13,0.));
#265=CARTESIAN_POINT('',(198.5,-12.2499999999996,0.));
#266=CARTESIAN_POINT('',(198.5,1.89084858881472E-13,0.));
#267=CARTESIAN_POINT('',(196.,1.91753369385249E-13,0.));
#268=CARTESIAN_POINT('',(196.,-12.2499999999996,0.));
#269=CARTESIAN_POINT('',(-2.28305079960214E-14,3.57940270049432E-13,0.));
#270=CARTESIAN_POINT('',(194.582179545096,1.929555285031E-13,0.));
#271=CARTESIAN_POINT('',(194.582179545096,-12.4999999999996,0.));
#272=CARTESIAN_POINT('',(196.,1.91753369385249E-13,0.));
#273=CARTESIAN_POINT('',(100.25,2.72939061929104E-13,0.));
#274=CARTESIAN_POINT('',(100.25,-12.4999999999994,0.));
#275=CARTESIAN_POINT('',(-2.28305079960214E-14,3.57940270049432E-13,0.));
#276=CARTESIAN_POINT('',(100.,2.73151035016686E-13,0.));
#277=CARTESIAN_POINT('',(100.,-12.2499999999994,0.));
#278=CARTESIAN_POINT('',(100.25,2.72939061929104E-13,0.));
#279=CARTESIAN_POINT('',(40.,3.24024576036334E-13,0.));
#280=CARTESIAN_POINT('',(40.,-11.4999999999994,0.));
#281=CARTESIAN_POINT('',(100.,2.73151035016686E-13,0.));
#282=CARTESIAN_POINT('',(-2.28305079960214E-14,3.57940270049432E-13,0.));
#283=CARTESIAN_POINT('',(-1.57968256531112E-13,1.81828061431615E-13,9.72469122537647E-13));
#284=CARTESIAN_POINT('',(13.099236980651,3.47341615670339E-13,0.));
#285=CARTESIAN_POINT('',(13.099236980651,3.47341615670339E-13,12.5792387155987));
#286=CARTESIAN_POINT('',(13.0992369806511,-12.4856283398562,1.53177401172359));
#287=CARTESIAN_POINT('',(12.2570925945573,-12.5260463344905,1.61097626581443));
#288=CARTESIAN_POINT('',(11.4108944024746,-12.4809722405386,1.67250201031791));
#289=CARTESIAN_POINT('',(9.74474835176972,-12.2216777664345,1.7577040031958));
#290=CARTESIAN_POINT('',(8.92485980773937,-12.0074639985848,1.78137666655319));
#291=CARTESIAN_POINT('',(7.34481563848913,-11.4186204626694,1.78990200872466));
#292=CARTESIAN_POINT('',(6.58470406721462,-11.0440071124215,1.77475444984041));
#293=CARTESIAN_POINT('',(5.15523338629343,-10.1496414942513,1.70625527602588));
#294=CARTESIAN_POINT('',(4.48591413238879,-9.62991416255574,1.65290557095302));
#295=CARTESIAN_POINT('',(3.26534459516672,-8.46651986507174,1.51017689909245));
#296=CARTESIAN_POINT('',(2.71412834314199,-7.8228853364436,1.42080191179541));
#297=CARTESIAN_POINT('',(1.75226367087183,-6.43793312105913,1.20966759605989));
#298=CARTESIAN_POINT('',(1.34164206886739,-5.69665404886148,1.08791415436652));
#299=CARTESIAN_POINT('',(0.677729873884761,-4.14665505399827,0.816989250502284));
#300=CARTESIAN_POINT('',(0.424457791801223,-3.33797834769477,0.667825342134399));
#301=CARTESIAN_POINT('',(0.0855881307487974,-1.6861782267367,0.348164581541086));
#302=CARTESIAN_POINT('',(-3.05029562585714E-12,-0.843113492722797,0.177679302754507));
#303=CARTESIAN_POINT('',(-1.57968256531112E-13,1.81828061431615E-13,9.72469122537647E-13));
#304=CARTESIAN_POINT('',(12.5,3.47341615670339E-13,0.));
#305=CARTESIAN_POINT('',(16.207237825489,3.47341615670339E-13,0.));
#306=CARTESIAN_POINT('',(16.207237825489,3.47341615670339E-13,11.9933887163972));
#307=CARTESIAN_POINT('',(16.207237825489,-11.9376039348466,1.15541559507072));
#308=CARTESIAN_POINT('',(12.5,3.47341615670339E-13,0.));
#309=CARTESIAN_POINT('',(21.6075099990747,3.47341615670339E-13,0.));
#310=CARTESIAN_POINT('',(21.6075099990747,3.47341615670339E-13,8.56173743362454));
#311=CARTESIAN_POINT('',(21.6075099990747,-8.56173239576866,-0.0092879258842605));
#312=CARTESIAN_POINT('',(20.12076969573,-10.1432466913371,0.44879129464506));
#313=CARTESIAN_POINT('',(18.2801964365376,-11.2938440467236,0.845756870943702));
#314=CARTESIAN_POINT('',(16.207237825489,-11.9376039348465,1.15541559507073));
#315=CARTESIAN_POINT('',(12.5,3.47341615670339E-13,0.));
#316=CARTESIAN_POINT('',(21.6075099990747,-0.365949529749972,-1.73648242311793));
#317=MECHANICAL_DESIGN_GEOMETRIC_PRESENTATION_REPRESENTATION('',(#44,#45),
#318);
#318=(
GEOMETRIC_REPRESENTATION_CONTEXT(3)
GLOBAL_UNCERTAINTY_ASSIGNED_CONTEXT((#319))
GLOBAL_UNIT_ASSIGNED_CONTEXT((#325,#321,#320))
REPRESENTATION_CONTEXT('APMR-P3225-D25-C25-L200',
'TOP_LEVEL_ASSEMBLY_PART')
);
#319=UNCERTAINTY_MEASURE_WITH_UNIT(LENGTH_MEASURE(0.0508),#325,
'DISTANCE_ACCURACY_VALUE','Maximum Tolerance applied to model');
#320=(
NAMED_UNIT(*)
SI_UNIT($,.STERADIAN.)
SOLID_ANGLE_UNIT()
);
#321=(
CONVERSION_BASED_UNIT('DEGREE',#323)
NAMED_UNIT(#322)
PLANE_ANGLE_UNIT()
);
#322=DIMENSIONAL_EXPONENTS(0.,0.,0.,0.,0.,0.,0.);
#323=PLANE_ANGLE_MEASURE_WITH_UNIT(PLANE_ANGLE_MEASURE(0.0174532925),#324);
#324=(
NAMED_UNIT(*)
PLANE_ANGLE_UNIT()
SI_UNIT($,.RADIAN.)
);
#325=(
LENGTH_UNIT()
NAMED_UNIT(*)
SI_UNIT(.MILLI.,.METRE.)
);
ENDSEC;
END-ISO-10303-21;
