ISO-10303-21;
HEADER;
/* Generated by software containing ST-Developer
 * from STEP Tools, Inc. (www.steptools.com) 
 */
/* OPTION: using custom schema-name function */

FILE_DESCRIPTION(
/* description */ (''),
/* implementation_level */ '2;1');

FILE_NAME(
/* name */ 'APMR-P3225-D25-M12-L35.stp',
/* time_stamp */ '2023-09-29T19:40:56+03:00',
/* author */ (''),
/* organization */ (''),
/* preprocessor_version */ 'ST-DEVELOPER v19.4',
/* originating_system */ 'SIEMENS PLM Software NX2306.5001',
/* authorisation */ '');

FILE_SCHEMA (('AUTOMOTIVE_DESIGN { 1 0 10303 214 3 1 1 1 }'));
ENDSEC;

DATA;
#10=PROPERTY_DEFINITION_REPRESENTATION(#14,#12);
#11=PROPERTY_DEFINITION_REPRESENTATION(#15,#13);
#12=REPRESENTATION('',(#16),#519);
#13=REPRESENTATION('',(#17),#519);
#14=PROPERTY_DEFINITION('pmi validation property','',#21);
#15=PROPERTY_DEFINITION('pmi validation property','',#21);
#16=VALUE_REPRESENTATION_ITEM('number of annotations',COUNT_MEASURE(0.));
#17=VALUE_REPRESENTATION_ITEM('number of views',COUNT_MEASURE(0.));
#18=SHAPE_REPRESENTATION_RELATIONSHIP('None',
'relationship between APMR-P3225-D25-M12-L35-LIGHT_x_t_objects-None an
d APMR-P3225-D25-M12-L35-LIGHT_x_t_objects-None',#30,#19);
#19=ADVANCED_BREP_SHAPE_REPRESENTATION(
'APMR-P3225-D25-M12-L35-LIGHT_x_t_objects-None',(#91,#92),#519);
#20=SHAPE_DEFINITION_REPRESENTATION(#21,#30);
#21=PRODUCT_DEFINITION_SHAPE('','',#22);
#22=PRODUCT_DEFINITION(' ','',#24,#23);
#23=PRODUCT_DEFINITION_CONTEXT('part definition',#29,'design');
#24=PRODUCT_DEFINITION_FORMATION_WITH_SPECIFIED_SOURCE(' ',' ',#26,
 .NOT_KNOWN.);
#25=PRODUCT_RELATED_PRODUCT_CATEGORY('part','',(#26));
#26=PRODUCT('APMR-P3225-D25-M12-L35-LIGHT_x_t_objects',
'APMR-P3225-D25-M12-L35-LIGHT_x_t_objects',' ',(#27));
#27=PRODUCT_CONTEXT(' ',#29,'mechanical');
#28=APPLICATION_PROTOCOL_DEFINITION('international standard',
'automotive_design',2010,#29);
#29=APPLICATION_CONTEXT(
'core data for automotive mechanical design processes');
#30=SHAPE_REPRESENTATION(
'APMR-P3225-D25-M12-L35-LIGHT_x_t_objects-None',(#303),#519);
#31=COLOUR_RGB('silver gray',0.6,0.6,0.6);
#32=TOROIDAL_SURFACE('',#330,6.44999999999967,0.4);
#33=TOROIDAL_SURFACE('',#344,15.2499999999994,5.);
#34=TOROIDAL_SURFACE('',#348,6.49999999999966,5.);
#35=CYLINDRICAL_SURFACE('',#320,5.87499999999953);
#36=CYLINDRICAL_SURFACE('',#324,6.24999999999968);
#37=CYLINDRICAL_SURFACE('',#328,6.04999999999967);
#38=CYLINDRICAL_SURFACE('',#338,10.4999999999933);
#39=CYLINDRICAL_SURFACE('',#342,10.2499999999993);
#40=CYLINDRICAL_SURFACE('',#349,11.4999999999997);
#41=FACE_BOUND('',#144,.T.);
#42=FACE_BOUND('',#145,.T.);
#43=FACE_BOUND('',#146,.T.);
#44=FACE_BOUND('',#147,.T.);
#45=FACE_BOUND('',#148,.T.);
#46=FACE_BOUND('',#149,.T.);
#47=FACE_BOUND('',#150,.T.);
#48=FACE_BOUND('',#151,.T.);
#49=FACE_BOUND('',#152,.T.);
#50=FACE_BOUND('',#153,.T.);
#51=FACE_BOUND('',#154,.T.);
#52=FACE_BOUND('',#155,.T.);
#53=FACE_BOUND('',#156,.T.);
#54=FACE_BOUND('',#157,.T.);
#55=FACE_BOUND('',#158,.T.);
#56=FACE_BOUND('',#159,.T.);
#57=FACE_BOUND('',#160,.T.);
#58=FACE_BOUND('',#161,.T.);
#59=FACE_BOUND('',#162,.T.);
#60=FACE_BOUND('',#163,.T.);
#61=FACE_BOUND('',#164,.T.);
#62=FACE_BOUND('',#165,.T.);
#63=FACE_BOUND('',#166,.T.);
#64=FACE_BOUND('',#167,.T.);
#65=FACE_BOUND('',#168,.T.);
#66=FACE_BOUND('',#169,.T.);
#67=FACE_BOUND('',#170,.T.);
#68=FACE_BOUND('',#171,.T.);
#69=FACE_BOUND('',#172,.T.);
#70=FACE_BOUND('',#173,.T.);
#71=FACE_BOUND('',#174,.T.);
#72=FACE_BOUND('',#175,.T.);
#73=FACE_BOUND('',#176,.T.);
#74=FACE_BOUND('',#177,.T.);
#75=PRESENTATION_LAYER_ASSIGNMENT('1','Layer 1',(#91,#92));
#76=STYLED_ITEM('',(#78),#91);
#77=STYLED_ITEM('',(#79),#92);
#78=PRESENTATION_STYLE_ASSIGNMENT((#80));
#79=PRESENTATION_STYLE_ASSIGNMENT((#81));
#80=SURFACE_STYLE_USAGE(.BOTH.,#82);
#81=SURFACE_STYLE_USAGE(.BOTH.,#83);
#82=SURFACE_SIDE_STYLE('',(#84));
#83=SURFACE_SIDE_STYLE('',(#85));
#84=SURFACE_STYLE_FILL_AREA(#86);
#85=SURFACE_STYLE_FILL_AREA(#87);
#86=FILL_AREA_STYLE('',(#88));
#87=FILL_AREA_STYLE('',(#89));
#88=FILL_AREA_STYLE_COLOUR('',#90);
#89=FILL_AREA_STYLE_COLOUR('',#31);
#90=DRAUGHTING_PRE_DEFINED_COLOUR('yellow');
#91=MANIFOLD_SOLID_BREP('',#93);
#92=MANIFOLD_SOLID_BREP('',#94);
#93=CLOSED_SHELL('',(#101,#102,#103,#104));
#94=CLOSED_SHELL('',(#105,#106,#107,#108,#109,#110,#111,#112,#113,#114,
#115,#116,#117,#118,#119,#120,#121,#122,#123));
#95=PLANE('',#310);
#96=PLANE('',#316);
#97=PLANE('',#334);
#98=SPHERICAL_SURFACE('',#308,12.5);
#99=SPHERICAL_SURFACE('',#312,12.5);
#100=SPHERICAL_SURFACE('',#314,11.5);
#101=ADVANCED_FACE('',(#132),#124,.T.);
#102=ADVANCED_FACE('',(#133),#98,.T.);
#103=ADVANCED_FACE('',(#134),#95,.T.);
#104=ADVANCED_FACE('',(#135),#99,.T.);
#105=ADVANCED_FACE('',(#136),#100,.T.);
#106=ADVANCED_FACE('',(#137),#96,.F.);
#107=ADVANCED_FACE('',(#41,#42),#125,.T.);
#108=ADVANCED_FACE('',(#43,#44),#35,.T.);
#109=ADVANCED_FACE('',(#45,#46),#126,.T.);
#110=ADVANCED_FACE('',(#47,#48),#36,.T.);
#111=ADVANCED_FACE('',(#49,#50),#127,.T.);
#112=ADVANCED_FACE('',(#51,#52),#37,.T.);
#113=ADVANCED_FACE('',(#53,#54),#32,.F.);
#114=ADVANCED_FACE('',(#55,#56),#128,.F.);
#115=ADVANCED_FACE('',(#57,#58),#97,.F.);
#116=ADVANCED_FACE('',(#59,#60),#129,.T.);
#117=ADVANCED_FACE('',(#61,#62),#38,.T.);
#118=ADVANCED_FACE('',(#63,#64),#130,.T.);
#119=ADVANCED_FACE('',(#65,#66),#39,.T.);
#120=ADVANCED_FACE('',(#67,#68),#33,.F.);
#121=ADVANCED_FACE('',(#69,#70),#131,.T.);
#122=ADVANCED_FACE('',(#71,#72),#34,.T.);
#123=ADVANCED_FACE('',(#73,#74),#40,.T.);
#124=CONICAL_SURFACE('',#306,12.4856283398565,10.0000000000003);
#125=CONICAL_SURFACE('',#318,4.37499999999901,45.000000000013);
#126=CONICAL_SURFACE('',#322,5.87499999999937,30.0000000000425);
#127=CONICAL_SURFACE('',#326,6.24999999999967,15.0000000000002);
#128=CONICAL_SURFACE('',#332,6.55352761804068,74.9999999999999);
#129=CONICAL_SURFACE('',#336,9.99999999999335,45.);
#130=CONICAL_SURFACE('',#340,10.4999999999933,29.9999999999571);
#131=CONICAL_SURFACE('',#346,10.4947174185236,18.0000000000001);
#132=FACE_OUTER_BOUND('',#138,.T.);
#133=FACE_OUTER_BOUND('',#139,.T.);
#134=FACE_OUTER_BOUND('',#140,.T.);
#135=FACE_OUTER_BOUND('',#141,.T.);
#136=FACE_OUTER_BOUND('',#142,.T.);
#137=FACE_OUTER_BOUND('',#143,.T.);
#138=EDGE_LOOP('',(#201,#202,#203,#204));
#139=EDGE_LOOP('',(#205,#206,#207));
#140=EDGE_LOOP('',(#208,#209,#210));
#141=EDGE_LOOP('',(#211,#212,#213,#214));
#142=EDGE_LOOP('',(#215));
#143=EDGE_LOOP('',(#216));
#144=EDGE_LOOP('',(#217));
#145=EDGE_LOOP('',(#218));
#146=EDGE_LOOP('',(#219));
#147=EDGE_LOOP('',(#220));
#148=EDGE_LOOP('',(#221));
#149=EDGE_LOOP('',(#222));
#150=EDGE_LOOP('',(#223));
#151=EDGE_LOOP('',(#224));
#152=EDGE_LOOP('',(#225));
#153=EDGE_LOOP('',(#226));
#154=EDGE_LOOP('',(#227));
#155=EDGE_LOOP('',(#228));
#156=EDGE_LOOP('',(#229));
#157=EDGE_LOOP('',(#230));
#158=EDGE_LOOP('',(#231));
#159=EDGE_LOOP('',(#232));
#160=EDGE_LOOP('',(#233));
#161=EDGE_LOOP('',(#234));
#162=EDGE_LOOP('',(#235));
#163=EDGE_LOOP('',(#236));
#164=EDGE_LOOP('',(#237));
#165=EDGE_LOOP('',(#238));
#166=EDGE_LOOP('',(#239));
#167=EDGE_LOOP('',(#240));
#168=EDGE_LOOP('',(#241));
#169=EDGE_LOOP('',(#242));
#170=EDGE_LOOP('',(#243));
#171=EDGE_LOOP('',(#244));
#172=EDGE_LOOP('',(#245));
#173=EDGE_LOOP('',(#246));
#174=EDGE_LOOP('',(#247));
#175=EDGE_LOOP('',(#248));
#176=EDGE_LOOP('',(#249));
#177=EDGE_LOOP('',(#250));
#178=CIRCLE('',#304,12.4856283398565);
#179=CIRCLE('',#305,11.9376039348469);
#180=CIRCLE('',#307,12.5);
#181=CIRCLE('',#309,8.67467578644907);
#182=CIRCLE('',#311,12.5);
#183=CIRCLE('',#313,11.4999999999996);
#184=CIRCLE('',#315,4.37499999999901);
#185=CIRCLE('',#317,5.87499999999969);
#186=CIRCLE('',#319,5.87499999999937);
#187=CIRCLE('',#321,6.24999999999968);
#188=CIRCLE('',#323,6.24999999999967);
#189=CIRCLE('',#325,6.04999999999967);
#190=CIRCLE('',#327,6.04999999999967);
#191=CIRCLE('',#329,6.55352761804068);
#192=CIRCLE('',#331,7.74999999999967);
#193=CIRCLE('',#333,9.99999999999335);
#194=CIRCLE('',#335,10.4999999999933);
#195=CIRCLE('',#337,10.4999999999933);
#196=CIRCLE('',#339,10.2499999999993);
#197=CIRCLE('',#341,10.2499999999993);
#198=CIRCLE('',#343,10.4947174185236);
#199=CIRCLE('',#345,11.2552825814754);
#200=CIRCLE('',#347,11.4999999999997);
#201=ORIENTED_EDGE('',*,*,#274,.F.);
#202=ORIENTED_EDGE('',*,*,#275,.F.);
#203=ORIENTED_EDGE('',*,*,#274,.T.);
#204=ORIENTED_EDGE('',*,*,#276,.T.);
#205=ORIENTED_EDGE('',*,*,#277,.F.);
#206=ORIENTED_EDGE('',*,*,#277,.T.);
#207=ORIENTED_EDGE('',*,*,#275,.T.);
#208=ORIENTED_EDGE('',*,*,#278,.F.);
#209=ORIENTED_EDGE('',*,*,#279,.F.);
#210=ORIENTED_EDGE('',*,*,#278,.T.);
#211=ORIENTED_EDGE('',*,*,#280,.F.);
#212=ORIENTED_EDGE('',*,*,#276,.F.);
#213=ORIENTED_EDGE('',*,*,#280,.T.);
#214=ORIENTED_EDGE('',*,*,#279,.T.);
#215=ORIENTED_EDGE('',*,*,#281,.T.);
#216=ORIENTED_EDGE('',*,*,#282,.F.);
#217=ORIENTED_EDGE('',*,*,#283,.F.);
#218=ORIENTED_EDGE('',*,*,#282,.T.);
#219=ORIENTED_EDGE('',*,*,#284,.F.);
#220=ORIENTED_EDGE('',*,*,#283,.T.);
#221=ORIENTED_EDGE('',*,*,#285,.F.);
#222=ORIENTED_EDGE('',*,*,#284,.T.);
#223=ORIENTED_EDGE('',*,*,#286,.F.);
#224=ORIENTED_EDGE('',*,*,#285,.T.);
#225=ORIENTED_EDGE('',*,*,#287,.F.);
#226=ORIENTED_EDGE('',*,*,#286,.T.);
#227=ORIENTED_EDGE('',*,*,#288,.F.);
#228=ORIENTED_EDGE('',*,*,#287,.T.);
#229=ORIENTED_EDGE('',*,*,#289,.F.);
#230=ORIENTED_EDGE('',*,*,#288,.T.);
#231=ORIENTED_EDGE('',*,*,#290,.F.);
#232=ORIENTED_EDGE('',*,*,#289,.T.);
#233=ORIENTED_EDGE('',*,*,#291,.F.);
#234=ORIENTED_EDGE('',*,*,#290,.T.);
#235=ORIENTED_EDGE('',*,*,#292,.F.);
#236=ORIENTED_EDGE('',*,*,#291,.T.);
#237=ORIENTED_EDGE('',*,*,#293,.F.);
#238=ORIENTED_EDGE('',*,*,#292,.T.);
#239=ORIENTED_EDGE('',*,*,#294,.F.);
#240=ORIENTED_EDGE('',*,*,#293,.T.);
#241=ORIENTED_EDGE('',*,*,#295,.F.);
#242=ORIENTED_EDGE('',*,*,#294,.T.);
#243=ORIENTED_EDGE('',*,*,#296,.F.);
#244=ORIENTED_EDGE('',*,*,#295,.T.);
#245=ORIENTED_EDGE('',*,*,#297,.F.);
#246=ORIENTED_EDGE('',*,*,#296,.T.);
#247=ORIENTED_EDGE('',*,*,#298,.F.);
#248=ORIENTED_EDGE('',*,*,#297,.T.);
#249=ORIENTED_EDGE('',*,*,#281,.F.);
#250=ORIENTED_EDGE('',*,*,#298,.T.);
#251=VERTEX_POINT('',#448);
#252=VERTEX_POINT('',#449);
#253=VERTEX_POINT('',#454);
#254=VERTEX_POINT('',#457);
#255=VERTEX_POINT('',#458);
#256=VERTEX_POINT('',#464);
#257=VERTEX_POINT('',#467);
#258=VERTEX_POINT('',#470);
#259=VERTEX_POINT('',#473);
#260=VERTEX_POINT('',#476);
#261=VERTEX_POINT('',#479);
#262=VERTEX_POINT('',#482);
#263=VERTEX_POINT('',#485);
#264=VERTEX_POINT('',#488);
#265=VERTEX_POINT('',#491);
#266=VERTEX_POINT('',#494);
#267=VERTEX_POINT('',#497);
#268=VERTEX_POINT('',#500);
#269=VERTEX_POINT('',#503);
#270=VERTEX_POINT('',#506);
#271=VERTEX_POINT('',#509);
#272=VERTEX_POINT('',#512);
#273=VERTEX_POINT('',#515);
#274=EDGE_CURVE('',#251,#252,#299,.T.);
#275=EDGE_CURVE('',#251,#251,#178,.T.);
#276=EDGE_CURVE('',#252,#252,#179,.T.);
#277=EDGE_CURVE('',#253,#251,#180,.T.);
#278=EDGE_CURVE('',#254,#255,#300,.T.);
#279=EDGE_CURVE('',#254,#254,#181,.T.);
#280=EDGE_CURVE('',#252,#254,#182,.T.);
#281=EDGE_CURVE('',#256,#256,#183,.T.);
#282=EDGE_CURVE('',#257,#257,#184,.T.);
#283=EDGE_CURVE('',#258,#258,#185,.T.);
#284=EDGE_CURVE('',#259,#259,#186,.T.);
#285=EDGE_CURVE('',#260,#260,#187,.T.);
#286=EDGE_CURVE('',#261,#261,#188,.T.);
#287=EDGE_CURVE('',#262,#262,#189,.T.);
#288=EDGE_CURVE('',#263,#263,#190,.T.);
#289=EDGE_CURVE('',#264,#264,#191,.T.);
#290=EDGE_CURVE('',#265,#265,#192,.T.);
#291=EDGE_CURVE('',#266,#266,#193,.T.);
#292=EDGE_CURVE('',#267,#267,#194,.T.);
#293=EDGE_CURVE('',#268,#268,#195,.T.);
#294=EDGE_CURVE('',#269,#269,#196,.T.);
#295=EDGE_CURVE('',#270,#270,#197,.T.);
#296=EDGE_CURVE('',#271,#271,#198,.T.);
#297=EDGE_CURVE('',#272,#272,#199,.T.);
#298=EDGE_CURVE('',#273,#273,#200,.T.);
#299=LINE('',#447,#301);
#300=LINE('',#456,#302);
#301=VECTOR('',#352,1.);
#302=VECTOR('',#363,1.);
#303=AXIS2_PLACEMENT_3D('',#446,#350,#351);
#304=AXIS2_PLACEMENT_3D('',#450,#353,#354);
#305=AXIS2_PLACEMENT_3D('',#451,#355,#356);
#306=AXIS2_PLACEMENT_3D('',#452,#357,#358);
#307=AXIS2_PLACEMENT_3D('',#453,#359,#360);
#308=AXIS2_PLACEMENT_3D('',#455,#361,#362);
#309=AXIS2_PLACEMENT_3D('',#459,#364,#365);
#310=AXIS2_PLACEMENT_3D('',#460,#366,#367);
#311=AXIS2_PLACEMENT_3D('',#461,#368,#369);
#312=AXIS2_PLACEMENT_3D('',#462,#370,#371);
#313=AXIS2_PLACEMENT_3D('',#463,#372,#373);
#314=AXIS2_PLACEMENT_3D('',#465,#374,#375);
#315=AXIS2_PLACEMENT_3D('',#466,#376,#377);
#316=AXIS2_PLACEMENT_3D('',#468,#378,#379);
#317=AXIS2_PLACEMENT_3D('',#469,#380,#381);
#318=AXIS2_PLACEMENT_3D('',#471,#382,#383);
#319=AXIS2_PLACEMENT_3D('',#472,#384,#385);
#320=AXIS2_PLACEMENT_3D('',#474,#386,#387);
#321=AXIS2_PLACEMENT_3D('',#475,#388,#389);
#322=AXIS2_PLACEMENT_3D('',#477,#390,#391);
#323=AXIS2_PLACEMENT_3D('',#478,#392,#393);
#324=AXIS2_PLACEMENT_3D('',#480,#394,#395);
#325=AXIS2_PLACEMENT_3D('',#481,#396,#397);
#326=AXIS2_PLACEMENT_3D('',#483,#398,#399);
#327=AXIS2_PLACEMENT_3D('',#484,#400,#401);
#328=AXIS2_PLACEMENT_3D('',#486,#402,#403);
#329=AXIS2_PLACEMENT_3D('',#487,#404,#405);
#330=AXIS2_PLACEMENT_3D('',#489,#406,#407);
#331=AXIS2_PLACEMENT_3D('',#490,#408,#409);
#332=AXIS2_PLACEMENT_3D('',#492,#410,#411);
#333=AXIS2_PLACEMENT_3D('',#493,#412,#413);
#334=AXIS2_PLACEMENT_3D('',#495,#414,#415);
#335=AXIS2_PLACEMENT_3D('',#496,#416,#417);
#336=AXIS2_PLACEMENT_3D('',#498,#418,#419);
#337=AXIS2_PLACEMENT_3D('',#499,#420,#421);
#338=AXIS2_PLACEMENT_3D('',#501,#422,#423);
#339=AXIS2_PLACEMENT_3D('',#502,#424,#425);
#340=AXIS2_PLACEMENT_3D('',#504,#426,#427);
#341=AXIS2_PLACEMENT_3D('',#505,#428,#429);
#342=AXIS2_PLACEMENT_3D('',#507,#430,#431);
#343=AXIS2_PLACEMENT_3D('',#508,#432,#433);
#344=AXIS2_PLACEMENT_3D('',#510,#434,#435);
#345=AXIS2_PLACEMENT_3D('',#511,#436,#437);
#346=AXIS2_PLACEMENT_3D('',#513,#438,#439);
#347=AXIS2_PLACEMENT_3D('',#514,#440,#441);
#348=AXIS2_PLACEMENT_3D('',#516,#442,#443);
#349=AXIS2_PLACEMENT_3D('',#517,#444,#445);
#350=DIRECTION('',(0.,0.,1.));
#351=DIRECTION('',(1.,0.,0.));
#352=DIRECTION('',(0.984807753012207,0.173648177666935,0.));
#353=DIRECTION('',(-1.,8.47892350327466E-16,0.));
#354=DIRECTION('',(-8.33625715306246E-16,-1.,0.));
#355=DIRECTION('',(-1.,8.47892350327466E-16,0.));
#356=DIRECTION('',(-8.71895307690515E-16,-1.,0.));
#357=DIRECTION('',(-1.,8.47892350327466E-16,0.));
#358=DIRECTION('',(-2.94001293192499E-16,-1.,0.));
#359=DIRECTION('',(0.,0.,1.));
#360=DIRECTION('',(1.,0.,0.));
#361=DIRECTION('',(-1.,7.86660010370098E-16,0.));
#362=DIRECTION('',(-8.32667268468867E-16,-1.,0.));
#363=DIRECTION('',(-3.99951195567846E-16,1.,0.));
#364=DIRECTION('',(-1.,8.47892350327466E-16,0.));
#365=DIRECTION('',(-7.99902391135661E-16,-1.,0.));
#366=DIRECTION('',(1.,-8.47892350327466E-16,0.));
#367=DIRECTION('',(8.46545056276682E-16,1.,0.));
#368=DIRECTION('',(0.,0.,1.));
#369=DIRECTION('',(1.,0.,0.));
#370=DIRECTION('',(-1.,7.86660010370098E-16,0.));
#371=DIRECTION('',(-8.32667268468867E-16,-1.,0.));
#372=DIRECTION('',(-1.,8.47892350327466E-16,0.));
#373=DIRECTION('',(-9.05073117900971E-16,-1.,0.));
#374=DIRECTION('',(-1.,9.09124690284834E-16,0.));
#375=DIRECTION('',(9.05073117900943E-16,1.,0.));
#376=DIRECTION('',(-1.,8.47892350327466E-16,0.));
#377=DIRECTION('',(-1.58603289232201E-15,-1.,0.));
#378=DIRECTION('',(-1.,8.47892350327466E-16,0.));
#379=DIRECTION('',(-8.46545056276682E-16,-1.,0.));
#380=DIRECTION('',(-1.,8.47892350327466E-16,0.));
#381=DIRECTION('',(-1.18108832406938E-15,-1.,0.));
#382=DIRECTION('',(-1.,8.47892350327466E-16,0.));
#383=DIRECTION('',(-8.35948885996163E-16,-1.,0.));
#384=DIRECTION('',(-1.,8.47892350327466E-16,0.));
#385=DIRECTION('',(-1.18108832406944E-15,-1.,0.));
#386=DIRECTION('',(-1.,8.47892350327466E-16,0.));
#387=DIRECTION('',(-8.47892350327466E-16,-1.,0.));
#388=DIRECTION('',(-1.,8.47892350327466E-16,0.));
#389=DIRECTION('',(-1.11022302462521E-15,-1.,0.));
#390=DIRECTION('',(-1.,8.47892350327466E-16,0.));
#391=DIRECTION('',(-7.49539395905843E-16,-1.,0.));
#392=DIRECTION('',(-1.,8.47892350327466E-16,0.));
#393=DIRECTION('',(-1.11022302462522E-15,-1.,0.));
#394=DIRECTION('',(-1.,8.47892350327466E-16,0.));
#395=DIRECTION('',(-8.47892350327466E-16,-1.,0.));
#396=DIRECTION('',(-1.,8.47892350327466E-16,0.));
#397=DIRECTION('',(-1.14692461221613E-15,-1.,0.));
#398=DIRECTION('',(1.,-8.47892350327466E-16,0.));
#399=DIRECTION('',(8.35099100032744E-16,1.,0.));
#400=DIRECTION('',(-1.,8.47892350327466E-16,0.));
#401=DIRECTION('',(-1.14692461221613E-15,-1.,0.));
#402=DIRECTION('',(-1.,8.47892350327466E-16,0.));
#403=DIRECTION('',(-8.47892350327466E-16,-1.,0.));
#404=DIRECTION('',(-1.,8.47892350327466E-16,0.));
#405=DIRECTION('',(-1.05880287813325E-15,-1.,0.));
#406=DIRECTION('',(-1.,8.47892350327466E-16,0.));
#407=DIRECTION('',(-1.01297721224928E-15,-1.,0.));
#408=DIRECTION('',(-1.,8.47892350327466E-16,0.));
#409=DIRECTION('',(-8.95341148891293E-16,-1.,0.));
#410=DIRECTION('',(1.,-8.47892350327466E-16,0.));
#411=DIRECTION('',(8.20357232419911E-16,1.,0.));
#412=DIRECTION('',(-1.,8.47892350327466E-16,0.));
#413=DIRECTION('',(-6.93889390391184E-16,-1.,0.));
#414=DIRECTION('',(-1.,8.47892350327466E-16,0.));
#415=DIRECTION('',(-8.46545056276682E-16,-1.,0.));
#416=DIRECTION('',(-1.,8.47892350327466E-16,0.));
#417=DIRECTION('',(-6.60847038467774E-16,-1.,0.));
#418=DIRECTION('',(-1.,8.47892350327466E-16,0.));
#419=DIRECTION('',(-8.51903806024259E-16,-1.,0.));
#420=DIRECTION('',(-1.,8.47892350327466E-16,0.));
#421=DIRECTION('',(-6.60847038467774E-16,-1.,0.));
#422=DIRECTION('',(-1.,8.47892350327466E-16,0.));
#423=DIRECTION('',(-8.47892350327466E-16,-1.,0.));
#424=DIRECTION('',(-1.,8.47892350327466E-16,0.));
#425=DIRECTION('',(-6.76965258917822E-16,-1.,0.));
#426=DIRECTION('',(1.,-8.47892350327466E-16,0.));
#427=DIRECTION('',(7.43642282497431E-16,1.,0.));
#428=DIRECTION('',(-1.,8.47892350327466E-16,0.));
#429=DIRECTION('',(-1.01544788837673E-15,-1.,0.));
#430=DIRECTION('',(-1.,8.47892350327466E-16,0.));
#431=DIRECTION('',(-8.47892350327466E-16,-1.,0.));
#432=DIRECTION('',(-1.,8.47892350327466E-16,0.));
#433=DIRECTION('',(-9.91769519919587E-16,-1.,0.));
#434=DIRECTION('',(-1.,8.47892350327466E-16,0.));
#435=DIRECTION('',(-8.56653568383636E-16,-1.,0.));
#436=DIRECTION('',(-1.,8.47892350327466E-16,0.));
#437=DIRECTION('',(-9.24751624894028E-16,-1.,0.));
#438=DIRECTION('',(-1.,8.47892350327466E-16,0.));
#439=DIRECTION('',(-1.00334493880527E-15,-1.,0.));
#440=DIRECTION('',(-1.,8.47892350327466E-16,0.));
#441=DIRECTION('',(-9.05073117900969E-16,-1.,0.));
#442=DIRECTION('',(-1.,8.47892350327466E-16,0.));
#443=DIRECTION('',(-9.0507311790097E-16,-1.,0.));
#444=DIRECTION('',(-1.,8.47892350327466E-16,0.));
#445=DIRECTION('',(-8.47892350327466E-16,-1.,0.));
#446=CARTESIAN_POINT('',(0.,0.,0.));
#447=CARTESIAN_POINT('',(13.099236980651,-12.4856283398562,0.));
#448=CARTESIAN_POINT('',(13.099236980651,-12.4856283398562,0.));
#449=CARTESIAN_POINT('',(16.207237825489,-11.9376039348465,0.));
#450=CARTESIAN_POINT('',(13.099236980651,3.46833527218412E-13,0.));
#451=CARTESIAN_POINT('',(16.207237825489,3.44198277077262E-13,0.));
#452=CARTESIAN_POINT('',(13.099236980651,3.46833527218412E-13,0.));
#453=CARTESIAN_POINT('',(12.5,0.,0.));
#454=CARTESIAN_POINT('',(0.,0.,0.));
#455=CARTESIAN_POINT('',(12.5,0.,0.));
#456=CARTESIAN_POINT('',(21.5,0.,0.));
#457=CARTESIAN_POINT('',(21.5,-8.67467578644873,0.));
#458=CARTESIAN_POINT('',(21.5,0.,0.));
#459=CARTESIAN_POINT('',(21.5,3.39710584517391E-13,0.));
#460=CARTESIAN_POINT('',(21.5,-6.05992272460608E-30,0.));
#461=CARTESIAN_POINT('',(12.5,0.,0.));
#462=CARTESIAN_POINT('',(12.5,0.,0.));
#463=CARTESIAN_POINT('',(12.5,3.47341615670339E-13,0.));
#464=CARTESIAN_POINT('',(12.5,-11.4999999999993,0.));
#465=CARTESIAN_POINT('',(12.5,0.,0.));
#466=CARTESIAN_POINT('',(57.,3.09610406080767E-13,0.));
#467=CARTESIAN_POINT('',(57.,-4.3749999999987,0.));
#468=CARTESIAN_POINT('',(57.,4.37499999999932,0.));
#469=CARTESIAN_POINT('',(55.5,3.10882244606258E-13,0.));
#470=CARTESIAN_POINT('',(55.5,-5.87499999999938,0.));
#471=CARTESIAN_POINT('',(57.,3.09610406080767E-13,0.));
#472=CARTESIAN_POINT('',(41.6495190528378,3.22625961449713E-13,0.));
#473=CARTESIAN_POINT('',(41.6495190528377,-5.87499999999905,0.));
#474=CARTESIAN_POINT('',(-2.28305079960214E-14,3.57940270049432E-13,0.));
#475=CARTESIAN_POINT('',(41.,3.23176683686006E-13,0.));
#476=CARTESIAN_POINT('',(41.,-6.24999999999936,0.));
#477=CARTESIAN_POINT('',(41.6495190528378,3.22625961449713E-13,0.));
#478=CARTESIAN_POINT('',(36.2,3.27246566967578E-13,0.));
#479=CARTESIAN_POINT('',(36.2,-6.24999999999934,0.));
#480=CARTESIAN_POINT('',(-2.28305079960214E-14,3.57940270049432E-13,0.));
#481=CARTESIAN_POINT('',(35.4535898384862,3.27879442433732E-13,0.));
#482=CARTESIAN_POINT('',(35.4535898384862,-6.04999999999934,0.));
#483=CARTESIAN_POINT('',(36.2,3.27246566967578E-13,0.));
#484=CARTESIAN_POINT('',(35.0657765220036,3.28208266378133E-13,0.));
#485=CARTESIAN_POINT('',(35.0657765220035,-6.04999999999934,0.));
#486=CARTESIAN_POINT('',(-2.28305079960214E-14,3.57940270049432E-13,0.));
#487=CARTESIAN_POINT('',(34.6794061914879,3.28535866825771E-13,0.));
#488=CARTESIAN_POINT('',(34.6794061914879,-6.55352761804035,0.));
#489=CARTESIAN_POINT('',(35.0657765220036,3.28730098697605E-13,0.));
#490=CARTESIAN_POINT('',(35.,3.28264037787971E-13,0.));
#491=CARTESIAN_POINT('',(35.,-7.74999999999934,0.));
#492=CARTESIAN_POINT('',(34.6794061914879,3.28535866825771E-13,0.));
#493=CARTESIAN_POINT('',(35.,3.28264037787971E-13,0.));
#494=CARTESIAN_POINT('',(35.,-9.99999999999302,0.));
#495=CARTESIAN_POINT('',(35.,7.75,0.));
#496=CARTESIAN_POINT('',(34.5,3.28687983963134E-13,0.));
#497=CARTESIAN_POINT('',(34.5,-10.499999999993,0.));
#498=CARTESIAN_POINT('',(35.,3.28264037787971E-13,0.));
#499=CARTESIAN_POINT('',(32.4330127018826,3.30440566681433E-13,0.));
#500=CARTESIAN_POINT('',(32.4330127018826,-10.499999999993,0.));
#501=CARTESIAN_POINT('',(-2.28305079960214E-14,3.57940270049432E-13,0.));
#502=CARTESIAN_POINT('',(32.,3.30807714838954E-13,0.));
#503=CARTESIAN_POINT('',(32.,-10.249999999999,0.));
#504=CARTESIAN_POINT('',(32.4330127018826,3.30440566681433E-13,0.));
#505=CARTESIAN_POINT('',(24.,3.37590853641573E-13,0.));
#506=CARTESIAN_POINT('',(24.,-10.249999999999,0.));
#507=CARTESIAN_POINT('',(-2.28305079960214E-14,3.57940270049432E-13,0.));
#508=CARTESIAN_POINT('',(22.4549150281252,3.38900919369831E-13,0.));
#509=CARTESIAN_POINT('',(22.4549150281252,-10.4947174185232,0.));
#510=CARTESIAN_POINT('',(24.,3.365363543395E-13,0.));
#511=CARTESIAN_POINT('',(20.1141361471593,3.40885647876811E-13,0.));
#512=CARTESIAN_POINT('',(20.1141361471593,-11.2552825814751,0.));
#513=CARTESIAN_POINT('',(22.4549150281252,3.38900919369831E-13,0.));
#514=CARTESIAN_POINT('',(18.5690511752845,3.42195713605069E-13,0.));
#515=CARTESIAN_POINT('',(18.5690511752845,-11.4999999999993,0.));
#516=CARTESIAN_POINT('',(18.5690511752845,3.4260788650542E-13,0.));
#517=CARTESIAN_POINT('',(-2.28305079960214E-14,3.57940270049432E-13,0.));
#518=MECHANICAL_DESIGN_GEOMETRIC_PRESENTATION_REPRESENTATION('',(#76,#77),
#519);
#519=(
GEOMETRIC_REPRESENTATION_CONTEXT(3)
GLOBAL_UNCERTAINTY_ASSIGNED_CONTEXT((#520))
GLOBAL_UNIT_ASSIGNED_CONTEXT((#526,#522,#521))
REPRESENTATION_CONTEXT('APMR-P3225-D25-M12-L35',
'TOP_LEVEL_ASSEMBLY_PART')
);
#520=UNCERTAINTY_MEASURE_WITH_UNIT(LENGTH_MEASURE(2.E-5),#526,
'DISTANCE_ACCURACY_VALUE','Maximum Tolerance applied to model');
#521=(
NAMED_UNIT(*)
SI_UNIT($,.STERADIAN.)
SOLID_ANGLE_UNIT()
);
#522=(
CONVERSION_BASED_UNIT('DEGREE',#524)
NAMED_UNIT(#523)
PLANE_ANGLE_UNIT()
);
#523=DIMENSIONAL_EXPONENTS(0.,0.,0.,0.,0.,0.,0.);
#524=PLANE_ANGLE_MEASURE_WITH_UNIT(PLANE_ANGLE_MEASURE(0.0174532925),#525);
#525=(
NAMED_UNIT(*)
PLANE_ANGLE_UNIT()
SI_UNIT($,.RADIAN.)
);
#526=(
LENGTH_UNIT()
NAMED_UNIT(*)
SI_UNIT(.MILLI.,.METRE.)
);
ENDSEC;
END-ISO-10303-21;
