ISO-10303-21;
HEADER;
/* Generated by software containing ST-Developer
 * from STEP Tools, Inc. (www.steptools.com) 
 */
/* OPTION: using custom schema-name function */

FILE_DESCRIPTION(
/* description */ (''),
/* implementation_level */ '2;1');

FILE_NAME(
/* name */ 'APMR-RO12-D12-C12-L120.stp',
/* time_stamp */ '2023-10-02T09:41:53+03:00',
/* author */ (''),
/* organization */ (''),
/* preprocessor_version */ 'ST-DEVELOPER v19.4',
/* originating_system */ 'SIEMENS PLM Software NX2306.5001',
/* authorisation */ '');

FILE_SCHEMA (('AUTOMOTIVE_DESIGN { 1 0 10303 214 3 1 1 1 }'));
ENDSEC;

DATA;
#10=PROPERTY_DEFINITION_REPRESENTATION(#14,#12);
#11=PROPERTY_DEFINITION_REPRESENTATION(#15,#13);
#12=REPRESENTATION('',(#16),#239);
#13=REPRESENTATION('',(#17),#239);
#14=PROPERTY_DEFINITION('pmi validation property','',#21);
#15=PROPERTY_DEFINITION('pmi validation property','',#21);
#16=VALUE_REPRESENTATION_ITEM('number of annotations',COUNT_MEASURE(0.));
#17=VALUE_REPRESENTATION_ITEM('number of views',COUNT_MEASURE(0.));
#18=SHAPE_REPRESENTATION_RELATIONSHIP('None',
'relationship between APMR-RO12-D12-C12-L120-LIGHT_x_t_objects-None an
d APMR-RO12-D12-C12-L120-LIGHT_x_t_objects-None',#30,#19);
#19=ADVANCED_BREP_SHAPE_REPRESENTATION(
'APMR-RO12-D12-C12-L120-LIGHT_x_t_objects-None',(#67,#68),#239);
#20=SHAPE_DEFINITION_REPRESENTATION(#21,#30);
#21=PRODUCT_DEFINITION_SHAPE('','',#22);
#22=PRODUCT_DEFINITION(' ','',#24,#23);
#23=PRODUCT_DEFINITION_CONTEXT('part definition',#29,'design');
#24=PRODUCT_DEFINITION_FORMATION_WITH_SPECIFIED_SOURCE(' ',' ',#26,
 .NOT_KNOWN.);
#25=PRODUCT_RELATED_PRODUCT_CATEGORY('part','',(#26));
#26=PRODUCT('APMR-RO12-D12-C12-L120-LIGHT_x_t_objects',
'APMR-RO12-D12-C12-L120-LIGHT_x_t_objects',' ',(#27));
#27=PRODUCT_CONTEXT(' ',#29,'mechanical');
#28=APPLICATION_PROTOCOL_DEFINITION('international standard',
'automotive_design',2010,#29);
#29=APPLICATION_CONTEXT(
'core data for automotive mechanical design processes');
#30=SHAPE_REPRESENTATION(
'APMR-RO12-D12-C12-L120-LIGHT_x_t_objects-None',(#149),#239);
#31=COLOUR_RGB('silver gray',0.6,0.6,0.6);
#32=TOROIDAL_SURFACE('',#167,4.75,1.);
#33=PLANE('',#165);
#34=CYLINDRICAL_SURFACE('',#158,6.);
#35=CYLINDRICAL_SURFACE('',#162,5.6);
#36=CYLINDRICAL_SURFACE('',#168,5.75);
#37=CONICAL_SURFACE('',#156,5.75,15.);
#38=CONICAL_SURFACE('',#160,6.,29.9999999999999);
#39=FACE_BOUND('',#90,.T.);
#40=FACE_BOUND('',#91,.T.);
#41=FACE_BOUND('',#92,.T.);
#42=FACE_BOUND('',#93,.T.);
#43=FACE_BOUND('',#94,.T.);
#44=FACE_BOUND('',#95,.T.);
#45=FACE_BOUND('',#96,.T.);
#46=FACE_BOUND('',#97,.T.);
#47=FACE_BOUND('',#100,.T.);
#48=FACE_BOUND('',#101,.T.);
#49=FACE_BOUND('',#102,.T.);
#50=FACE_BOUND('',#103,.T.);
#51=PRESENTATION_LAYER_ASSIGNMENT('1','Layer 1',(#67,#68));
#52=STYLED_ITEM('',(#54),#67);
#53=STYLED_ITEM('',(#55),#68);
#54=PRESENTATION_STYLE_ASSIGNMENT((#56));
#55=PRESENTATION_STYLE_ASSIGNMENT((#57));
#56=SURFACE_STYLE_USAGE(.BOTH.,#58);
#57=SURFACE_STYLE_USAGE(.BOTH.,#59);
#58=SURFACE_SIDE_STYLE('',(#60));
#59=SURFACE_SIDE_STYLE('',(#61));
#60=SURFACE_STYLE_FILL_AREA(#62);
#61=SURFACE_STYLE_FILL_AREA(#63);
#62=FILL_AREA_STYLE('',(#64));
#63=FILL_AREA_STYLE('',(#65));
#64=FILL_AREA_STYLE_COLOUR('',#66);
#65=FILL_AREA_STYLE_COLOUR('',#31);
#66=DRAUGHTING_PRE_DEFINED_COLOUR('yellow');
#67=MANIFOLD_SOLID_BREP('',#69);
#68=MANIFOLD_SOLID_BREP('',#70);
#69=CLOSED_SHELL('',(#71,#72));
#70=CLOSED_SHELL('',(#73,#74,#75,#76,#77,#78,#79,#80));
#71=ADVANCED_FACE('',(#84),#81,.T.);
#72=ADVANCED_FACE('',(#85),#82,.T.);
#73=ADVANCED_FACE('',(#39,#40),#37,.T.);
#74=ADVANCED_FACE('',(#41,#42),#34,.T.);
#75=ADVANCED_FACE('',(#43,#44),#38,.T.);
#76=ADVANCED_FACE('',(#45,#46),#35,.T.);
#77=ADVANCED_FACE('',(#86),#83,.T.);
#78=ADVANCED_FACE('',(#87),#33,.F.);
#79=ADVANCED_FACE('',(#47,#48),#32,.T.);
#80=ADVANCED_FACE('',(#49,#50),#36,.T.);
#81=SPHERICAL_SURFACE('',#152,6.);
#82=SPHERICAL_SURFACE('',#153,6.);
#83=SPHERICAL_SURFACE('',#163,5.6);
#84=FACE_OUTER_BOUND('',#88,.T.);
#85=FACE_OUTER_BOUND('',#89,.T.);
#86=FACE_OUTER_BOUND('',#98,.T.);
#87=FACE_OUTER_BOUND('',#99,.T.);
#88=EDGE_LOOP('',(#104,#105));
#89=EDGE_LOOP('',(#106,#107));
#90=EDGE_LOOP('',(#108));
#91=EDGE_LOOP('',(#109));
#92=EDGE_LOOP('',(#110));
#93=EDGE_LOOP('',(#111));
#94=EDGE_LOOP('',(#112));
#95=EDGE_LOOP('',(#113));
#96=EDGE_LOOP('',(#114));
#97=EDGE_LOOP('',(#115));
#98=EDGE_LOOP('',(#116));
#99=EDGE_LOOP('',(#117));
#100=EDGE_LOOP('',(#118));
#101=EDGE_LOOP('',(#119));
#102=EDGE_LOOP('',(#120));
#103=EDGE_LOOP('',(#121));
#104=ORIENTED_EDGE('',*,*,#131,.F.);
#105=ORIENTED_EDGE('',*,*,#132,.F.);
#106=ORIENTED_EDGE('',*,*,#131,.T.);
#107=ORIENTED_EDGE('',*,*,#132,.T.);
#108=ORIENTED_EDGE('',*,*,#133,.F.);
#109=ORIENTED_EDGE('',*,*,#134,.T.);
#110=ORIENTED_EDGE('',*,*,#135,.F.);
#111=ORIENTED_EDGE('',*,*,#133,.T.);
#112=ORIENTED_EDGE('',*,*,#136,.F.);
#113=ORIENTED_EDGE('',*,*,#135,.T.);
#114=ORIENTED_EDGE('',*,*,#137,.F.);
#115=ORIENTED_EDGE('',*,*,#136,.T.);
#116=ORIENTED_EDGE('',*,*,#137,.T.);
#117=ORIENTED_EDGE('',*,*,#138,.F.);
#118=ORIENTED_EDGE('',*,*,#139,.F.);
#119=ORIENTED_EDGE('',*,*,#138,.T.);
#120=ORIENTED_EDGE('',*,*,#134,.F.);
#121=ORIENTED_EDGE('',*,*,#139,.T.);
#122=VERTEX_POINT('',#211);
#123=VERTEX_POINT('',#212);
#124=VERTEX_POINT('',#217);
#125=VERTEX_POINT('',#219);
#126=VERTEX_POINT('',#222);
#127=VERTEX_POINT('',#225);
#128=VERTEX_POINT('',#228);
#129=VERTEX_POINT('',#232);
#130=VERTEX_POINT('',#235);
#131=EDGE_CURVE('',#122,#123,#140,.T.);
#132=EDGE_CURVE('',#123,#122,#141,.T.);
#133=EDGE_CURVE('',#124,#124,#142,.T.);
#134=EDGE_CURVE('',#125,#125,#143,.T.);
#135=EDGE_CURVE('',#126,#126,#144,.T.);
#136=EDGE_CURVE('',#127,#127,#145,.T.);
#137=EDGE_CURVE('',#128,#128,#146,.T.);
#138=EDGE_CURVE('',#129,#129,#147,.T.);
#139=EDGE_CURVE('',#130,#130,#148,.T.);
#140=CIRCLE('',#150,6.);
#141=CIRCLE('',#151,6.);
#142=CIRCLE('',#154,6.);
#143=CIRCLE('',#155,5.75);
#144=CIRCLE('',#157,6.);
#145=CIRCLE('',#159,5.6);
#146=CIRCLE('',#161,5.6);
#147=CIRCLE('',#164,4.75);
#148=CIRCLE('',#166,5.75);
#149=AXIS2_PLACEMENT_3D('',#209,#169,#170);
#150=AXIS2_PLACEMENT_3D('',#210,#171,#172);
#151=AXIS2_PLACEMENT_3D('',#213,#173,#174);
#152=AXIS2_PLACEMENT_3D('',#214,#175,#176);
#153=AXIS2_PLACEMENT_3D('',#215,#177,#178);
#154=AXIS2_PLACEMENT_3D('',#216,#179,#180);
#155=AXIS2_PLACEMENT_3D('',#218,#181,#182);
#156=AXIS2_PLACEMENT_3D('',#220,#183,#184);
#157=AXIS2_PLACEMENT_3D('',#221,#185,#186);
#158=AXIS2_PLACEMENT_3D('',#223,#187,#188);
#159=AXIS2_PLACEMENT_3D('',#224,#189,#190);
#160=AXIS2_PLACEMENT_3D('',#226,#191,#192);
#161=AXIS2_PLACEMENT_3D('',#227,#193,#194);
#162=AXIS2_PLACEMENT_3D('',#229,#195,#196);
#163=AXIS2_PLACEMENT_3D('',#230,#197,#198);
#164=AXIS2_PLACEMENT_3D('',#231,#199,#200);
#165=AXIS2_PLACEMENT_3D('',#233,#201,#202);
#166=AXIS2_PLACEMENT_3D('',#234,#203,#204);
#167=AXIS2_PLACEMENT_3D('',#236,#205,#206);
#168=AXIS2_PLACEMENT_3D('',#237,#207,#208);
#169=DIRECTION('',(0.,0.,1.));
#170=DIRECTION('',(1.,0.,0.));
#171=DIRECTION('',(0.,0.,1.));
#172=DIRECTION('',(-1.,0.,0.));
#173=DIRECTION('',(0.,1.,1.83697019872103E-16));
#174=DIRECTION('',(-1.,0.,0.));
#175=DIRECTION('',(1.,-1.12481983699639E-32,6.12323399573677E-17));
#176=DIRECTION('',(0.,-1.83697019872103E-16,1.));
#177=DIRECTION('',(1.,6.12323399573677E-17,0.));
#178=DIRECTION('',(0.,1.,0.));
#179=DIRECTION('',(-1.,0.,0.));
#180=DIRECTION('',(0.,0.,1.));
#181=DIRECTION('',(-1.,0.,0.));
#182=DIRECTION('',(0.,0.,1.));
#183=DIRECTION('',(-1.,0.,0.));
#184=DIRECTION('',(-5.07045259598523E-17,0.,1.));
#185=DIRECTION('',(-1.,0.,0.));
#186=DIRECTION('',(0.,0.,1.));
#187=DIRECTION('',(-1.,0.,0.));
#188=DIRECTION('',(0.,0.,1.));
#189=DIRECTION('',(-1.,0.,0.));
#190=DIRECTION('',(0.,0.,1.));
#191=DIRECTION('',(1.,0.,0.));
#192=DIRECTION('',(2.37898026979453E-17,0.,-1.));
#193=DIRECTION('',(-1.,0.,0.));
#194=DIRECTION('',(0.,0.,1.));
#195=DIRECTION('',(-1.,0.,0.));
#196=DIRECTION('',(0.,0.,1.));
#197=DIRECTION('',(-1.,6.12323399573677E-17,0.));
#198=DIRECTION('',(0.,1.,0.));
#199=DIRECTION('',(-1.,0.,0.));
#200=DIRECTION('',(0.,0.,1.));
#201=DIRECTION('',(-1.,0.,0.));
#202=DIRECTION('',(0.,0.,1.));
#203=DIRECTION('',(-1.,0.,0.));
#204=DIRECTION('',(0.,0.,1.));
#205=DIRECTION('',(-1.,0.,0.));
#206=DIRECTION('',(0.,0.,1.));
#207=DIRECTION('',(-1.,0.,0.));
#208=DIRECTION('',(0.,0.,1.));
#209=CARTESIAN_POINT('',(0.,0.,0.));
#210=CARTESIAN_POINT('',(6.,0.,0.));
#211=CARTESIAN_POINT('',(12.,0.,0.));
#212=CARTESIAN_POINT('',(0.,0.,0.));
#213=CARTESIAN_POINT('',(6.,0.,0.));
#214=CARTESIAN_POINT('',(6.,0.,0.));
#215=CARTESIAN_POINT('',(6.,0.,0.));
#216=CARTESIAN_POINT('',(115.066987298108,0.,0.));
#217=CARTESIAN_POINT('',(115.066987298108,0.,6.));
#218=CARTESIAN_POINT('',(116.,0.,0.));
#219=CARTESIAN_POINT('',(116.,0.,5.75));
#220=CARTESIAN_POINT('',(116.,0.,0.));
#221=CARTESIAN_POINT('',(35.6928203230275,0.,0.));
#222=CARTESIAN_POINT('',(35.6928203230275,0.,6.));
#223=CARTESIAN_POINT('',(0.,0.,0.));
#224=CARTESIAN_POINT('',(35.,0.,0.));
#225=CARTESIAN_POINT('',(35.,0.,5.6));
#226=CARTESIAN_POINT('',(35.6928203230275,0.,0.));
#227=CARTESIAN_POINT('',(6.,0.,0.));
#228=CARTESIAN_POINT('',(6.,0.,5.6));
#229=CARTESIAN_POINT('',(0.,0.,0.));
#230=CARTESIAN_POINT('',(6.,0.,0.));
#231=CARTESIAN_POINT('',(120.,0.,0.));
#232=CARTESIAN_POINT('',(120.,0.,4.75));
#233=CARTESIAN_POINT('',(120.,4.75,0.));
#234=CARTESIAN_POINT('',(119.,0.,0.));
#235=CARTESIAN_POINT('',(119.,0.,5.75));
#236=CARTESIAN_POINT('',(119.,0.,0.));
#237=CARTESIAN_POINT('',(0.,0.,0.));
#238=MECHANICAL_DESIGN_GEOMETRIC_PRESENTATION_REPRESENTATION('',(#52,#53),
#239);
#239=(
GEOMETRIC_REPRESENTATION_CONTEXT(3)
GLOBAL_UNCERTAINTY_ASSIGNED_CONTEXT((#240))
GLOBAL_UNIT_ASSIGNED_CONTEXT((#246,#242,#241))
REPRESENTATION_CONTEXT('APMR-RO12-D12-C12-L120',
'TOP_LEVEL_ASSEMBLY_PART')
);
#240=UNCERTAINTY_MEASURE_WITH_UNIT(LENGTH_MEASURE(2.E-5),#246,
'DISTANCE_ACCURACY_VALUE','Maximum Tolerance applied to model');
#241=(
NAMED_UNIT(*)
SI_UNIT($,.STERADIAN.)
SOLID_ANGLE_UNIT()
);
#242=(
CONVERSION_BASED_UNIT('DEGREE',#244)
NAMED_UNIT(#243)
PLANE_ANGLE_UNIT()
);
#243=DIMENSIONAL_EXPONENTS(0.,0.,0.,0.,0.,0.,0.);
#244=PLANE_ANGLE_MEASURE_WITH_UNIT(PLANE_ANGLE_MEASURE(0.0174532925),#245);
#245=(
NAMED_UNIT(*)
PLANE_ANGLE_UNIT()
SI_UNIT($,.RADIAN.)
);
#246=(
LENGTH_UNIT()
NAMED_UNIT(*)
SI_UNIT(.MILLI.,.METRE.)
);
ENDSEC;
END-ISO-10303-21;
