ISO-10303-21;
HEADER;
/* Generated by software containing ST-Developer
 * from STEP Tools, Inc. (www.steptools.com) 
 */
/* OPTION: using custom schema-name function */

FILE_DESCRIPTION(
/* description */ (''),
/* implementation_level */ '2;1');

FILE_NAME(
/* name */ 'APMR-RO12-D12-C16-L160.stp',
/* time_stamp */ '2023-10-02T10:11:24+03:00',
/* author */ (''),
/* organization */ (''),
/* preprocessor_version */ 'ST-DEVELOPER v19.4',
/* originating_system */ 'SIEMENS PLM Software NX2306.5001',
/* authorisation */ '');

FILE_SCHEMA (('AUTOMOTIVE_DESIGN { 1 0 10303 214 3 1 1 1 }'));
ENDSEC;

DATA;
#10=PROPERTY_DEFINITION_REPRESENTATION(#14,#12);
#11=PROPERTY_DEFINITION_REPRESENTATION(#15,#13);
#12=REPRESENTATION('',(#16),#282);
#13=REPRESENTATION('',(#17),#282);
#14=PROPERTY_DEFINITION('pmi validation property','',#21);
#15=PROPERTY_DEFINITION('pmi validation property','',#21);
#16=VALUE_REPRESENTATION_ITEM('number of annotations',COUNT_MEASURE(0.));
#17=VALUE_REPRESENTATION_ITEM('number of views',COUNT_MEASURE(0.));
#18=SHAPE_REPRESENTATION_RELATIONSHIP('None',
'relationship between APMR-RO12-D12-C16-L160-LIGHT_x_t_objects-None an
d APMR-RO12-D12-C16-L160-LIGHT_x_t_objects-None',#30,#19);
#19=ADVANCED_BREP_SHAPE_REPRESENTATION(
'APMR-RO12-D12-C16-L160-LIGHT_x_t_objects-None',(#107,#108),#282);
#20=SHAPE_DEFINITION_REPRESENTATION(#21,#30);
#21=PRODUCT_DEFINITION_SHAPE('','',#22);
#22=PRODUCT_DEFINITION(' ','',#24,#23);
#23=PRODUCT_DEFINITION_CONTEXT('part definition',#29,'design');
#24=PRODUCT_DEFINITION_FORMATION_WITH_SPECIFIED_SOURCE(' ',' ',#26,
 .NOT_KNOWN.);
#25=PRODUCT_RELATED_PRODUCT_CATEGORY('part','',(#26));
#26=PRODUCT('APMR-RO12-D12-C16-L160-LIGHT_x_t_objects',
'APMR-RO12-D12-C16-L160-LIGHT_x_t_objects',' ',(#27));
#27=PRODUCT_CONTEXT(' ',#29,'mechanical');
#28=APPLICATION_PROTOCOL_DEFINITION('international standard',
'automotive_design',2010,#29);
#29=APPLICATION_CONTEXT(
'core data for automotive mechanical design processes');
#30=SHAPE_REPRESENTATION(
'APMR-RO12-D12-C16-L160-LIGHT_x_t_objects-None',(#150),#282);
#31=COLOUR_RGB('silver gray',0.6,0.6,0.6);
#32=TOROIDAL_SURFACE('',#160,6.75,1.);
#33=PLANE('',#158);
#34=PLANE('',#167);
#35=SPHERICAL_SURFACE('',#156,5.6);
#36=FACE_OUTER_BOUND('',#47,.T.);
#37=FACE_OUTER_BOUND('',#48,.T.);
#38=CYLINDRICAL_SURFACE('',#155,5.6);
#39=CYLINDRICAL_SURFACE('',#162,7.75);
#40=CYLINDRICAL_SURFACE('',#166,8.);
#41=CONICAL_SURFACE('',#153,7.75,5.);
#42=CONICAL_SURFACE('',#164,7.75,15.);
#43=EDGE_LOOP('',(#59));
#44=EDGE_LOOP('',(#60));
#45=EDGE_LOOP('',(#61));
#46=EDGE_LOOP('',(#62));
#47=EDGE_LOOP('',(#63));
#48=EDGE_LOOP('',(#64));
#49=EDGE_LOOP('',(#65));
#50=EDGE_LOOP('',(#66));
#51=EDGE_LOOP('',(#67));
#52=EDGE_LOOP('',(#68));
#53=EDGE_LOOP('',(#69));
#54=EDGE_LOOP('',(#70));
#55=EDGE_LOOP('',(#71));
#56=EDGE_LOOP('',(#72));
#57=EDGE_LOOP('',(#73));
#58=EDGE_LOOP('',(#74));
#59=ORIENTED_EDGE('',*,*,#75,.F.);
#60=ORIENTED_EDGE('',*,*,#76,.T.);
#61=ORIENTED_EDGE('',*,*,#77,.F.);
#62=ORIENTED_EDGE('',*,*,#75,.T.);
#63=ORIENTED_EDGE('',*,*,#77,.T.);
#64=ORIENTED_EDGE('',*,*,#78,.F.);
#65=ORIENTED_EDGE('',*,*,#79,.F.);
#66=ORIENTED_EDGE('',*,*,#78,.T.);
#67=ORIENTED_EDGE('',*,*,#80,.F.);
#68=ORIENTED_EDGE('',*,*,#79,.T.);
#69=ORIENTED_EDGE('',*,*,#81,.F.);
#70=ORIENTED_EDGE('',*,*,#80,.T.);
#71=ORIENTED_EDGE('',*,*,#82,.F.);
#72=ORIENTED_EDGE('',*,*,#81,.T.);
#73=ORIENTED_EDGE('',*,*,#76,.F.);
#74=ORIENTED_EDGE('',*,*,#82,.T.);
#75=EDGE_CURVE('',#142,#142,#83,.T.);
#76=EDGE_CURVE('',#143,#143,#84,.T.);
#77=EDGE_CURVE('',#144,#144,#85,.T.);
#78=EDGE_CURVE('',#145,#145,#86,.T.);
#79=EDGE_CURVE('',#146,#146,#87,.T.);
#80=EDGE_CURVE('',#147,#147,#88,.T.);
#81=EDGE_CURVE('',#148,#148,#89,.T.);
#82=EDGE_CURVE('',#149,#149,#90,.T.);
#83=CIRCLE('',#151,5.6);
#84=CIRCLE('',#152,7.75);
#85=CIRCLE('',#154,5.6);
#86=CIRCLE('',#157,6.75);
#87=CIRCLE('',#159,7.75);
#88=CIRCLE('',#161,7.75);
#89=CIRCLE('',#163,8.);
#90=CIRCLE('',#165,8.);
#91=PRESENTATION_LAYER_ASSIGNMENT('1','Layer 1',(#107,#108));
#92=STYLED_ITEM('',(#94),#107);
#93=STYLED_ITEM('',(#95),#108);
#94=PRESENTATION_STYLE_ASSIGNMENT((#96));
#95=PRESENTATION_STYLE_ASSIGNMENT((#97));
#96=SURFACE_STYLE_USAGE(.BOTH.,#98);
#97=SURFACE_STYLE_USAGE(.BOTH.,#99);
#98=SURFACE_SIDE_STYLE('',(#100));
#99=SURFACE_SIDE_STYLE('',(#101));
#100=SURFACE_STYLE_FILL_AREA(#102);
#101=SURFACE_STYLE_FILL_AREA(#103);
#102=FILL_AREA_STYLE('',(#104));
#103=FILL_AREA_STYLE('',(#105));
#104=FILL_AREA_STYLE_COLOUR('',#106);
#105=FILL_AREA_STYLE_COLOUR('',#31);
#106=DRAUGHTING_PRE_DEFINED_COLOUR('yellow');
#107=MANIFOLD_SOLID_BREP('',#109);
#108=MANIFOLD_SOLID_BREP('',#110);
#109=CLOSED_SHELL('',(#111));
#110=CLOSED_SHELL('',(#112,#113,#114,#115,#116,#117,#118,#119,#120));
#111=ADVANCED_FACE('',(#122,#123),#121,.T.);
#112=ADVANCED_FACE('',(#124,#125),#41,.T.);
#113=ADVANCED_FACE('',(#126,#127),#38,.T.);
#114=ADVANCED_FACE('',(#36),#35,.T.);
#115=ADVANCED_FACE('',(#37),#33,.F.);
#116=ADVANCED_FACE('',(#128,#129),#32,.T.);
#117=ADVANCED_FACE('',(#130,#131),#39,.T.);
#118=ADVANCED_FACE('',(#132,#133),#42,.T.);
#119=ADVANCED_FACE('',(#134,#135),#40,.T.);
#120=ADVANCED_FACE('',(#136,#137),#34,.F.);
#121=(
BOUNDED_SURFACE()
B_SPLINE_SURFACE(3,3,((#207,#208,#209,#210,#211,#212,#213),(#214,#215,#216,
#217,#218,#219,#220),(#221,#222,#223,#224,#225,#226,#227),(#228,#229,#230,
#231,#232,#233,#234),(#235,#236,#237,#238,#239,#240,#241),(#242,#243,#244,
#245,#246,#247,#248),(#249,#250,#251,#252,#253,#254,#255)),
 .UNSPECIFIED.,.F.,.T.,.F.)
B_SPLINE_SURFACE_WITH_KNOTS((4,3,4),(1,3,3,3,1),(0.,0.5,1.),(-0.5,0.,0.5,
1.,1.5),.UNSPECIFIED.)
GEOMETRIC_REPRESENTATION_ITEM()
RATIONAL_B_SPLINE_SURFACE(((1.,0.333333333333333,0.333333333333333,1.,0.333333333333333,
0.333333333333333,1.),(0.804525755787454,0.268175251929151,0.268175251929151,
0.804525755787454,0.268175251929151,0.268175251929151,0.804525755787454),
(0.804525755787454,0.268175251929151,0.268175251929151,0.804525755787454,
0.268175251929151,0.268175251929151,0.804525755787454),(1.,0.333333333333333,
0.333333333333333,1.,0.333333333333333,0.333333333333333,1.),(0.804525755787454,
0.268175251929151,0.268175251929151,0.804525755787454,0.268175251929151,
0.268175251929151,0.804525755787454),(0.804525755787454,0.268175251929151,
0.268175251929151,0.804525755787454,0.268175251929151,0.268175251929151,
0.804525755787454),(1.,0.333333333333333,0.333333333333333,1.,0.333333333333333,
0.333333333333333,1.)))
REPRESENTATION_ITEM('')
SURFACE()
);
#122=FACE_BOUND('',#138,.T.);
#123=FACE_BOUND('',#139,.T.);
#124=FACE_BOUND('',#43,.T.);
#125=FACE_BOUND('',#44,.T.);
#126=FACE_BOUND('',#45,.T.);
#127=FACE_BOUND('',#46,.T.);
#128=FACE_BOUND('',#49,.T.);
#129=FACE_BOUND('',#50,.T.);
#130=FACE_BOUND('',#51,.T.);
#131=FACE_BOUND('',#52,.T.);
#132=FACE_BOUND('',#53,.T.);
#133=FACE_BOUND('',#54,.T.);
#134=FACE_BOUND('',#55,.T.);
#135=FACE_BOUND('',#56,.T.);
#136=FACE_BOUND('',#57,.T.);
#137=FACE_BOUND('',#58,.T.);
#138=VERTEX_LOOP('',#140);
#139=VERTEX_LOOP('',#141);
#140=VERTEX_POINT('',#205);
#141=VERTEX_POINT('',#206);
#142=VERTEX_POINT('',#257);
#143=VERTEX_POINT('',#259);
#144=VERTEX_POINT('',#262);
#145=VERTEX_POINT('',#266);
#146=VERTEX_POINT('',#269);
#147=VERTEX_POINT('',#272);
#148=VERTEX_POINT('',#275);
#149=VERTEX_POINT('',#278);
#150=AXIS2_PLACEMENT_3D('',#204,#168,#169);
#151=AXIS2_PLACEMENT_3D('',#256,#170,#171);
#152=AXIS2_PLACEMENT_3D('',#258,#172,#173);
#153=AXIS2_PLACEMENT_3D('',#260,#174,#175);
#154=AXIS2_PLACEMENT_3D('',#261,#176,#177);
#155=AXIS2_PLACEMENT_3D('',#263,#178,#179);
#156=AXIS2_PLACEMENT_3D('',#264,#180,#181);
#157=AXIS2_PLACEMENT_3D('',#265,#182,#183);
#158=AXIS2_PLACEMENT_3D('',#267,#184,#185);
#159=AXIS2_PLACEMENT_3D('',#268,#186,#187);
#160=AXIS2_PLACEMENT_3D('',#270,#188,#189);
#161=AXIS2_PLACEMENT_3D('',#271,#190,#191);
#162=AXIS2_PLACEMENT_3D('',#273,#192,#193);
#163=AXIS2_PLACEMENT_3D('',#274,#194,#195);
#164=AXIS2_PLACEMENT_3D('',#276,#196,#197);
#165=AXIS2_PLACEMENT_3D('',#277,#198,#199);
#166=AXIS2_PLACEMENT_3D('',#279,#200,#201);
#167=AXIS2_PLACEMENT_3D('',#280,#202,#203);
#168=DIRECTION('',(0.,0.,1.));
#169=DIRECTION('',(1.,0.,0.));
#170=DIRECTION('',(-1.,0.,0.));
#171=DIRECTION('',(0.,0.,1.));
#172=DIRECTION('',(-1.,0.,0.));
#173=DIRECTION('',(0.,0.,1.));
#174=DIRECTION('',(1.,0.,0.));
#175=DIRECTION('',(4.37147707476079E-16,0.,-1.));
#176=DIRECTION('',(-1.,0.,0.));
#177=DIRECTION('',(0.,0.,1.));
#178=DIRECTION('',(-1.,0.,0.));
#179=DIRECTION('',(0.,0.,1.));
#180=DIRECTION('',(-1.,6.12323399573677E-17,0.));
#181=DIRECTION('',(0.,1.,0.));
#182=DIRECTION('',(-1.,0.,0.));
#183=DIRECTION('',(0.,0.,1.));
#184=DIRECTION('',(-1.,0.,0.));
#185=DIRECTION('',(0.,0.,1.));
#186=DIRECTION('',(-1.,0.,0.));
#187=DIRECTION('',(0.,0.,1.));
#188=DIRECTION('',(-1.,0.,0.));
#189=DIRECTION('',(0.,0.,1.));
#190=DIRECTION('',(-1.,0.,0.));
#191=DIRECTION('',(0.,0.,1.));
#192=DIRECTION('',(-1.,0.,0.));
#193=DIRECTION('',(0.,0.,1.));
#194=DIRECTION('',(-1.,0.,0.));
#195=DIRECTION('',(0.,0.,1.));
#196=DIRECTION('',(-1.,0.,0.));
#197=DIRECTION('',(1.00673401945358E-16,0.,1.));
#198=DIRECTION('',(-1.,0.,0.));
#199=DIRECTION('',(0.,0.,1.));
#200=DIRECTION('',(-1.,0.,0.));
#201=DIRECTION('',(0.,0.,1.));
#202=DIRECTION('',(1.,0.,0.));
#203=DIRECTION('',(0.,0.,-1.));
#204=CARTESIAN_POINT('',(0.,0.,0.));
#205=CARTESIAN_POINT('',(9.71254075169542E-6,-0.0107958508091801,0.));
#206=CARTESIAN_POINT('',(12.,7.34788079488412E-16,0.));
#207=CARTESIAN_POINT('',(9.71254075603223E-6,-0.0107958508091794,0.));
#208=CARTESIAN_POINT('',(9.71254075603223E-6,-0.0107958508091794,-1.4639391670371E-15));
#209=CARTESIAN_POINT('',(9.71254075310115E-6,-0.0107958508091809,-1.46490785905511E-15));
#210=CARTESIAN_POINT('',(9.71254075310115E-6,-0.0107958508091809,0.));
#211=CARTESIAN_POINT('',(9.71254075310115E-6,-0.0107958508091809,1.46281355407455E-15));
#212=CARTESIAN_POINT('',(9.71254075016744E-6,-0.0107958508091794,1.46642164828327E-15));
#213=CARTESIAN_POINT('',(9.71254075603223E-6,-0.0107958508091794,0.));
#214=CARTESIAN_POINT('',(9.71254075603223E-6,-3.5280221448026,0.));
#215=CARTESIAN_POINT('',(9.71254075603223E-6,-3.5280221448026,7.03444974121928));
#216=CARTESIAN_POINT('',(-0.00631886251459374,3.50642474965028,7.03444974121928));
#217=CARTESIAN_POINT('',(-0.00631886251459374,3.50642474965028,0.));
#218=CARTESIAN_POINT('',(-0.00631886251459374,3.50642474965028,-7.03444974121928));
#219=CARTESIAN_POINT('',(9.71254075016398E-6,-3.5280221448026,-7.03444974121928));
#220=CARTESIAN_POINT('',(9.71254075603223E-6,-3.5280221448026,0.));
#221=CARTESIAN_POINT('',(2.48818276952019,-6.01395771148173,0.));
#222=CARTESIAN_POINT('',(2.48818276952019,-6.01395771148173,12.0107958551781));
#223=CARTESIAN_POINT('',(2.47737720180129,5.99683328305609,12.0107958551781));
#224=CARTESIAN_POINT('',(2.47737720180129,5.99683328305609,0.));
#225=CARTESIAN_POINT('',(2.47737720180129,5.99683328305609,-12.0107958551781));
#226=CARTESIAN_POINT('',(2.48818276952019,-6.01395771148173,-12.0107958551781));
#227=CARTESIAN_POINT('',(2.48818276952019,-6.01395771148173,0.));
#228=CARTESIAN_POINT('',(6.00540764012983,-6.0107934226735,0.));
#229=CARTESIAN_POINT('',(6.00540764012983,-6.0107934226735,12.0107958551781));
#230=CARTESIAN_POINT('',(5.99460207241093,5.99999757186432,12.0107958551781));
#231=CARTESIAN_POINT('',(5.99460207241093,5.99999757186432,0.));
#232=CARTESIAN_POINT('',(5.99460207241093,5.99999757186432,-12.0107958551781));
#233=CARTESIAN_POINT('',(6.00540764012983,-6.0107934226735,-12.0107958551781));
#234=CARTESIAN_POINT('',(6.00540764012983,-6.0107934226735,0.));
#235=CARTESIAN_POINT('',(9.52263251073947,-6.00762913386527,0.));
#236=CARTESIAN_POINT('',(9.52263251073947,-6.00762913386527,12.0107958551781));
#237=CARTESIAN_POINT('',(9.51182694302057,6.00316186067254,12.0107958551781));
#238=CARTESIAN_POINT('',(9.51182694302057,6.00316186067254,0.));
#239=CARTESIAN_POINT('',(9.51182694302057,6.00316186067254,-12.0107958551781));
#240=CARTESIAN_POINT('',(9.52263251073948,-6.00762913386527,-12.0107958551781));
#241=CARTESIAN_POINT('',(9.52263251073947,-6.00762913386527,0.));
#242=CARTESIAN_POINT('',(12.0063285750553,-3.51722060045946,0.));
#243=CARTESIAN_POINT('',(12.0063285750553,-3.51722060045946,7.03444974121928));
#244=CARTESIAN_POINT('',(12.,3.51722629399341,7.03444974121928));
#245=CARTESIAN_POINT('',(12.,3.51722629399341,0.));
#246=CARTESIAN_POINT('',(12.,3.51722629399341,-7.03444974121928));
#247=CARTESIAN_POINT('',(12.0063285750554,-3.51722060045946,-7.03444974121928));
#248=CARTESIAN_POINT('',(12.0063285750553,-3.51722060045946,0.));
#249=CARTESIAN_POINT('',(12.,9.99498877760074E-17,0.));
#250=CARTESIAN_POINT('',(12.,9.99498877760074E-17,1.28606232009858E-15));
#251=CARTESIAN_POINT('',(12.,1.39252216528607E-15,1.29283858093433E-15));
#252=CARTESIAN_POINT('',(12.,1.39252216528607E-15,0.));
#253=CARTESIAN_POINT('',(12.,1.39252216528607E-15,-1.2923049279055E-15));
#254=CARTESIAN_POINT('',(12.,1.05032085459533E-16,-1.28891679748763E-15));
#255=CARTESIAN_POINT('',(12.,9.99498877760074E-17,0.));
#256=CARTESIAN_POINT('',(25.4253875490631,0.,0.));
#257=CARTESIAN_POINT('',(25.4253875490631,0.,5.6));
#258=CARTESIAN_POINT('',(50.,0.,0.));
#259=CARTESIAN_POINT('',(50.,0.,7.75));
#260=CARTESIAN_POINT('',(50.,0.,0.));
#261=CARTESIAN_POINT('',(6.,0.,0.));
#262=CARTESIAN_POINT('',(6.,0.,5.6));
#263=CARTESIAN_POINT('',(0.,0.,0.));
#264=CARTESIAN_POINT('',(6.,0.,0.));
#265=CARTESIAN_POINT('',(160.,0.,0.));
#266=CARTESIAN_POINT('',(160.,0.,6.75));
#267=CARTESIAN_POINT('',(160.,6.75,0.));
#268=CARTESIAN_POINT('',(159.,0.,0.));
#269=CARTESIAN_POINT('',(159.,0.,7.75));
#270=CARTESIAN_POINT('',(159.,0.,0.));
#271=CARTESIAN_POINT('',(156.,0.,0.));
#272=CARTESIAN_POINT('',(156.,0.,7.75));
#273=CARTESIAN_POINT('',(0.,0.,0.));
#274=CARTESIAN_POINT('',(155.066987298108,0.,0.));
#275=CARTESIAN_POINT('',(155.066987298108,0.,8.));
#276=CARTESIAN_POINT('',(156.,0.,0.));
#277=CARTESIAN_POINT('',(50.,0.,0.));
#278=CARTESIAN_POINT('',(50.,0.,8.));
#279=CARTESIAN_POINT('',(0.,0.,0.));
#280=CARTESIAN_POINT('',(50.,8.,0.));
#281=MECHANICAL_DESIGN_GEOMETRIC_PRESENTATION_REPRESENTATION('',(#92,#93),
#282);
#282=(
GEOMETRIC_REPRESENTATION_CONTEXT(3)
GLOBAL_UNCERTAINTY_ASSIGNED_CONTEXT((#283))
GLOBAL_UNIT_ASSIGNED_CONTEXT((#289,#285,#284))
REPRESENTATION_CONTEXT('APMR-RO12-D12-C16-L160',
'TOP_LEVEL_ASSEMBLY_PART')
);
#283=UNCERTAINTY_MEASURE_WITH_UNIT(LENGTH_MEASURE(0.0254),#289,
'DISTANCE_ACCURACY_VALUE','Maximum Tolerance applied to model');
#284=(
NAMED_UNIT(*)
SI_UNIT($,.STERADIAN.)
SOLID_ANGLE_UNIT()
);
#285=(
CONVERSION_BASED_UNIT('DEGREE',#287)
NAMED_UNIT(#286)
PLANE_ANGLE_UNIT()
);
#286=DIMENSIONAL_EXPONENTS(0.,0.,0.,0.,0.,0.,0.);
#287=PLANE_ANGLE_MEASURE_WITH_UNIT(PLANE_ANGLE_MEASURE(0.0174532925),#288);
#288=(
NAMED_UNIT(*)
PLANE_ANGLE_UNIT()
SI_UNIT($,.RADIAN.)
);
#289=(
LENGTH_UNIT()
NAMED_UNIT(*)
SI_UNIT(.MILLI.,.METRE.)
);
ENDSEC;
END-ISO-10303-21;
