ISO-10303-21;
HEADER;
/* Generated by software containing ST-Developer
 * from STEP Tools, Inc. (www.steptools.com) 
 */
/* OPTION: using custom schema-name function */

FILE_DESCRIPTION(
/* description */ (''),
/* implementation_level */ '2;1');

FILE_NAME(
/* name */ 'APMR-RO16-D16-C16-L160.stp',
/* time_stamp */ '2023-10-02T09:29:52+03:00',
/* author */ (''),
/* organization */ (''),
/* preprocessor_version */ 'ST-DEVELOPER v19.4',
/* originating_system */ 'SIEMENS PLM Software NX2306.5001',
/* authorisation */ '');

FILE_SCHEMA (('AUTOMOTIVE_DESIGN { 1 0 10303 214 3 1 1 1 }'));
ENDSEC;

DATA;
#10=PROPERTY_DEFINITION_REPRESENTATION(#14,#12);
#11=PROPERTY_DEFINITION_REPRESENTATION(#15,#13);
#12=REPRESENTATION('',(#16),#305);
#13=REPRESENTATION('',(#17),#305);
#14=PROPERTY_DEFINITION('pmi validation property','',#21);
#15=PROPERTY_DEFINITION('pmi validation property','',#21);
#16=VALUE_REPRESENTATION_ITEM('number of annotations',COUNT_MEASURE(0.));
#17=VALUE_REPRESENTATION_ITEM('number of views',COUNT_MEASURE(0.));
#18=SHAPE_REPRESENTATION_RELATIONSHIP('None',
'relationship between APMR-RO16-D16-C16-L160-LIGHT_x_t_objects-None an
d APMR-RO16-D16-C16-L160-LIGHT_x_t_objects-None',#30,#19);
#19=ADVANCED_BREP_SHAPE_REPRESENTATION(
'APMR-RO16-D16-C16-L160-LIGHT_x_t_objects-None',(#64,#65),#305);
#20=SHAPE_DEFINITION_REPRESENTATION(#21,#30);
#21=PRODUCT_DEFINITION_SHAPE('','',#22);
#22=PRODUCT_DEFINITION(' ','',#24,#23);
#23=PRODUCT_DEFINITION_CONTEXT('part definition',#29,'design');
#24=PRODUCT_DEFINITION_FORMATION_WITH_SPECIFIED_SOURCE(' ',' ',#26,
 .NOT_KNOWN.);
#25=PRODUCT_RELATED_PRODUCT_CATEGORY('part','',(#26));
#26=PRODUCT('APMR-RO16-D16-C16-L160-LIGHT_x_t_objects',
'APMR-RO16-D16-C16-L160-LIGHT_x_t_objects',' ',(#27));
#27=PRODUCT_CONTEXT(' ',#29,'mechanical');
#28=APPLICATION_PROTOCOL_DEFINITION('international standard',
'automotive_design',2010,#29);
#29=APPLICATION_CONTEXT(
'core data for automotive mechanical design processes');
#30=SHAPE_REPRESENTATION(
'APMR-RO16-D16-C16-L160-LIGHT_x_t_objects-None',(#185),#305);
#31=COLOUR_RGB('silver gray',0.6,0.6,0.6);
#32=TOROIDAL_SURFACE('',#209,6.75,1.);
#33=PLANE('',#202);
#34=PLANE('',#207);
#35=CONICAL_SURFACE('',#198,7.75,15.);
#36=FACE_BOUND('',#102,.T.);
#37=FACE_BOUND('',#103,.T.);
#38=FACE_BOUND('',#104,.T.);
#39=FACE_BOUND('',#105,.T.);
#40=FACE_BOUND('',#106,.T.);
#41=FACE_BOUND('',#107,.T.);
#42=FACE_BOUND('',#108,.T.);
#43=FACE_BOUND('',#109,.T.);
#44=FACE_BOUND('',#112,.T.);
#45=FACE_BOUND('',#113,.T.);
#46=FACE_BOUND('',#114,.T.);
#47=FACE_BOUND('',#115,.T.);
#48=PRESENTATION_LAYER_ASSIGNMENT('1','Layer 1',(#64,#65));
#49=STYLED_ITEM('',(#51),#64);
#50=STYLED_ITEM('',(#52),#65);
#51=PRESENTATION_STYLE_ASSIGNMENT((#53));
#52=PRESENTATION_STYLE_ASSIGNMENT((#54));
#53=SURFACE_STYLE_USAGE(.BOTH.,#55);
#54=SURFACE_STYLE_USAGE(.BOTH.,#56);
#55=SURFACE_SIDE_STYLE('',(#57));
#56=SURFACE_SIDE_STYLE('',(#58));
#57=SURFACE_STYLE_FILL_AREA(#59);
#58=SURFACE_STYLE_FILL_AREA(#60);
#59=FILL_AREA_STYLE('',(#61));
#60=FILL_AREA_STYLE('',(#62));
#61=FILL_AREA_STYLE_COLOUR('',#63);
#62=FILL_AREA_STYLE_COLOUR('',#31);
#63=DRAUGHTING_PRE_DEFINED_COLOUR('yellow');
#64=MANIFOLD_SOLID_BREP('',#66);
#65=MANIFOLD_SOLID_BREP('',#67);
#66=CLOSED_SHELL('',(#77,#78,#79,#80));
#67=CLOSED_SHELL('',(#81,#82,#83,#84,#85,#86,#87,#88));
#68=CYLINDRICAL_SURFACE('',#194,0.0115281369692842);
#69=CYLINDRICAL_SURFACE('',#195,0.0115281369692842);
#70=CYLINDRICAL_SURFACE('',#200,8.);
#71=CYLINDRICAL_SURFACE('',#204,7.55);
#72=CYLINDRICAL_SURFACE('',#210,7.75);
#73=LINE('',#278,#75);
#74=LINE('',#279,#76);
#75=VECTOR('',#229,1.);
#76=VECTOR('',#230,1.);
#77=ADVANCED_FACE('',(#92),#89,.T.);
#78=ADVANCED_FACE('',(#93),#90,.T.);
#79=ADVANCED_FACE('',(#94),#68,.F.);
#80=ADVANCED_FACE('',(#95),#69,.F.);
#81=ADVANCED_FACE('',(#36,#37),#35,.T.);
#82=ADVANCED_FACE('',(#38,#39),#70,.T.);
#83=ADVANCED_FACE('',(#40,#41),#33,.F.);
#84=ADVANCED_FACE('',(#42,#43),#71,.T.);
#85=ADVANCED_FACE('',(#96),#91,.T.);
#86=ADVANCED_FACE('',(#97),#34,.F.);
#87=ADVANCED_FACE('',(#44,#45),#32,.T.);
#88=ADVANCED_FACE('',(#46,#47),#72,.T.);
#89=SPHERICAL_SURFACE('',#190,8.);
#90=SPHERICAL_SURFACE('',#193,8.);
#91=SPHERICAL_SURFACE('',#205,7.55);
#92=FACE_OUTER_BOUND('',#98,.T.);
#93=FACE_OUTER_BOUND('',#99,.T.);
#94=FACE_OUTER_BOUND('',#100,.T.);
#95=FACE_OUTER_BOUND('',#101,.T.);
#96=FACE_OUTER_BOUND('',#110,.T.);
#97=FACE_OUTER_BOUND('',#111,.T.);
#98=EDGE_LOOP('',(#116,#117,#118,#119));
#99=EDGE_LOOP('',(#120,#121,#122,#123));
#100=EDGE_LOOP('',(#124,#125,#126,#127));
#101=EDGE_LOOP('',(#128,#129,#130,#131));
#102=EDGE_LOOP('',(#132));
#103=EDGE_LOOP('',(#133));
#104=EDGE_LOOP('',(#134));
#105=EDGE_LOOP('',(#135));
#106=EDGE_LOOP('',(#136));
#107=EDGE_LOOP('',(#137));
#108=EDGE_LOOP('',(#138));
#109=EDGE_LOOP('',(#139));
#110=EDGE_LOOP('',(#140));
#111=EDGE_LOOP('',(#141));
#112=EDGE_LOOP('',(#142));
#113=EDGE_LOOP('',(#143));
#114=EDGE_LOOP('',(#144));
#115=EDGE_LOOP('',(#145));
#116=ORIENTED_EDGE('',*,*,#157,.T.);
#117=ORIENTED_EDGE('',*,*,#158,.F.);
#118=ORIENTED_EDGE('',*,*,#159,.T.);
#119=ORIENTED_EDGE('',*,*,#160,.F.);
#120=ORIENTED_EDGE('',*,*,#161,.F.);
#121=ORIENTED_EDGE('',*,*,#157,.F.);
#122=ORIENTED_EDGE('',*,*,#162,.F.);
#123=ORIENTED_EDGE('',*,*,#159,.F.);
#124=ORIENTED_EDGE('',*,*,#163,.T.);
#125=ORIENTED_EDGE('',*,*,#162,.T.);
#126=ORIENTED_EDGE('',*,*,#164,.T.);
#127=ORIENTED_EDGE('',*,*,#161,.T.);
#128=ORIENTED_EDGE('',*,*,#164,.F.);
#129=ORIENTED_EDGE('',*,*,#160,.T.);
#130=ORIENTED_EDGE('',*,*,#163,.F.);
#131=ORIENTED_EDGE('',*,*,#158,.T.);
#132=ORIENTED_EDGE('',*,*,#165,.F.);
#133=ORIENTED_EDGE('',*,*,#166,.T.);
#134=ORIENTED_EDGE('',*,*,#167,.F.);
#135=ORIENTED_EDGE('',*,*,#165,.T.);
#136=ORIENTED_EDGE('',*,*,#168,.F.);
#137=ORIENTED_EDGE('',*,*,#167,.T.);
#138=ORIENTED_EDGE('',*,*,#169,.F.);
#139=ORIENTED_EDGE('',*,*,#168,.T.);
#140=ORIENTED_EDGE('',*,*,#169,.T.);
#141=ORIENTED_EDGE('',*,*,#170,.F.);
#142=ORIENTED_EDGE('',*,*,#171,.F.);
#143=ORIENTED_EDGE('',*,*,#170,.T.);
#144=ORIENTED_EDGE('',*,*,#166,.F.);
#145=ORIENTED_EDGE('',*,*,#171,.T.);
#146=VERTEX_POINT('',#267);
#147=VERTEX_POINT('',#268);
#148=VERTEX_POINT('',#270);
#149=VERTEX_POINT('',#272);
#150=VERTEX_POINT('',#283);
#151=VERTEX_POINT('',#285);
#152=VERTEX_POINT('',#288);
#153=VERTEX_POINT('',#291);
#154=VERTEX_POINT('',#294);
#155=VERTEX_POINT('',#298);
#156=VERTEX_POINT('',#301);
#157=EDGE_CURVE('',#146,#147,#172,.T.);
#158=EDGE_CURVE('',#148,#147,#173,.T.);
#159=EDGE_CURVE('',#148,#149,#174,.T.);
#160=EDGE_CURVE('',#146,#149,#175,.T.);
#161=EDGE_CURVE('',#147,#148,#176,.T.);
#162=EDGE_CURVE('',#149,#146,#177,.T.);
#163=EDGE_CURVE('',#148,#149,#73,.T.);
#164=EDGE_CURVE('',#146,#147,#74,.T.);
#165=EDGE_CURVE('',#150,#150,#178,.T.);
#166=EDGE_CURVE('',#151,#151,#179,.T.);
#167=EDGE_CURVE('',#152,#152,#180,.T.);
#168=EDGE_CURVE('',#153,#153,#181,.T.);
#169=EDGE_CURVE('',#154,#154,#182,.T.);
#170=EDGE_CURVE('',#155,#155,#183,.T.);
#171=EDGE_CURVE('',#156,#156,#184,.T.);
#172=CIRCLE('',#186,8.);
#173=CIRCLE('',#187,0.0115281369692842);
#174=CIRCLE('',#188,8.);
#175=CIRCLE('',#189,0.0115281369692842);
#176=CIRCLE('',#191,0.0115281369692842);
#177=CIRCLE('',#192,0.0115281369692842);
#178=CIRCLE('',#196,8.);
#179=CIRCLE('',#197,7.75);
#180=CIRCLE('',#199,8.);
#181=CIRCLE('',#201,7.55);
#182=CIRCLE('',#203,7.55);
#183=CIRCLE('',#206,6.75);
#184=CIRCLE('',#208,7.75);
#185=AXIS2_PLACEMENT_3D('',#265,#211,#212);
#186=AXIS2_PLACEMENT_3D('',#266,#213,#214);
#187=AXIS2_PLACEMENT_3D('',#269,#215,#216);
#188=AXIS2_PLACEMENT_3D('',#271,#217,#218);
#189=AXIS2_PLACEMENT_3D('',#273,#219,#220);
#190=AXIS2_PLACEMENT_3D('',#274,#221,#222);
#191=AXIS2_PLACEMENT_3D('',#275,#223,#224);
#192=AXIS2_PLACEMENT_3D('',#276,#225,#226);
#193=AXIS2_PLACEMENT_3D('',#277,#227,#228);
#194=AXIS2_PLACEMENT_3D('',#280,#231,#232);
#195=AXIS2_PLACEMENT_3D('',#281,#233,#234);
#196=AXIS2_PLACEMENT_3D('',#282,#235,#236);
#197=AXIS2_PLACEMENT_3D('',#284,#237,#238);
#198=AXIS2_PLACEMENT_3D('',#286,#239,#240);
#199=AXIS2_PLACEMENT_3D('',#287,#241,#242);
#200=AXIS2_PLACEMENT_3D('',#289,#243,#244);
#201=AXIS2_PLACEMENT_3D('',#290,#245,#246);
#202=AXIS2_PLACEMENT_3D('',#292,#247,#248);
#203=AXIS2_PLACEMENT_3D('',#293,#249,#250);
#204=AXIS2_PLACEMENT_3D('',#295,#251,#252);
#205=AXIS2_PLACEMENT_3D('',#296,#253,#254);
#206=AXIS2_PLACEMENT_3D('',#297,#255,#256);
#207=AXIS2_PLACEMENT_3D('',#299,#257,#258);
#208=AXIS2_PLACEMENT_3D('',#300,#259,#260);
#209=AXIS2_PLACEMENT_3D('',#302,#261,#262);
#210=AXIS2_PLACEMENT_3D('',#303,#263,#264);
#211=DIRECTION('',(0.,0.,1.));
#212=DIRECTION('',(1.,0.,0.));
#213=DIRECTION('',(0.,0.,-1.));
#214=DIRECTION('',(-1.,0.,0.));
#215=DIRECTION('',(1.,0.,0.));
#216=DIRECTION('',(0.,-1.83697019872103E-16,1.));
#217=DIRECTION('',(0.,-1.,-1.83697019872103E-16));
#218=DIRECTION('',(-1.,0.,0.));
#219=DIRECTION('',(-1.,0.,0.));
#220=DIRECTION('',(7.52386738897548E-14,-1.83697019872103E-16,1.));
#221=DIRECTION('',(1.,-1.12481983699639E-32,6.12323399573677E-17));
#222=DIRECTION('',(0.,-1.83697019872103E-16,1.));
#223=DIRECTION('',(1.,0.,0.));
#224=DIRECTION('',(0.,1.,0.));
#225=DIRECTION('',(-1.,0.,0.));
#226=DIRECTION('',(7.52386738897548E-14,1.,0.));
#227=DIRECTION('',(1.,6.12323399573677E-17,0.));
#228=DIRECTION('',(0.,1.,0.));
#229=DIRECTION('',(-1.,0.,0.));
#230=DIRECTION('',(1.,0.,0.));
#231=DIRECTION('',(1.,0.,0.));
#232=DIRECTION('',(0.,0.,-1.));
#233=DIRECTION('',(1.,0.,0.));
#234=DIRECTION('',(0.,0.,-1.));
#235=DIRECTION('',(-1.,0.,0.));
#236=DIRECTION('',(0.,0.,1.));
#237=DIRECTION('',(-1.,0.,0.));
#238=DIRECTION('',(0.,0.,1.));
#239=DIRECTION('',(-1.,0.,0.));
#240=DIRECTION('',(1.00673401945358E-16,0.,1.));
#241=DIRECTION('',(-1.,0.,0.));
#242=DIRECTION('',(0.,0.,1.));
#243=DIRECTION('',(-1.,0.,0.));
#244=DIRECTION('',(0.,0.,1.));
#245=DIRECTION('',(-1.,0.,0.));
#246=DIRECTION('',(0.,0.,1.));
#247=DIRECTION('',(1.,0.,0.));
#248=DIRECTION('',(0.,0.,-1.));
#249=DIRECTION('',(-1.,0.,0.));
#250=DIRECTION('',(0.,0.,1.));
#251=DIRECTION('',(-1.,0.,0.));
#252=DIRECTION('',(0.,0.,1.));
#253=DIRECTION('',(-1.,6.12323399573677E-17,0.));
#254=DIRECTION('',(0.,1.,0.));
#255=DIRECTION('',(-1.,0.,0.));
#256=DIRECTION('',(0.,0.,1.));
#257=DIRECTION('',(-1.,0.,0.));
#258=DIRECTION('',(0.,0.,1.));
#259=DIRECTION('',(-1.,0.,0.));
#260=DIRECTION('',(0.,0.,1.));
#261=DIRECTION('',(-1.,0.,0.));
#262=DIRECTION('',(0.,0.,1.));
#263=DIRECTION('',(-1.,0.,0.));
#264=DIRECTION('',(0.,0.,1.));
#265=CARTESIAN_POINT('',(0.,0.,0.));
#266=CARTESIAN_POINT('',(8.,0.,0.));
#267=CARTESIAN_POINT('',(8.30612568395589E-6,0.0115281369692842,0.));
#268=CARTESIAN_POINT('',(15.9999916938743,0.0115281369692842,0.));
#269=CARTESIAN_POINT('',(15.9999916938743,0.,0.));
#270=CARTESIAN_POINT('',(15.9999916938743,-1.85386581688806E-18,0.0115281369692842));
#271=CARTESIAN_POINT('',(8.,0.,0.));
#272=CARTESIAN_POINT('',(8.30612568308853E-6,-1.85386581688806E-18,0.0115281369692842));
#273=CARTESIAN_POINT('',(8.30612568308853E-6,0.,0.));
#274=CARTESIAN_POINT('',(8.,0.,0.));
#275=CARTESIAN_POINT('',(15.9999916938743,0.,0.));
#276=CARTESIAN_POINT('',(8.30612568308853E-6,0.,0.));
#277=CARTESIAN_POINT('',(8.,0.,0.));
#278=CARTESIAN_POINT('',(8.30612568395589E-6,-2.11768440593493E-18,0.0115281369692842));
#279=CARTESIAN_POINT('',(8.30612568395589E-6,0.0115281369692842,0.));
#280=CARTESIAN_POINT('',(8.,0.,0.));
#281=CARTESIAN_POINT('',(8.,0.,0.));
#282=CARTESIAN_POINT('',(155.066987298108,0.,0.));
#283=CARTESIAN_POINT('',(155.066987298108,0.,8.));
#284=CARTESIAN_POINT('',(156.,0.,0.));
#285=CARTESIAN_POINT('',(156.,0.,7.75));
#286=CARTESIAN_POINT('',(156.,0.,0.));
#287=CARTESIAN_POINT('',(45.,0.,0.));
#288=CARTESIAN_POINT('',(45.,0.,8.));
#289=CARTESIAN_POINT('',(0.,0.,0.));
#290=CARTESIAN_POINT('',(45.,0.,0.));
#291=CARTESIAN_POINT('',(45.,0.,7.55));
#292=CARTESIAN_POINT('',(45.,8.,0.));
#293=CARTESIAN_POINT('',(8.,0.,0.));
#294=CARTESIAN_POINT('',(8.,0.,7.55));
#295=CARTESIAN_POINT('',(0.,0.,0.));
#296=CARTESIAN_POINT('',(8.,0.,0.));
#297=CARTESIAN_POINT('',(160.,0.,0.));
#298=CARTESIAN_POINT('',(160.,0.,6.75));
#299=CARTESIAN_POINT('',(160.,6.75,0.));
#300=CARTESIAN_POINT('',(159.,0.,0.));
#301=CARTESIAN_POINT('',(159.,0.,7.75));
#302=CARTESIAN_POINT('',(159.,0.,0.));
#303=CARTESIAN_POINT('',(0.,0.,0.));
#304=MECHANICAL_DESIGN_GEOMETRIC_PRESENTATION_REPRESENTATION('',(#49,#50),
#305);
#305=(
GEOMETRIC_REPRESENTATION_CONTEXT(3)
GLOBAL_UNCERTAINTY_ASSIGNED_CONTEXT((#306))
GLOBAL_UNIT_ASSIGNED_CONTEXT((#312,#308,#307))
REPRESENTATION_CONTEXT('APMR-RO16-D16-C16-L160',
'TOP_LEVEL_ASSEMBLY_PART')
);
#306=UNCERTAINTY_MEASURE_WITH_UNIT(LENGTH_MEASURE(2.E-5),#312,
'DISTANCE_ACCURACY_VALUE','Maximum Tolerance applied to model');
#307=(
NAMED_UNIT(*)
SI_UNIT($,.STERADIAN.)
SOLID_ANGLE_UNIT()
);
#308=(
CONVERSION_BASED_UNIT('DEGREE',#310)
NAMED_UNIT(#309)
PLANE_ANGLE_UNIT()
);
#309=DIMENSIONAL_EXPONENTS(0.,0.,0.,0.,0.,0.,0.);
#310=PLANE_ANGLE_MEASURE_WITH_UNIT(PLANE_ANGLE_MEASURE(0.0174532925),#311);
#311=(
NAMED_UNIT(*)
PLANE_ANGLE_UNIT()
SI_UNIT($,.RADIAN.)
);
#312=(
LENGTH_UNIT()
NAMED_UNIT(*)
SI_UNIT(.MILLI.,.METRE.)
);
ENDSEC;
END-ISO-10303-21;
