ISO-10303-21;
HEADER;
/* Generated by software containing ST-Developer
 * from STEP Tools, Inc. (www.steptools.com) 
 */
/* OPTION: using custom schema-name function */

FILE_DESCRIPTION(
/* description */ (''),
/* implementation_level */ '2;1');

FILE_NAME(
/* name */ 'APMR-RO16-D16-C20-L200.stp',
/* time_stamp */ '2023-10-02T09:25:23+03:00',
/* author */ (''),
/* organization */ (''),
/* preprocessor_version */ 'ST-DEVELOPER v19.4',
/* originating_system */ 'SIEMENS PLM Software NX2306.5001',
/* authorisation */ '');

FILE_SCHEMA (('AUTOMOTIVE_DESIGN { 1 0 10303 214 3 1 1 1 }'));
ENDSEC;

DATA;
#10=PROPERTY_DEFINITION_REPRESENTATION(#14,#12);
#11=PROPERTY_DEFINITION_REPRESENTATION(#15,#13);
#12=REPRESENTATION('',(#16),#427);
#13=REPRESENTATION('',(#17),#427);
#14=PROPERTY_DEFINITION('pmi validation property','',#21);
#15=PROPERTY_DEFINITION('pmi validation property','',#21);
#16=VALUE_REPRESENTATION_ITEM('number of annotations',COUNT_MEASURE(0.));
#17=VALUE_REPRESENTATION_ITEM('number of views',COUNT_MEASURE(0.));
#18=SHAPE_REPRESENTATION_RELATIONSHIP('None',
'relationship between APMR-RO16-D16-C20-L200-LIGHT_x_t_objects-None an
d APMR-RO16-D16-C20-L200-LIGHT_x_t_objects-None',#30,#19);
#19=ADVANCED_BREP_SHAPE_REPRESENTATION(
'APMR-RO16-D16-C20-L200-LIGHT_x_t_objects-None',(#56,#57),#427);
#20=SHAPE_DEFINITION_REPRESENTATION(#21,#30);
#21=PRODUCT_DEFINITION_SHAPE('','',#22);
#22=PRODUCT_DEFINITION(' ','',#24,#23);
#23=PRODUCT_DEFINITION_CONTEXT('part definition',#29,'design');
#24=PRODUCT_DEFINITION_FORMATION_WITH_SPECIFIED_SOURCE(' ',' ',#26,
 .NOT_KNOWN.);
#25=PRODUCT_RELATED_PRODUCT_CATEGORY('part','',(#26));
#26=PRODUCT('APMR-RO16-D16-C20-L200-LIGHT_x_t_objects',
'APMR-RO16-D16-C20-L200-LIGHT_x_t_objects',' ',(#27));
#27=PRODUCT_CONTEXT(' ',#29,'mechanical');
#28=APPLICATION_PROTOCOL_DEFINITION('international standard',
'automotive_design',2010,#29);
#29=APPLICATION_CONTEXT(
'core data for automotive mechanical design processes');
#30=SHAPE_REPRESENTATION(
'APMR-RO16-D16-C20-L200-LIGHT_x_t_objects-None',(#250),#427);
#31=DRAUGHTING_PRE_DEFINED_COLOUR('yellow');
#32=LINE('',#409,#36);
#33=LINE('',#410,#37);
#34=LINE('',#418,#38);
#35=LINE('',#419,#39);
#36=VECTOR('',#342,1.);
#37=VECTOR('',#343,1.);
#38=VECTOR('',#354,1.);
#39=VECTOR('',#355,1.);
#40=PRESENTATION_LAYER_ASSIGNMENT('1','Layer 1',(#56,#57));
#41=STYLED_ITEM('',(#43),#56);
#42=STYLED_ITEM('',(#44),#57);
#43=PRESENTATION_STYLE_ASSIGNMENT((#45));
#44=PRESENTATION_STYLE_ASSIGNMENT((#46));
#45=SURFACE_STYLE_USAGE(.BOTH.,#47);
#46=SURFACE_STYLE_USAGE(.BOTH.,#48);
#47=SURFACE_SIDE_STYLE('',(#49));
#48=SURFACE_SIDE_STYLE('',(#50));
#49=SURFACE_STYLE_FILL_AREA(#51);
#50=SURFACE_STYLE_FILL_AREA(#52);
#51=FILL_AREA_STYLE('',(#53));
#52=FILL_AREA_STYLE('',(#54));
#53=FILL_AREA_STYLE_COLOUR('',#55);
#54=FILL_AREA_STYLE_COLOUR('',#31);
#55=COLOUR_RGB('silver gray',0.6,0.6,0.6);
#56=MANIFOLD_SOLID_BREP('',#58);
#57=MANIFOLD_SOLID_BREP('',#59);
#58=CLOSED_SHELL('',(#85,#86,#87,#88,#89,#90,#91,#92,#93));
#59=CLOSED_SHELL('',(#94,#95,#96,#97,#98,#99,#100,#101));
#60=TOROIDAL_SURFACE('',#262,8.75,1.);
#61=SPHERICAL_SURFACE('',#258,7.55);
#62=SPHERICAL_SURFACE('',#272,8.);
#63=SPHERICAL_SURFACE('',#275,8.);
#64=SPHERICAL_SURFACE('',#281,8.);
#65=SPHERICAL_SURFACE('',#286,8.);
#66=FACE_OUTER_BOUND('',#124,.T.);
#67=FACE_OUTER_BOUND('',#125,.T.);
#68=FACE_OUTER_BOUND('',#134,.T.);
#69=FACE_OUTER_BOUND('',#135,.T.);
#70=FACE_OUTER_BOUND('',#136,.T.);
#71=FACE_OUTER_BOUND('',#137,.T.);
#72=FACE_OUTER_BOUND('',#138,.T.);
#73=FACE_OUTER_BOUND('',#139,.T.);
#74=FACE_OUTER_BOUND('',#140,.T.);
#75=FACE_OUTER_BOUND('',#141,.T.);
#76=CYLINDRICAL_SURFACE('',#257,7.55);
#77=CYLINDRICAL_SURFACE('',#264,9.75);
#78=CYLINDRICAL_SURFACE('',#267,10.);
#79=CYLINDRICAL_SURFACE('',#277,0.0115281369692686);
#80=CYLINDRICAL_SURFACE('',#282,7.99999169387432);
#81=CYLINDRICAL_SURFACE('',#284,0.0115281369692686);
#82=CYLINDRICAL_SURFACE('',#287,7.99999169387432);
#83=CONICAL_SURFACE('',#255,9.75,4.99999999999962);
#84=CONICAL_SURFACE('',#266,9.75,15.);
#85=ADVANCED_FACE('',(#104,#105),#102,.F.);
#86=ADVANCED_FACE('',(#106,#107),#83,.T.);
#87=ADVANCED_FACE('',(#108,#109),#76,.T.);
#88=ADVANCED_FACE('',(#66),#61,.T.);
#89=ADVANCED_FACE('',(#67),#103,.F.);
#90=ADVANCED_FACE('',(#110,#111),#60,.T.);
#91=ADVANCED_FACE('',(#112,#113),#77,.T.);
#92=ADVANCED_FACE('',(#114,#115),#84,.T.);
#93=ADVANCED_FACE('',(#116,#117),#78,.T.);
#94=ADVANCED_FACE('',(#68),#62,.T.);
#95=ADVANCED_FACE('',(#69),#63,.T.);
#96=ADVANCED_FACE('',(#70),#79,.F.);
#97=ADVANCED_FACE('',(#71),#64,.T.);
#98=ADVANCED_FACE('',(#72),#80,.T.);
#99=ADVANCED_FACE('',(#73),#81,.F.);
#100=ADVANCED_FACE('',(#74),#65,.T.);
#101=ADVANCED_FACE('',(#75),#82,.T.);
#102=PLANE('',#253);
#103=PLANE('',#260);
#104=FACE_BOUND('',#118,.T.);
#105=FACE_BOUND('',#119,.T.);
#106=FACE_BOUND('',#120,.T.);
#107=FACE_BOUND('',#121,.T.);
#108=FACE_BOUND('',#122,.T.);
#109=FACE_BOUND('',#123,.T.);
#110=FACE_BOUND('',#126,.T.);
#111=FACE_BOUND('',#127,.T.);
#112=FACE_BOUND('',#128,.T.);
#113=FACE_BOUND('',#129,.T.);
#114=FACE_BOUND('',#130,.T.);
#115=FACE_BOUND('',#131,.T.);
#116=FACE_BOUND('',#132,.T.);
#117=FACE_BOUND('',#133,.T.);
#118=EDGE_LOOP('',(#142));
#119=EDGE_LOOP('',(#143));
#120=EDGE_LOOP('',(#144));
#121=EDGE_LOOP('',(#145));
#122=EDGE_LOOP('',(#146));
#123=EDGE_LOOP('',(#147));
#124=EDGE_LOOP('',(#148));
#125=EDGE_LOOP('',(#149));
#126=EDGE_LOOP('',(#150));
#127=EDGE_LOOP('',(#151));
#128=EDGE_LOOP('',(#152));
#129=EDGE_LOOP('',(#153));
#130=EDGE_LOOP('',(#154));
#131=EDGE_LOOP('',(#155));
#132=EDGE_LOOP('',(#156));
#133=EDGE_LOOP('',(#157));
#134=EDGE_LOOP('',(#158,#159,#160,#161));
#135=EDGE_LOOP('',(#162,#163,#164,#165));
#136=EDGE_LOOP('',(#166,#167,#168,#169));
#137=EDGE_LOOP('',(#170,#171,#172,#173));
#138=EDGE_LOOP('',(#174,#175,#176,#177));
#139=EDGE_LOOP('',(#178,#179,#180,#181));
#140=EDGE_LOOP('',(#182,#183,#184,#185));
#141=EDGE_LOOP('',(#186,#187,#188,#189));
#142=ORIENTED_EDGE('',*,*,#206,.F.);
#143=ORIENTED_EDGE('',*,*,#207,.T.);
#144=ORIENTED_EDGE('',*,*,#208,.F.);
#145=ORIENTED_EDGE('',*,*,#206,.T.);
#146=ORIENTED_EDGE('',*,*,#209,.F.);
#147=ORIENTED_EDGE('',*,*,#208,.T.);
#148=ORIENTED_EDGE('',*,*,#209,.T.);
#149=ORIENTED_EDGE('',*,*,#210,.F.);
#150=ORIENTED_EDGE('',*,*,#211,.F.);
#151=ORIENTED_EDGE('',*,*,#210,.T.);
#152=ORIENTED_EDGE('',*,*,#212,.F.);
#153=ORIENTED_EDGE('',*,*,#211,.T.);
#154=ORIENTED_EDGE('',*,*,#213,.F.);
#155=ORIENTED_EDGE('',*,*,#212,.T.);
#156=ORIENTED_EDGE('',*,*,#207,.F.);
#157=ORIENTED_EDGE('',*,*,#213,.T.);
#158=ORIENTED_EDGE('',*,*,#214,.F.);
#159=ORIENTED_EDGE('',*,*,#215,.T.);
#160=ORIENTED_EDGE('',*,*,#216,.F.);
#161=ORIENTED_EDGE('',*,*,#217,.F.);
#162=ORIENTED_EDGE('',*,*,#218,.F.);
#163=ORIENTED_EDGE('',*,*,#216,.T.);
#164=ORIENTED_EDGE('',*,*,#219,.T.);
#165=ORIENTED_EDGE('',*,*,#214,.T.);
#166=ORIENTED_EDGE('',*,*,#220,.F.);
#167=ORIENTED_EDGE('',*,*,#221,.F.);
#168=ORIENTED_EDGE('',*,*,#218,.T.);
#169=ORIENTED_EDGE('',*,*,#222,.F.);
#170=ORIENTED_EDGE('',*,*,#223,.F.);
#171=ORIENTED_EDGE('',*,*,#224,.F.);
#172=ORIENTED_EDGE('',*,*,#220,.T.);
#173=ORIENTED_EDGE('',*,*,#225,.F.);
#174=ORIENTED_EDGE('',*,*,#226,.F.);
#175=ORIENTED_EDGE('',*,*,#219,.F.);
#176=ORIENTED_EDGE('',*,*,#227,.F.);
#177=ORIENTED_EDGE('',*,*,#223,.T.);
#178=ORIENTED_EDGE('',*,*,#217,.T.);
#179=ORIENTED_EDGE('',*,*,#221,.T.);
#180=ORIENTED_EDGE('',*,*,#228,.F.);
#181=ORIENTED_EDGE('',*,*,#222,.T.);
#182=ORIENTED_EDGE('',*,*,#228,.T.);
#183=ORIENTED_EDGE('',*,*,#224,.T.);
#184=ORIENTED_EDGE('',*,*,#229,.F.);
#185=ORIENTED_EDGE('',*,*,#225,.T.);
#186=ORIENTED_EDGE('',*,*,#229,.T.);
#187=ORIENTED_EDGE('',*,*,#227,.T.);
#188=ORIENTED_EDGE('',*,*,#215,.F.);
#189=ORIENTED_EDGE('',*,*,#226,.T.);
#190=VERTEX_POINT('',#370);
#191=VERTEX_POINT('',#372);
#192=VERTEX_POINT('',#375);
#193=VERTEX_POINT('',#378);
#194=VERTEX_POINT('',#382);
#195=VERTEX_POINT('',#385);
#196=VERTEX_POINT('',#388);
#197=VERTEX_POINT('',#391);
#198=VERTEX_POINT('',#395);
#199=VERTEX_POINT('',#396);
#200=VERTEX_POINT('',#398);
#201=VERTEX_POINT('',#400);
#202=VERTEX_POINT('',#407);
#203=VERTEX_POINT('',#408);
#204=VERTEX_POINT('',#413);
#205=VERTEX_POINT('',#414);
#206=EDGE_CURVE('',#190,#190,#230,.T.);
#207=EDGE_CURVE('',#191,#191,#231,.T.);
#208=EDGE_CURVE('',#192,#192,#232,.T.);
#209=EDGE_CURVE('',#193,#193,#233,.T.);
#210=EDGE_CURVE('',#194,#194,#234,.T.);
#211=EDGE_CURVE('',#195,#195,#235,.T.);
#212=EDGE_CURVE('',#196,#196,#236,.T.);
#213=EDGE_CURVE('',#197,#197,#237,.T.);
#214=EDGE_CURVE('',#198,#199,#238,.T.);
#215=EDGE_CURVE('',#198,#200,#239,.T.);
#216=EDGE_CURVE('',#201,#200,#240,.T.);
#217=EDGE_CURVE('',#199,#201,#241,.T.);
#218=EDGE_CURVE('',#201,#199,#242,.T.);
#219=EDGE_CURVE('',#200,#198,#243,.T.);
#220=EDGE_CURVE('',#202,#203,#244,.T.);
#221=EDGE_CURVE('',#201,#202,#32,.T.);
#222=EDGE_CURVE('',#203,#199,#33,.T.);
#223=EDGE_CURVE('',#204,#205,#245,.T.);
#224=EDGE_CURVE('',#202,#204,#246,.T.);
#225=EDGE_CURVE('',#205,#203,#247,.T.);
#226=EDGE_CURVE('',#198,#205,#34,.T.);
#227=EDGE_CURVE('',#204,#200,#35,.T.);
#228=EDGE_CURVE('',#203,#202,#248,.T.);
#229=EDGE_CURVE('',#205,#204,#249,.T.);
#230=CIRCLE('',#251,9.75);
#231=CIRCLE('',#252,10.);
#232=CIRCLE('',#254,7.55);
#233=CIRCLE('',#256,7.55);
#234=CIRCLE('',#259,8.75);
#235=CIRCLE('',#261,9.75);
#236=CIRCLE('',#263,9.75);
#237=CIRCLE('',#265,10.);
#238=CIRCLE('',#268,8.);
#239=CIRCLE('',#269,7.99999169387432);
#240=CIRCLE('',#270,8.);
#241=CIRCLE('',#271,0.0115281369692825);
#242=CIRCLE('',#273,0.0115281369692825);
#243=CIRCLE('',#274,7.99999169387432);
#244=CIRCLE('',#276,0.0115281369692527);
#245=CIRCLE('',#278,7.99999169387432);
#246=CIRCLE('',#279,8.);
#247=CIRCLE('',#280,8.);
#248=CIRCLE('',#283,0.0115281369692527);
#249=CIRCLE('',#285,7.99999169387432);
#250=AXIS2_PLACEMENT_3D('',#368,#288,#289);
#251=AXIS2_PLACEMENT_3D('',#369,#290,#291);
#252=AXIS2_PLACEMENT_3D('',#371,#292,#293);
#253=AXIS2_PLACEMENT_3D('',#373,#294,#295);
#254=AXIS2_PLACEMENT_3D('',#374,#296,#297);
#255=AXIS2_PLACEMENT_3D('',#376,#298,#299);
#256=AXIS2_PLACEMENT_3D('',#377,#300,#301);
#257=AXIS2_PLACEMENT_3D('',#379,#302,#303);
#258=AXIS2_PLACEMENT_3D('',#380,#304,#305);
#259=AXIS2_PLACEMENT_3D('',#381,#306,#307);
#260=AXIS2_PLACEMENT_3D('',#383,#308,#309);
#261=AXIS2_PLACEMENT_3D('',#384,#310,#311);
#262=AXIS2_PLACEMENT_3D('',#386,#312,#313);
#263=AXIS2_PLACEMENT_3D('',#387,#314,#315);
#264=AXIS2_PLACEMENT_3D('',#389,#316,#317);
#265=AXIS2_PLACEMENT_3D('',#390,#318,#319);
#266=AXIS2_PLACEMENT_3D('',#392,#320,#321);
#267=AXIS2_PLACEMENT_3D('',#393,#322,#323);
#268=AXIS2_PLACEMENT_3D('',#394,#324,#325);
#269=AXIS2_PLACEMENT_3D('',#397,#326,#327);
#270=AXIS2_PLACEMENT_3D('',#399,#328,#329);
#271=AXIS2_PLACEMENT_3D('',#401,#330,#331);
#272=AXIS2_PLACEMENT_3D('',#402,#332,#333);
#273=AXIS2_PLACEMENT_3D('',#403,#334,#335);
#274=AXIS2_PLACEMENT_3D('',#404,#336,#337);
#275=AXIS2_PLACEMENT_3D('',#405,#338,#339);
#276=AXIS2_PLACEMENT_3D('',#406,#340,#341);
#277=AXIS2_PLACEMENT_3D('',#411,#344,#345);
#278=AXIS2_PLACEMENT_3D('',#412,#346,#347);
#279=AXIS2_PLACEMENT_3D('',#415,#348,#349);
#280=AXIS2_PLACEMENT_3D('',#416,#350,#351);
#281=AXIS2_PLACEMENT_3D('',#417,#352,#353);
#282=AXIS2_PLACEMENT_3D('',#420,#356,#357);
#283=AXIS2_PLACEMENT_3D('',#421,#358,#359);
#284=AXIS2_PLACEMENT_3D('',#422,#360,#361);
#285=AXIS2_PLACEMENT_3D('',#423,#362,#363);
#286=AXIS2_PLACEMENT_3D('',#424,#364,#365);
#287=AXIS2_PLACEMENT_3D('',#425,#366,#367);
#288=DIRECTION('',(0.,0.,1.));
#289=DIRECTION('',(1.,0.,0.));
#290=DIRECTION('',(-1.,0.,0.));
#291=DIRECTION('',(0.,0.,1.));
#292=DIRECTION('',(-1.,0.,0.));
#293=DIRECTION('',(0.,0.,1.));
#294=DIRECTION('',(1.,0.,0.));
#295=DIRECTION('',(0.,0.,-1.));
#296=DIRECTION('',(-1.,0.,0.));
#297=DIRECTION('',(0.,0.,1.));
#298=DIRECTION('',(1.,0.,0.));
#299=DIRECTION('',(-5.70875300198488E-16,0.,-1.));
#300=DIRECTION('',(-1.,0.,0.));
#301=DIRECTION('',(0.,0.,1.));
#302=DIRECTION('',(-1.,0.,0.));
#303=DIRECTION('',(0.,0.,1.));
#304=DIRECTION('',(-1.,6.12323399573677E-17,0.));
#305=DIRECTION('',(0.,1.,0.));
#306=DIRECTION('',(-1.,0.,0.));
#307=DIRECTION('',(0.,0.,1.));
#308=DIRECTION('',(-1.,0.,0.));
#309=DIRECTION('',(0.,0.,1.));
#310=DIRECTION('',(-1.,0.,0.));
#311=DIRECTION('',(0.,0.,1.));
#312=DIRECTION('',(-1.,0.,0.));
#313=DIRECTION('',(0.,0.,1.));
#314=DIRECTION('',(-1.,0.,0.));
#315=DIRECTION('',(0.,0.,1.));
#316=DIRECTION('',(-1.,0.,0.));
#317=DIRECTION('',(0.,0.,1.));
#318=DIRECTION('',(-1.,0.,0.));
#319=DIRECTION('',(0.,0.,1.));
#320=DIRECTION('',(-1.,0.,0.));
#321=DIRECTION('',(-1.99896696656855E-16,0.,1.));
#322=DIRECTION('',(-1.,0.,0.));
#323=DIRECTION('',(0.,0.,1.));
#324=DIRECTION('',(0.,1.,6.12323399573677E-17));
#325=DIRECTION('',(1.,0.,0.));
#326=DIRECTION('',(1.,0.,0.));
#327=DIRECTION('',(0.,-6.12323399573677E-17,1.));
#328=DIRECTION('',(0.,0.,-1.));
#329=DIRECTION('',(1.,0.,0.));
#330=DIRECTION('',(1.,0.,0.));
#331=DIRECTION('',(0.,-6.12323399573677E-17,1.));
#332=DIRECTION('',(1.,-3.74939945665465E-33,6.12323399573677E-17));
#333=DIRECTION('',(0.,-6.12323399573677E-17,1.));
#334=DIRECTION('',(1.,0.,0.));
#335=DIRECTION('',(0.,-1.,0.));
#336=DIRECTION('',(1.,0.,0.));
#337=DIRECTION('',(0.,-1.,0.));
#338=DIRECTION('',(1.,-6.12323399573677E-17,0.));
#339=DIRECTION('',(0.,-1.,0.));
#340=DIRECTION('',(1.,0.,0.));
#341=DIRECTION('',(0.,-1.,0.));
#342=DIRECTION('',(-1.,1.73472527708258E-15,0.));
#343=DIRECTION('',(1.,-1.06221287898959E-31,1.73472527708258E-15));
#344=DIRECTION('',(1.,0.,0.));
#345=DIRECTION('',(0.,0.,-1.));
#346=DIRECTION('',(1.,0.,0.));
#347=DIRECTION('',(0.,-1.,0.));
#348=DIRECTION('',(0.,0.,1.));
#349=DIRECTION('',(1.,0.,0.));
#350=DIRECTION('',(0.,-1.,-6.12323399573677E-17));
#351=DIRECTION('',(1.,0.,0.));
#352=DIRECTION('',(1.,-6.12323399573677E-17,0.));
#353=DIRECTION('',(0.,-1.,0.));
#354=DIRECTION('',(-1.,0.,0.));
#355=DIRECTION('',(1.,0.,0.));
#356=DIRECTION('',(1.,0.,0.));
#357=DIRECTION('',(0.,0.,-1.));
#358=DIRECTION('',(1.,0.,0.));
#359=DIRECTION('',(0.,-6.12323399573677E-17,1.));
#360=DIRECTION('',(1.,0.,0.));
#361=DIRECTION('',(0.,0.,-1.));
#362=DIRECTION('',(1.,0.,0.));
#363=DIRECTION('',(0.,-6.12323399573677E-17,1.));
#364=DIRECTION('',(1.,-3.74939945665465E-33,6.12323399573677E-17));
#365=DIRECTION('',(0.,-6.12323399573677E-17,1.));
#366=DIRECTION('',(1.,0.,0.));
#367=DIRECTION('',(0.,0.,-1.));
#368=CARTESIAN_POINT('',(0.,0.,0.));
#369=CARTESIAN_POINT('',(65.,0.,0.));
#370=CARTESIAN_POINT('',(65.,0.,9.75));
#371=CARTESIAN_POINT('',(65.,0.,0.));
#372=CARTESIAN_POINT('',(65.,0.,10.));
#373=CARTESIAN_POINT('',(65.,10.,0.));
#374=CARTESIAN_POINT('',(39.8538849339231,0.,0.));
#375=CARTESIAN_POINT('',(39.8538849339231,0.,7.55));
#376=CARTESIAN_POINT('',(65.,0.,0.));
#377=CARTESIAN_POINT('',(8.,0.,0.));
#378=CARTESIAN_POINT('',(8.,0.,7.55));
#379=CARTESIAN_POINT('',(0.,0.,0.));
#380=CARTESIAN_POINT('',(8.,0.,0.));
#381=CARTESIAN_POINT('',(200.,0.,0.));
#382=CARTESIAN_POINT('',(200.,0.,8.75));
#383=CARTESIAN_POINT('',(200.,8.75,0.));
#384=CARTESIAN_POINT('',(199.,0.,0.));
#385=CARTESIAN_POINT('',(199.,0.,9.75));
#386=CARTESIAN_POINT('',(199.,0.,0.));
#387=CARTESIAN_POINT('',(196.,0.,0.));
#388=CARTESIAN_POINT('',(196.,0.,9.75));
#389=CARTESIAN_POINT('',(0.,0.,0.));
#390=CARTESIAN_POINT('',(195.066987298108,0.,0.));
#391=CARTESIAN_POINT('',(195.066987298108,0.,10.));
#392=CARTESIAN_POINT('',(196.,0.,0.));
#393=CARTESIAN_POINT('',(0.,0.,0.));
#394=CARTESIAN_POINT('',(8.,0.,0.));
#395=CARTESIAN_POINT('',(8.01152813696925,1.46957463316629E-15,7.99999169387432));
#396=CARTESIAN_POINT('',(15.9999916938743,2.11768440593461E-18,0.0115281369692825));
#397=CARTESIAN_POINT('',(8.01152813696925,0.,0.));
#398=CARTESIAN_POINT('',(8.01152813696925,-7.99999169387432,0.));
#399=CARTESIAN_POINT('',(8.,0.,0.));
#400=CARTESIAN_POINT('',(15.9999916938743,-0.0115281369692825,0.));
#401=CARTESIAN_POINT('',(15.9999916938743,0.,0.));
#402=CARTESIAN_POINT('',(8.,0.,0.));
#403=CARTESIAN_POINT('',(15.9999916938743,0.,0.));
#404=CARTESIAN_POINT('',(8.01152813696925,0.,0.));
#405=CARTESIAN_POINT('',(8.,0.,0.));
#406=CARTESIAN_POINT('',(8.30612568308853E-6,0.,0.));
#407=CARTESIAN_POINT('',(8.30612568308853E-6,-0.0115281369692527,0.));
#408=CARTESIAN_POINT('',(8.30612568308853E-6,2.11768440592914E-18,0.0115281369692527));
#409=CARTESIAN_POINT('',(8.30612568395589E-6,-0.0115281369692547,0.));
#410=CARTESIAN_POINT('',(8.30612568395589E-6,-7.05894801976505E-19,0.0115281369692547));
#411=CARTESIAN_POINT('',(8.,0.,0.));
#412=CARTESIAN_POINT('',(7.98847186303072,0.,0.));
#413=CARTESIAN_POINT('',(7.98847186303072,-7.99999169387432,0.));
#414=CARTESIAN_POINT('',(7.98847186303072,1.46957463316629E-15,7.99999169387432));
#415=CARTESIAN_POINT('',(8.,0.,0.));
#416=CARTESIAN_POINT('',(8.,0.,0.));
#417=CARTESIAN_POINT('',(8.,0.,0.));
#418=CARTESIAN_POINT('',(7.98847186303072,-4.8985821105543E-16,7.99999169387432));
#419=CARTESIAN_POINT('',(7.98847186303072,-7.99999169387432,0.));
#420=CARTESIAN_POINT('',(8.,0.,0.));
#421=CARTESIAN_POINT('',(8.30612568308853E-6,0.,0.));
#422=CARTESIAN_POINT('',(8.,0.,0.));
#423=CARTESIAN_POINT('',(7.98847186303072,0.,0.));
#424=CARTESIAN_POINT('',(8.,0.,0.));
#425=CARTESIAN_POINT('',(8.,0.,0.));
#426=MECHANICAL_DESIGN_GEOMETRIC_PRESENTATION_REPRESENTATION('',(#41,#42),
#427);
#427=(
GEOMETRIC_REPRESENTATION_CONTEXT(3)
GLOBAL_UNCERTAINTY_ASSIGNED_CONTEXT((#428))
GLOBAL_UNIT_ASSIGNED_CONTEXT((#434,#430,#429))
REPRESENTATION_CONTEXT('APMR-RO16-D16-C20-L200',
'TOP_LEVEL_ASSEMBLY_PART')
);
#428=UNCERTAINTY_MEASURE_WITH_UNIT(LENGTH_MEASURE(2.E-5),#434,
'DISTANCE_ACCURACY_VALUE','Maximum Tolerance applied to model');
#429=(
NAMED_UNIT(*)
SI_UNIT($,.STERADIAN.)
SOLID_ANGLE_UNIT()
);
#430=(
CONVERSION_BASED_UNIT('DEGREE',#432)
NAMED_UNIT(#431)
PLANE_ANGLE_UNIT()
);
#431=DIMENSIONAL_EXPONENTS(0.,0.,0.,0.,0.,0.,0.);
#432=PLANE_ANGLE_MEASURE_WITH_UNIT(PLANE_ANGLE_MEASURE(0.0174532925),#433);
#433=(
NAMED_UNIT(*)
PLANE_ANGLE_UNIT()
SI_UNIT($,.RADIAN.)
);
#434=(
LENGTH_UNIT()
NAMED_UNIT(*)
SI_UNIT(.MILLI.,.METRE.)
);
ENDSEC;
END-ISO-10303-21;
