ISO-10303-21;
HEADER;
/* Generated by software containing ST-Developer
 * from STEP Tools, Inc. (www.steptools.com) 
 */
/* OPTION: using custom schema-name function */

FILE_DESCRIPTION(
/* description */ (''),
/* implementation_level */ '2;1');

FILE_NAME(
/* name */ 'APMR-RO20-D20-C20-L160.stp',
/* time_stamp */ '2023-10-02T10:19:40+03:00',
/* author */ (''),
/* organization */ (''),
/* preprocessor_version */ 'ST-DEVELOPER v19.4',
/* originating_system */ 'SIEMENS PLM Software NX2306.5001',
/* authorisation */ '');

FILE_SCHEMA (('AUTOMOTIVE_DESIGN { 1 0 10303 214 3 1 1 1 }'));
ENDSEC;

DATA;
#10=PROPERTY_DEFINITION_REPRESENTATION(#14,#12);
#11=PROPERTY_DEFINITION_REPRESENTATION(#15,#13);
#12=REPRESENTATION('',(#16),#213);
#13=REPRESENTATION('',(#17),#213);
#14=PROPERTY_DEFINITION('pmi validation property','',#21);
#15=PROPERTY_DEFINITION('pmi validation property','',#21);
#16=VALUE_REPRESENTATION_ITEM('number of annotations',COUNT_MEASURE(0.));
#17=VALUE_REPRESENTATION_ITEM('number of views',COUNT_MEASURE(0.));
#18=SHAPE_REPRESENTATION_RELATIONSHIP('None',
'relationship between APMR-RO20-D20-C20-L160-LIGHT_x_t_objects-None an
d APMR-RO20-D20-C20-L160-LIGHT_x_t_objects-None',#30,#19);
#19=ADVANCED_BREP_SHAPE_REPRESENTATION(
'APMR-RO20-D20-C20-L160-LIGHT_x_t_objects-None',(#49,#50),#213);
#20=SHAPE_DEFINITION_REPRESENTATION(#21,#30);
#21=PRODUCT_DEFINITION_SHAPE('','',#22);
#22=PRODUCT_DEFINITION(' ','',#24,#23);
#23=PRODUCT_DEFINITION_CONTEXT('part definition',#29,'design');
#24=PRODUCT_DEFINITION_FORMATION_WITH_SPECIFIED_SOURCE(' ',' ',#26,
 .NOT_KNOWN.);
#25=PRODUCT_RELATED_PRODUCT_CATEGORY('part','',(#26));
#26=PRODUCT('APMR-RO20-D20-C20-L160-LIGHT_x_t_objects',
'APMR-RO20-D20-C20-L160-LIGHT_x_t_objects',' ',(#27));
#27=PRODUCT_CONTEXT(' ',#29,'mechanical');
#28=APPLICATION_PROTOCOL_DEFINITION('international standard',
'automotive_design',2010,#29);
#29=APPLICATION_CONTEXT(
'core data for automotive mechanical design processes');
#30=SHAPE_REPRESENTATION(
'APMR-RO20-D20-C20-L160-LIGHT_x_t_objects-None',(#136),#213);
#31=DRAUGHTING_PRE_DEFINED_COLOUR('yellow');
#32=VERTEX_LOOP('',#121);
#33=PRESENTATION_LAYER_ASSIGNMENT('1','Layer 1',(#49,#50));
#34=STYLED_ITEM('',(#36),#49);
#35=STYLED_ITEM('',(#37),#50);
#36=PRESENTATION_STYLE_ASSIGNMENT((#38));
#37=PRESENTATION_STYLE_ASSIGNMENT((#39));
#38=SURFACE_STYLE_USAGE(.BOTH.,#40);
#39=SURFACE_STYLE_USAGE(.BOTH.,#41);
#40=SURFACE_SIDE_STYLE('',(#42));
#41=SURFACE_SIDE_STYLE('',(#43));
#42=SURFACE_STYLE_FILL_AREA(#44);
#43=SURFACE_STYLE_FILL_AREA(#45);
#44=FILL_AREA_STYLE('',(#46));
#45=FILL_AREA_STYLE('',(#47));
#46=FILL_AREA_STYLE_COLOUR('',#48);
#47=FILL_AREA_STYLE_COLOUR('',#31);
#48=COLOUR_RGB('silver gray',0.6,0.6,0.6);
#49=MANIFOLD_SOLID_BREP('',#51);
#50=MANIFOLD_SOLID_BREP('',#52);
#51=CLOSED_SHELL('',(#73,#74,#75,#76,#77,#78,#79,#80));
#52=CLOSED_SHELL('',(#81));
#53=CONICAL_SURFACE('',#146,9.75,9.99999999999998);
#54=CYLINDRICAL_SURFACE('',#144,9.75);
#55=CYLINDRICAL_SURFACE('',#148,10.);
#56=CYLINDRICAL_SURFACE('',#151,9.45);
#57=TOROIDAL_SURFACE('',#142,8.75,1.);
#58=FACE_BOUND('',#88,.T.);
#59=FACE_BOUND('',#89,.T.);
#60=FACE_BOUND('',#90,.T.);
#61=FACE_BOUND('',#91,.T.);
#62=FACE_BOUND('',#92,.T.);
#63=FACE_BOUND('',#93,.T.);
#64=FACE_BOUND('',#94,.T.);
#65=FACE_BOUND('',#95,.T.);
#66=FACE_BOUND('',#96,.T.);
#67=FACE_BOUND('',#97,.T.);
#68=FACE_BOUND('',#98,.T.);
#69=FACE_BOUND('',#99,.T.);
#70=FACE_BOUND('',#32,.T.);
#71=PLANE('',#140);
#72=PLANE('',#150);
#73=ADVANCED_FACE('',(#84),#82,.T.);
#74=ADVANCED_FACE('',(#85),#71,.F.);
#75=ADVANCED_FACE('',(#58,#59),#57,.T.);
#76=ADVANCED_FACE('',(#60,#61),#54,.T.);
#77=ADVANCED_FACE('',(#62,#63),#53,.T.);
#78=ADVANCED_FACE('',(#64,#65),#55,.T.);
#79=ADVANCED_FACE('',(#66,#67),#72,.F.);
#80=ADVANCED_FACE('',(#68,#69),#56,.T.);
#81=ADVANCED_FACE('',(#70),#83,.T.);
#82=SPHERICAL_SURFACE('',#138,9.45);
#83=SPHERICAL_SURFACE('',#152,10.);
#84=FACE_OUTER_BOUND('',#86,.T.);
#85=FACE_OUTER_BOUND('',#87,.T.);
#86=EDGE_LOOP('',(#100));
#87=EDGE_LOOP('',(#101));
#88=EDGE_LOOP('',(#102));
#89=EDGE_LOOP('',(#103));
#90=EDGE_LOOP('',(#104));
#91=EDGE_LOOP('',(#105));
#92=EDGE_LOOP('',(#106));
#93=EDGE_LOOP('',(#107));
#94=EDGE_LOOP('',(#108));
#95=EDGE_LOOP('',(#109));
#96=EDGE_LOOP('',(#110));
#97=EDGE_LOOP('',(#111));
#98=EDGE_LOOP('',(#112));
#99=EDGE_LOOP('',(#113));
#100=ORIENTED_EDGE('',*,*,#122,.T.);
#101=ORIENTED_EDGE('',*,*,#123,.F.);
#102=ORIENTED_EDGE('',*,*,#124,.F.);
#103=ORIENTED_EDGE('',*,*,#123,.T.);
#104=ORIENTED_EDGE('',*,*,#125,.F.);
#105=ORIENTED_EDGE('',*,*,#124,.T.);
#106=ORIENTED_EDGE('',*,*,#126,.F.);
#107=ORIENTED_EDGE('',*,*,#125,.T.);
#108=ORIENTED_EDGE('',*,*,#127,.F.);
#109=ORIENTED_EDGE('',*,*,#126,.T.);
#110=ORIENTED_EDGE('',*,*,#128,.F.);
#111=ORIENTED_EDGE('',*,*,#127,.T.);
#112=ORIENTED_EDGE('',*,*,#122,.F.);
#113=ORIENTED_EDGE('',*,*,#128,.T.);
#114=VERTEX_POINT('',#189);
#115=VERTEX_POINT('',#192);
#116=VERTEX_POINT('',#195);
#117=VERTEX_POINT('',#198);
#118=VERTEX_POINT('',#201);
#119=VERTEX_POINT('',#204);
#120=VERTEX_POINT('',#207);
#121=VERTEX_POINT('',#210);
#122=EDGE_CURVE('',#114,#114,#129,.T.);
#123=EDGE_CURVE('',#115,#115,#130,.T.);
#124=EDGE_CURVE('',#116,#116,#131,.T.);
#125=EDGE_CURVE('',#117,#117,#132,.T.);
#126=EDGE_CURVE('',#118,#118,#133,.T.);
#127=EDGE_CURVE('',#119,#119,#134,.T.);
#128=EDGE_CURVE('',#120,#120,#135,.T.);
#129=CIRCLE('',#137,9.45);
#130=CIRCLE('',#139,8.75);
#131=CIRCLE('',#141,9.75);
#132=CIRCLE('',#143,9.75);
#133=CIRCLE('',#145,10.);
#134=CIRCLE('',#147,10.);
#135=CIRCLE('',#149,9.45);
#136=AXIS2_PLACEMENT_3D('',#187,#153,#154);
#137=AXIS2_PLACEMENT_3D('',#188,#155,#156);
#138=AXIS2_PLACEMENT_3D('',#190,#157,#158);
#139=AXIS2_PLACEMENT_3D('',#191,#159,#160);
#140=AXIS2_PLACEMENT_3D('',#193,#161,#162);
#141=AXIS2_PLACEMENT_3D('',#194,#163,#164);
#142=AXIS2_PLACEMENT_3D('',#196,#165,#166);
#143=AXIS2_PLACEMENT_3D('',#197,#167,#168);
#144=AXIS2_PLACEMENT_3D('',#199,#169,#170);
#145=AXIS2_PLACEMENT_3D('',#200,#171,#172);
#146=AXIS2_PLACEMENT_3D('',#202,#173,#174);
#147=AXIS2_PLACEMENT_3D('',#203,#175,#176);
#148=AXIS2_PLACEMENT_3D('',#205,#177,#178);
#149=AXIS2_PLACEMENT_3D('',#206,#179,#180);
#150=AXIS2_PLACEMENT_3D('',#208,#181,#182);
#151=AXIS2_PLACEMENT_3D('',#209,#183,#184);
#152=AXIS2_PLACEMENT_3D('',#211,#185,#186);
#153=DIRECTION('',(0.,0.,1.));
#154=DIRECTION('',(1.,0.,0.));
#155=DIRECTION('',(-1.,0.,0.));
#156=DIRECTION('',(0.,0.,1.));
#157=DIRECTION('',(-1.,6.12323399573676E-17,0.));
#158=DIRECTION('',(0.,1.,0.));
#159=DIRECTION('',(-1.,0.,0.));
#160=DIRECTION('',(0.,0.,1.));
#161=DIRECTION('',(-1.,0.,0.));
#162=DIRECTION('',(0.,0.,1.));
#163=DIRECTION('',(-1.,0.,0.));
#164=DIRECTION('',(0.,0.,1.));
#165=DIRECTION('',(-1.,0.,0.));
#166=DIRECTION('',(0.,0.,1.));
#167=DIRECTION('',(-1.,0.,0.));
#168=DIRECTION('',(0.,0.,1.));
#169=DIRECTION('',(-1.,0.,0.));
#170=DIRECTION('',(0.,0.,1.));
#171=DIRECTION('',(-1.,0.,0.));
#172=DIRECTION('',(0.,0.,1.));
#173=DIRECTION('',(-1.,0.,0.));
#174=DIRECTION('',(1.4916179051247E-16,0.,1.));
#175=DIRECTION('',(-1.,0.,0.));
#176=DIRECTION('',(0.,0.,1.));
#177=DIRECTION('',(-1.,0.,0.));
#178=DIRECTION('',(0.,0.,1.));
#179=DIRECTION('',(-1.,0.,0.));
#180=DIRECTION('',(0.,0.,1.));
#181=DIRECTION('',(1.,0.,0.));
#182=DIRECTION('',(0.,0.,-1.));
#183=DIRECTION('',(-1.,0.,0.));
#184=DIRECTION('',(0.,0.,1.));
#185=DIRECTION('',(-1.,-6.12323399573677E-17,0.));
#186=DIRECTION('',(0.,-1.,0.));
#187=CARTESIAN_POINT('',(0.,0.,0.));
#188=CARTESIAN_POINT('',(10.,0.,0.));
#189=CARTESIAN_POINT('',(10.,0.,9.45));
#190=CARTESIAN_POINT('',(10.,6.07153216591882E-15,0.));
#191=CARTESIAN_POINT('',(160.,0.,0.));
#192=CARTESIAN_POINT('',(160.,0.,8.75));
#193=CARTESIAN_POINT('',(160.,8.75,0.));
#194=CARTESIAN_POINT('',(159.,0.,0.));
#195=CARTESIAN_POINT('',(159.,0.,9.75));
#196=CARTESIAN_POINT('',(159.,0.,0.));
#197=CARTESIAN_POINT('',(156.,0.,0.));
#198=CARTESIAN_POINT('',(156.,0.,9.75));
#199=CARTESIAN_POINT('',(0.,0.,0.));
#200=CARTESIAN_POINT('',(154.582179545095,0.,0.));
#201=CARTESIAN_POINT('',(154.582179545095,0.,10.));
#202=CARTESIAN_POINT('',(156.,0.,0.));
#203=CARTESIAN_POINT('',(55.,0.,0.));
#204=CARTESIAN_POINT('',(55.,0.,10.));
#205=CARTESIAN_POINT('',(0.,0.,0.));
#206=CARTESIAN_POINT('',(55.,0.,0.));
#207=CARTESIAN_POINT('',(55.,0.,9.45));
#208=CARTESIAN_POINT('',(55.,10.,0.));
#209=CARTESIAN_POINT('',(0.,0.,0.));
#210=CARTESIAN_POINT('',(10.,-9.99999999999999,0.));
#211=CARTESIAN_POINT('',(10.,6.07153216591882E-15,0.));
#212=MECHANICAL_DESIGN_GEOMETRIC_PRESENTATION_REPRESENTATION('',(#34,#35),
#213);
#213=(
GEOMETRIC_REPRESENTATION_CONTEXT(3)
GLOBAL_UNCERTAINTY_ASSIGNED_CONTEXT((#214))
GLOBAL_UNIT_ASSIGNED_CONTEXT((#220,#216,#215))
REPRESENTATION_CONTEXT('APMR-RO20-D20-C20-L160',
'TOP_LEVEL_ASSEMBLY_PART')
);
#214=UNCERTAINTY_MEASURE_WITH_UNIT(LENGTH_MEASURE(2.E-5),#220,
'DISTANCE_ACCURACY_VALUE','Maximum Tolerance applied to model');
#215=(
NAMED_UNIT(*)
SI_UNIT($,.STERADIAN.)
SOLID_ANGLE_UNIT()
);
#216=(
CONVERSION_BASED_UNIT('DEGREE',#218)
NAMED_UNIT(#217)
PLANE_ANGLE_UNIT()
);
#217=DIMENSIONAL_EXPONENTS(0.,0.,0.,0.,0.,0.,0.);
#218=PLANE_ANGLE_MEASURE_WITH_UNIT(PLANE_ANGLE_MEASURE(0.0174532925),#219);
#219=(
NAMED_UNIT(*)
PLANE_ANGLE_UNIT()
SI_UNIT($,.RADIAN.)
);
#220=(
LENGTH_UNIT()
NAMED_UNIT(*)
SI_UNIT(.MILLI.,.METRE.)
);
ENDSEC;
END-ISO-10303-21;
