ISO-10303-21;
HEADER;
/* Generated by software containing ST-Developer
 * from STEP Tools, Inc. (www.steptools.com) 
 */
/* OPTION: using custom schema-name function */

FILE_DESCRIPTION(
/* description */ (''),
/* implementation_level */ '2;1');

FILE_NAME(
/* name */ 'APMR-RO20-D20-C20-L200.stp',
/* time_stamp */ '2023-10-02T10:23:17+03:00',
/* author */ (''),
/* organization */ (''),
/* preprocessor_version */ 'ST-DEVELOPER v19.4',
/* originating_system */ 'SIEMENS PLM Software NX2306.5001',
/* authorisation */ '');

FILE_SCHEMA (('AUTOMOTIVE_DESIGN { 1 0 10303 214 3 1 1 1 }'));
ENDSEC;

DATA;
#10=PROPERTY_DEFINITION_REPRESENTATION(#14,#12);
#11=PROPERTY_DEFINITION_REPRESENTATION(#15,#13);
#12=REPRESENTATION('',(#16),#213);
#13=REPRESENTATION('',(#17),#213);
#14=PROPERTY_DEFINITION('pmi validation property','',#21);
#15=PROPERTY_DEFINITION('pmi validation property','',#21);
#16=VALUE_REPRESENTATION_ITEM('number of annotations',COUNT_MEASURE(0.));
#17=VALUE_REPRESENTATION_ITEM('number of views',COUNT_MEASURE(0.));
#18=SHAPE_REPRESENTATION_RELATIONSHIP('None',
'relationship between APMR-RO20-D20-C20-L200-LIGHT_x_t_objects-None an
d APMR-RO20-D20-C20-L200-LIGHT_x_t_objects-None',#30,#19);
#19=ADVANCED_BREP_SHAPE_REPRESENTATION(
'APMR-RO20-D20-C20-L200-LIGHT_x_t_objects-None',(#99,#100),#213);
#20=SHAPE_DEFINITION_REPRESENTATION(#21,#30);
#21=PRODUCT_DEFINITION_SHAPE('','',#22);
#22=PRODUCT_DEFINITION(' ','',#24,#23);
#23=PRODUCT_DEFINITION_CONTEXT('part definition',#29,'design');
#24=PRODUCT_DEFINITION_FORMATION_WITH_SPECIFIED_SOURCE(' ',' ',#26,
 .NOT_KNOWN.);
#25=PRODUCT_RELATED_PRODUCT_CATEGORY('part','',(#26));
#26=PRODUCT('APMR-RO20-D20-C20-L200-LIGHT_x_t_objects',
'APMR-RO20-D20-C20-L200-LIGHT_x_t_objects',' ',(#27));
#27=PRODUCT_CONTEXT(' ',#29,'mechanical');
#28=APPLICATION_PROTOCOL_DEFINITION('international standard',
'automotive_design',2010,#29);
#29=APPLICATION_CONTEXT(
'core data for automotive mechanical design processes');
#30=SHAPE_REPRESENTATION(
'APMR-RO20-D20-C20-L200-LIGHT_x_t_objects-None',(#136),#213);
#31=COLOUR_RGB('silver gray',0.6,0.6,0.6);
#32=CONICAL_SURFACE('',#147,9.75,9.99999999999977);
#33=CYLINDRICAL_SURFACE('',#145,9.75);
#34=CYLINDRICAL_SURFACE('',#149,10.);
#35=CYLINDRICAL_SURFACE('',#152,9.45);
#36=TOROIDAL_SURFACE('',#143,8.75,1.);
#37=PLANE('',#141);
#38=PLANE('',#151);
#39=FACE_OUTER_BOUND('',#41,.T.);
#40=FACE_OUTER_BOUND('',#42,.T.);
#41=EDGE_LOOP('',(#55));
#42=EDGE_LOOP('',(#56));
#43=EDGE_LOOP('',(#57));
#44=EDGE_LOOP('',(#58));
#45=EDGE_LOOP('',(#59));
#46=EDGE_LOOP('',(#60));
#47=EDGE_LOOP('',(#61));
#48=EDGE_LOOP('',(#62));
#49=EDGE_LOOP('',(#63));
#50=EDGE_LOOP('',(#64));
#51=EDGE_LOOP('',(#65));
#52=EDGE_LOOP('',(#66));
#53=EDGE_LOOP('',(#67));
#54=EDGE_LOOP('',(#68));
#55=ORIENTED_EDGE('',*,*,#69,.T.);
#56=ORIENTED_EDGE('',*,*,#70,.F.);
#57=ORIENTED_EDGE('',*,*,#71,.F.);
#58=ORIENTED_EDGE('',*,*,#70,.T.);
#59=ORIENTED_EDGE('',*,*,#72,.F.);
#60=ORIENTED_EDGE('',*,*,#71,.T.);
#61=ORIENTED_EDGE('',*,*,#73,.F.);
#62=ORIENTED_EDGE('',*,*,#72,.T.);
#63=ORIENTED_EDGE('',*,*,#74,.F.);
#64=ORIENTED_EDGE('',*,*,#73,.T.);
#65=ORIENTED_EDGE('',*,*,#75,.F.);
#66=ORIENTED_EDGE('',*,*,#74,.T.);
#67=ORIENTED_EDGE('',*,*,#69,.F.);
#68=ORIENTED_EDGE('',*,*,#75,.T.);
#69=EDGE_CURVE('',#129,#129,#76,.T.);
#70=EDGE_CURVE('',#130,#130,#77,.T.);
#71=EDGE_CURVE('',#131,#131,#78,.T.);
#72=EDGE_CURVE('',#132,#132,#79,.T.);
#73=EDGE_CURVE('',#133,#133,#80,.T.);
#74=EDGE_CURVE('',#134,#134,#81,.T.);
#75=EDGE_CURVE('',#135,#135,#82,.T.);
#76=CIRCLE('',#138,9.45);
#77=CIRCLE('',#140,8.75);
#78=CIRCLE('',#142,9.75);
#79=CIRCLE('',#144,9.75);
#80=CIRCLE('',#146,10.);
#81=CIRCLE('',#148,10.);
#82=CIRCLE('',#150,9.45);
#83=PRESENTATION_LAYER_ASSIGNMENT('1','Layer 1',(#99,#100));
#84=STYLED_ITEM('',(#86),#99);
#85=STYLED_ITEM('',(#87),#100);
#86=PRESENTATION_STYLE_ASSIGNMENT((#88));
#87=PRESENTATION_STYLE_ASSIGNMENT((#89));
#88=SURFACE_STYLE_USAGE(.BOTH.,#90);
#89=SURFACE_STYLE_USAGE(.BOTH.,#91);
#90=SURFACE_SIDE_STYLE('',(#92));
#91=SURFACE_SIDE_STYLE('',(#93));
#92=SURFACE_STYLE_FILL_AREA(#94);
#93=SURFACE_STYLE_FILL_AREA(#95);
#94=FILL_AREA_STYLE('',(#96));
#95=FILL_AREA_STYLE('',(#97));
#96=FILL_AREA_STYLE_COLOUR('',#98);
#97=FILL_AREA_STYLE_COLOUR('',#31);
#98=DRAUGHTING_PRE_DEFINED_COLOUR('yellow');
#99=MANIFOLD_SOLID_BREP('',#101);
#100=MANIFOLD_SOLID_BREP('',#102);
#101=CLOSED_SHELL('',(#103));
#102=CLOSED_SHELL('',(#104,#105,#106,#107,#108,#109,#110,#111));
#103=ADVANCED_FACE('',(#114),#112,.T.);
#104=ADVANCED_FACE('',(#39),#113,.T.);
#105=ADVANCED_FACE('',(#40),#37,.F.);
#106=ADVANCED_FACE('',(#115,#116),#36,.T.);
#107=ADVANCED_FACE('',(#117,#118),#33,.T.);
#108=ADVANCED_FACE('',(#119,#120),#32,.T.);
#109=ADVANCED_FACE('',(#121,#122),#34,.T.);
#110=ADVANCED_FACE('',(#123,#124),#38,.F.);
#111=ADVANCED_FACE('',(#125,#126),#35,.T.);
#112=SPHERICAL_SURFACE('',#137,10.);
#113=SPHERICAL_SURFACE('',#139,9.45);
#114=FACE_BOUND('',#127,.T.);
#115=FACE_BOUND('',#43,.T.);
#116=FACE_BOUND('',#44,.T.);
#117=FACE_BOUND('',#45,.T.);
#118=FACE_BOUND('',#46,.T.);
#119=FACE_BOUND('',#47,.T.);
#120=FACE_BOUND('',#48,.T.);
#121=FACE_BOUND('',#49,.T.);
#122=FACE_BOUND('',#50,.T.);
#123=FACE_BOUND('',#51,.T.);
#124=FACE_BOUND('',#52,.T.);
#125=FACE_BOUND('',#53,.T.);
#126=FACE_BOUND('',#54,.T.);
#127=VERTEX_LOOP('',#128);
#128=VERTEX_POINT('',#188);
#129=VERTEX_POINT('',#191);
#130=VERTEX_POINT('',#194);
#131=VERTEX_POINT('',#197);
#132=VERTEX_POINT('',#200);
#133=VERTEX_POINT('',#203);
#134=VERTEX_POINT('',#206);
#135=VERTEX_POINT('',#209);
#136=AXIS2_PLACEMENT_3D('',#187,#153,#154);
#137=AXIS2_PLACEMENT_3D('',#189,#155,#156);
#138=AXIS2_PLACEMENT_3D('',#190,#157,#158);
#139=AXIS2_PLACEMENT_3D('',#192,#159,#160);
#140=AXIS2_PLACEMENT_3D('',#193,#161,#162);
#141=AXIS2_PLACEMENT_3D('',#195,#163,#164);
#142=AXIS2_PLACEMENT_3D('',#196,#165,#166);
#143=AXIS2_PLACEMENT_3D('',#198,#167,#168);
#144=AXIS2_PLACEMENT_3D('',#199,#169,#170);
#145=AXIS2_PLACEMENT_3D('',#201,#171,#172);
#146=AXIS2_PLACEMENT_3D('',#202,#173,#174);
#147=AXIS2_PLACEMENT_3D('',#204,#175,#176);
#148=AXIS2_PLACEMENT_3D('',#205,#177,#178);
#149=AXIS2_PLACEMENT_3D('',#207,#179,#180);
#150=AXIS2_PLACEMENT_3D('',#208,#181,#182);
#151=AXIS2_PLACEMENT_3D('',#210,#183,#184);
#152=AXIS2_PLACEMENT_3D('',#211,#185,#186);
#153=DIRECTION('',(0.,0.,1.));
#154=DIRECTION('',(1.,0.,0.));
#155=DIRECTION('',(-1.,-3.31587919428213E-16,0.));
#156=DIRECTION('',(3.46944695195361E-16,-1.,0.));
#157=DIRECTION('',(-1.,0.,0.));
#158=DIRECTION('',(0.,0.,1.));
#159=DIRECTION('',(-1.,6.12323399573676E-17,0.));
#160=DIRECTION('',(0.,1.,0.));
#161=DIRECTION('',(-1.,0.,0.));
#162=DIRECTION('',(0.,0.,1.));
#163=DIRECTION('',(-1.,0.,0.));
#164=DIRECTION('',(0.,0.,1.));
#165=DIRECTION('',(-1.,0.,0.));
#166=DIRECTION('',(0.,0.,1.));
#167=DIRECTION('',(-1.,0.,0.));
#168=DIRECTION('',(0.,0.,1.));
#169=DIRECTION('',(-1.,0.,0.));
#170=DIRECTION('',(0.,0.,1.));
#171=DIRECTION('',(-1.,0.,0.));
#172=DIRECTION('',(0.,0.,1.));
#173=DIRECTION('',(-1.,0.,0.));
#174=DIRECTION('',(0.,0.,1.));
#175=DIRECTION('',(-1.,0.,0.));
#176=DIRECTION('',(-2.98323581024946E-16,0.,1.));
#177=DIRECTION('',(-1.,0.,0.));
#178=DIRECTION('',(0.,0.,1.));
#179=DIRECTION('',(-1.,0.,0.));
#180=DIRECTION('',(0.,0.,1.));
#181=DIRECTION('',(-1.,0.,0.));
#182=DIRECTION('',(0.,0.,1.));
#183=DIRECTION('',(1.,0.,0.));
#184=DIRECTION('',(0.,0.,-1.));
#185=DIRECTION('',(-1.,0.,0.));
#186=DIRECTION('',(0.,0.,1.));
#187=CARTESIAN_POINT('',(0.,0.,0.));
#188=CARTESIAN_POINT('',(10.,-9.99999999999999,0.));
#189=CARTESIAN_POINT('',(10.,6.07153216591882E-15,0.));
#190=CARTESIAN_POINT('',(10.,0.,0.));
#191=CARTESIAN_POINT('',(10.,0.,9.45));
#192=CARTESIAN_POINT('',(10.,6.07153216591882E-15,0.));
#193=CARTESIAN_POINT('',(200.,0.,0.));
#194=CARTESIAN_POINT('',(200.,0.,8.75));
#195=CARTESIAN_POINT('',(200.,8.75,0.));
#196=CARTESIAN_POINT('',(199.,0.,0.));
#197=CARTESIAN_POINT('',(199.,0.,9.75));
#198=CARTESIAN_POINT('',(199.,0.,0.));
#199=CARTESIAN_POINT('',(196.,0.,0.));
#200=CARTESIAN_POINT('',(196.,0.,9.75));
#201=CARTESIAN_POINT('',(0.,0.,0.));
#202=CARTESIAN_POINT('',(194.582179545096,0.,0.));
#203=CARTESIAN_POINT('',(194.582179545096,0.,10.));
#204=CARTESIAN_POINT('',(196.,0.,0.));
#205=CARTESIAN_POINT('',(55.,0.,0.));
#206=CARTESIAN_POINT('',(55.,0.,10.));
#207=CARTESIAN_POINT('',(0.,0.,0.));
#208=CARTESIAN_POINT('',(55.,0.,0.));
#209=CARTESIAN_POINT('',(55.,0.,9.45));
#210=CARTESIAN_POINT('',(55.,10.,0.));
#211=CARTESIAN_POINT('',(0.,0.,0.));
#212=MECHANICAL_DESIGN_GEOMETRIC_PRESENTATION_REPRESENTATION('',(#84,#85),
#213);
#213=(
GEOMETRIC_REPRESENTATION_CONTEXT(3)
GLOBAL_UNCERTAINTY_ASSIGNED_CONTEXT((#214))
GLOBAL_UNIT_ASSIGNED_CONTEXT((#220,#216,#215))
REPRESENTATION_CONTEXT('APMR-RO20-D20-C20-L200',
'TOP_LEVEL_ASSEMBLY_PART')
);
#214=UNCERTAINTY_MEASURE_WITH_UNIT(LENGTH_MEASURE(2.E-5),#220,
'DISTANCE_ACCURACY_VALUE','Maximum Tolerance applied to model');
#215=(
NAMED_UNIT(*)
SI_UNIT($,.STERADIAN.)
SOLID_ANGLE_UNIT()
);
#216=(
CONVERSION_BASED_UNIT('DEGREE',#218)
NAMED_UNIT(#217)
PLANE_ANGLE_UNIT()
);
#217=DIMENSIONAL_EXPONENTS(0.,0.,0.,0.,0.,0.,0.);
#218=PLANE_ANGLE_MEASURE_WITH_UNIT(PLANE_ANGLE_MEASURE(0.0174532925),#219);
#219=(
NAMED_UNIT(*)
PLANE_ANGLE_UNIT()
SI_UNIT($,.RADIAN.)
);
#220=(
LENGTH_UNIT()
NAMED_UNIT(*)
SI_UNIT(.MILLI.,.METRE.)
);
ENDSEC;
END-ISO-10303-21;
