ISO-10303-21;
HEADER;
/* Generated by software containing ST-Developer
 * from STEP Tools, Inc. (www.steptools.com) 
 */
/* OPTION: using custom schema-name function */

FILE_DESCRIPTION(
/* description */ (''),
/* implementation_level */ '2;1');

FILE_NAME(
/* name */ 'ASDM-CC09-D80x14-d27-Z08.stp',
/* time_stamp */ '2023-10-05T14:45:33+03:00',
/* author */ (''),
/* organization */ (''),
/* preprocessor_version */ 'ST-DEVELOPER v19.4',
/* originating_system */ 'SIEMENS PLM Software NX2306.5001',
/* authorisation */ '');

FILE_SCHEMA (('AUTOMOTIVE_DESIGN { 1 0 10303 214 3 1 1 1 }'));
ENDSEC;

DATA;
#10=PROPERTY_DEFINITION_REPRESENTATION(#14,#12);
#11=PROPERTY_DEFINITION_REPRESENTATION(#15,#13);
#12=REPRESENTATION('',(#16),#554);
#13=REPRESENTATION('',(#17),#554);
#14=PROPERTY_DEFINITION('pmi validation property','',#21);
#15=PROPERTY_DEFINITION('pmi validation property','',#21);
#16=VALUE_REPRESENTATION_ITEM('number of annotations',COUNT_MEASURE(0.));
#17=VALUE_REPRESENTATION_ITEM('number of views',COUNT_MEASURE(0.));
#18=SHAPE_REPRESENTATION_RELATIONSHIP('None',
'relationship between ASDM-CC09-D80x14-d27-Z08-LIGHT_x_t_objects-None 
and ASDM-CC09-D80x14-d27-Z08-LIGHT_x_t_objects-None',#30,#19);
#19=ADVANCED_BREP_SHAPE_REPRESENTATION(
'ASDM-CC09-D80x14-d27-Z08-LIGHT_x_t_objects-None',(#93,#94),#554);
#20=SHAPE_DEFINITION_REPRESENTATION(#21,#30);
#21=PRODUCT_DEFINITION_SHAPE('','',#22);
#22=PRODUCT_DEFINITION(' ','',#24,#23);
#23=PRODUCT_DEFINITION_CONTEXT('part definition',#29,'design');
#24=PRODUCT_DEFINITION_FORMATION_WITH_SPECIFIED_SOURCE(' ',' ',#26,
 .NOT_KNOWN.);
#25=PRODUCT_RELATED_PRODUCT_CATEGORY('part','',(#26));
#26=PRODUCT('ASDM-CC09-D80x14-d27-Z08-LIGHT_x_t_objects',
'ASDM-CC09-D80x14-d27-Z08-LIGHT_x_t_objects',' ',(#27));
#27=PRODUCT_CONTEXT(' ',#29,'mechanical');
#28=APPLICATION_PROTOCOL_DEFINITION('international standard',
'automotive_design',2010,#29);
#29=APPLICATION_CONTEXT(
'core data for automotive mechanical design processes');
#30=SHAPE_REPRESENTATION(
'ASDM-CC09-D80x14-d27-Z08-LIGHT_x_t_objects-None',(#332),#554);
#31=DRAUGHTING_PRE_DEFINED_COLOUR('yellow');
#32=(
BOUNDED_CURVE()
B_SPLINE_CURVE(3,(#499,#500,#501,#502,#503,#504,#505),.UNSPECIFIED.,.T.,
 .F.)
B_SPLINE_CURVE_WITH_KNOTS((1,3,3,3,1),(-0.5,0.,0.5,1.,1.5),
 .UNSPECIFIED.)
CURVE()
GEOMETRIC_REPRESENTATION_ITEM()
RATIONAL_B_SPLINE_CURVE((1.,0.333333333333333,0.333333333333333,1.,0.333333333333333,
0.333333333333333,1.))
REPRESENTATION_ITEM('')
);
#33=SURFACE_OF_REVOLUTION('',#61,#47);
#34=SURFACE_OF_REVOLUTION('',#62,#48);
#35=SURFACE_OF_REVOLUTION('',#317,#49);
#36=SURFACE_OF_REVOLUTION('',#63,#50);
#37=SURFACE_OF_REVOLUTION('',#319,#51);
#38=SURFACE_OF_REVOLUTION('',#322,#52);
#39=SURFACE_OF_REVOLUTION('',#64,#53);
#40=SURFACE_OF_REVOLUTION('',#325,#54);
#41=SURFACE_OF_REVOLUTION('',#65,#55);
#42=SURFACE_OF_REVOLUTION('',#66,#56);
#43=SURFACE_OF_REVOLUTION('',#328,#57);
#44=SURFACE_OF_REVOLUTION('',#67,#58);
#45=SURFACE_OF_REVOLUTION('',#331,#59);
#46=SURFACE_OF_REVOLUTION('',#68,#60);
#47=AXIS1_PLACEMENT('',#496,#410);
#48=AXIS1_PLACEMENT('',#508,#414);
#49=AXIS1_PLACEMENT('',#512,#419);
#50=AXIS1_PLACEMENT('',#516,#423);
#51=AXIS1_PLACEMENT('',#518,#426);
#52=AXIS1_PLACEMENT('',#524,#433);
#53=AXIS1_PLACEMENT('',#528,#437);
#54=AXIS1_PLACEMENT('',#532,#442);
#55=AXIS1_PLACEMENT('',#534,#444);
#56=AXIS1_PLACEMENT('',#538,#448);
#57=AXIS1_PLACEMENT('',#542,#453);
#58=AXIS1_PLACEMENT('',#546,#457);
#59=AXIS1_PLACEMENT('',#550,#462);
#60=AXIS1_PLACEMENT('',#552,#464);
#61=LINE('',#495,#69);
#62=LINE('',#507,#70);
#63=LINE('',#515,#71);
#64=LINE('',#527,#72);
#65=LINE('',#533,#73);
#66=LINE('',#537,#74);
#67=LINE('',#545,#75);
#68=LINE('',#551,#76);
#69=VECTOR('',#409,1.44632056046005);
#70=VECTOR('',#413,8.04725589919454);
#71=VECTOR('',#422,8.04725589919461);
#72=VECTOR('',#436,8.04725589919453);
#73=VECTOR('',#443,4.35988924918125);
#74=VECTOR('',#447,1.44632056045933);
#75=VECTOR('',#456,3.24107661538213);
#76=VECTOR('',#463,3.24107661527015);
#77=PRESENTATION_LAYER_ASSIGNMENT('1','Layer 1',(#93,#94));
#78=STYLED_ITEM('',(#80),#93);
#79=STYLED_ITEM('',(#81),#94);
#80=PRESENTATION_STYLE_ASSIGNMENT((#82));
#81=PRESENTATION_STYLE_ASSIGNMENT((#83));
#82=SURFACE_STYLE_USAGE(.BOTH.,#84);
#83=SURFACE_STYLE_USAGE(.BOTH.,#85);
#84=SURFACE_SIDE_STYLE('',(#86));
#85=SURFACE_SIDE_STYLE('',(#87));
#86=SURFACE_STYLE_FILL_AREA(#88);
#87=SURFACE_STYLE_FILL_AREA(#89);
#88=FILL_AREA_STYLE('',(#90));
#89=FILL_AREA_STYLE('',(#91));
#90=FILL_AREA_STYLE_COLOUR('',#92);
#91=FILL_AREA_STYLE_COLOUR('',#31);
#92=COLOUR_RGB('silver gray',0.6,0.6,0.6);
#93=MANIFOLD_SOLID_BREP('',#95);
#94=MANIFOLD_SOLID_BREP('',#96);
#95=CLOSED_SHELL('',(#106,#107,#108,#109,#110,#111,#112,#113,#114));
#96=CLOSED_SHELL('',(#115,#116,#117,#118,#119,#120,#121,#122,#123,#124,
#125,#126,#127,#128));
#97=CYLINDRICAL_SURFACE('',#349,39.5);
#98=FACE_OUTER_BOUND('',#179,.T.);
#99=FACE_OUTER_BOUND('',#180,.T.);
#100=CONICAL_SURFACE('',#339,23.,44.9999999999999);
#101=CONICAL_SURFACE('',#344,20.5,45.0000000000001);
#102=PLANE('',#337);
#103=PLANE('',#340);
#104=PLANE('',#342);
#105=PLANE('',#346);
#106=ADVANCED_FACE('',(#131,#132),#129,.T.);
#107=ADVANCED_FACE('',(#133,#134),#102,.F.);
#108=ADVANCED_FACE('',(#135,#136),#100,.T.);
#109=ADVANCED_FACE('',(#98),#103,.F.);
#110=ADVANCED_FACE('',(#99),#104,.F.);
#111=ADVANCED_FACE('',(#137,#138),#101,.T.);
#112=ADVANCED_FACE('',(#139,#140),#105,.F.);
#113=ADVANCED_FACE('',(#141,#142),#130,.T.);
#114=ADVANCED_FACE('',(#143,#144),#97,.T.);
#115=ADVANCED_FACE('',(#145,#146),#33,.T.);
#116=ADVANCED_FACE('',(#147,#148),#34,.T.);
#117=ADVANCED_FACE('',(#149,#150),#35,.T.);
#118=ADVANCED_FACE('',(#151,#152),#36,.T.);
#119=ADVANCED_FACE('',(#153,#154),#37,.T.);
#120=ADVANCED_FACE('',(#155,#156),#38,.T.);
#121=ADVANCED_FACE('',(#157,#158),#39,.T.);
#122=ADVANCED_FACE('',(#159,#160),#40,.T.);
#123=ADVANCED_FACE('',(#161,#162),#41,.T.);
#124=ADVANCED_FACE('',(#163,#164),#42,.T.);
#125=ADVANCED_FACE('',(#165,#166),#43,.T.);
#126=ADVANCED_FACE('',(#167,#168),#44,.T.);
#127=ADVANCED_FACE('',(#169,#170),#45,.T.);
#128=ADVANCED_FACE('',(#171,#172),#46,.T.);
#129=TOROIDAL_SURFACE('',#335,38.7,0.8);
#130=TOROIDAL_SURFACE('',#348,38.7,0.8);
#131=FACE_BOUND('',#173,.T.);
#132=FACE_BOUND('',#174,.T.);
#133=FACE_BOUND('',#175,.T.);
#134=FACE_BOUND('',#176,.T.);
#135=FACE_BOUND('',#177,.T.);
#136=FACE_BOUND('',#178,.T.);
#137=FACE_BOUND('',#181,.T.);
#138=FACE_BOUND('',#182,.T.);
#139=FACE_BOUND('',#183,.T.);
#140=FACE_BOUND('',#184,.T.);
#141=FACE_BOUND('',#185,.T.);
#142=FACE_BOUND('',#186,.T.);
#143=FACE_BOUND('',#187,.T.);
#144=FACE_BOUND('',#188,.T.);
#145=FACE_BOUND('',#189,.T.);
#146=FACE_BOUND('',#190,.T.);
#147=FACE_BOUND('',#191,.T.);
#148=FACE_BOUND('',#192,.T.);
#149=FACE_BOUND('',#193,.T.);
#150=FACE_BOUND('',#194,.T.);
#151=FACE_BOUND('',#195,.T.);
#152=FACE_BOUND('',#196,.T.);
#153=FACE_BOUND('',#197,.T.);
#154=FACE_BOUND('',#198,.T.);
#155=FACE_BOUND('',#199,.T.);
#156=FACE_BOUND('',#200,.T.);
#157=FACE_BOUND('',#201,.T.);
#158=FACE_BOUND('',#202,.T.);
#159=FACE_BOUND('',#203,.T.);
#160=FACE_BOUND('',#204,.T.);
#161=FACE_BOUND('',#205,.T.);
#162=FACE_BOUND('',#206,.T.);
#163=FACE_BOUND('',#207,.T.);
#164=FACE_BOUND('',#208,.T.);
#165=FACE_BOUND('',#209,.T.);
#166=FACE_BOUND('',#210,.T.);
#167=FACE_BOUND('',#211,.T.);
#168=FACE_BOUND('',#212,.T.);
#169=FACE_BOUND('',#213,.T.);
#170=FACE_BOUND('',#214,.T.);
#171=FACE_BOUND('',#215,.T.);
#172=FACE_BOUND('',#216,.T.);
#173=EDGE_LOOP('',(#217));
#174=EDGE_LOOP('',(#218));
#175=EDGE_LOOP('',(#219));
#176=EDGE_LOOP('',(#220));
#177=EDGE_LOOP('',(#221));
#178=EDGE_LOOP('',(#222));
#179=EDGE_LOOP('',(#223));
#180=EDGE_LOOP('',(#224));
#181=EDGE_LOOP('',(#225));
#182=EDGE_LOOP('',(#226));
#183=EDGE_LOOP('',(#227));
#184=EDGE_LOOP('',(#228));
#185=EDGE_LOOP('',(#229));
#186=EDGE_LOOP('',(#230));
#187=EDGE_LOOP('',(#231));
#188=EDGE_LOOP('',(#232));
#189=EDGE_LOOP('',(#233));
#190=EDGE_LOOP('',(#234));
#191=EDGE_LOOP('',(#235));
#192=EDGE_LOOP('',(#236));
#193=EDGE_LOOP('',(#237));
#194=EDGE_LOOP('',(#238));
#195=EDGE_LOOP('',(#239));
#196=EDGE_LOOP('',(#240));
#197=EDGE_LOOP('',(#241));
#198=EDGE_LOOP('',(#242));
#199=EDGE_LOOP('',(#243));
#200=EDGE_LOOP('',(#244));
#201=EDGE_LOOP('',(#245));
#202=EDGE_LOOP('',(#246));
#203=EDGE_LOOP('',(#247));
#204=EDGE_LOOP('',(#248));
#205=EDGE_LOOP('',(#249));
#206=EDGE_LOOP('',(#250));
#207=EDGE_LOOP('',(#251));
#208=EDGE_LOOP('',(#252));
#209=EDGE_LOOP('',(#253));
#210=EDGE_LOOP('',(#254));
#211=EDGE_LOOP('',(#255));
#212=EDGE_LOOP('',(#256));
#213=EDGE_LOOP('',(#257));
#214=EDGE_LOOP('',(#258));
#215=EDGE_LOOP('',(#259));
#216=EDGE_LOOP('',(#260));
#217=ORIENTED_EDGE('',*,*,#283,.F.);
#218=ORIENTED_EDGE('',*,*,#284,.T.);
#219=ORIENTED_EDGE('',*,*,#285,.F.);
#220=ORIENTED_EDGE('',*,*,#283,.T.);
#221=ORIENTED_EDGE('',*,*,#286,.F.);
#222=ORIENTED_EDGE('',*,*,#285,.T.);
#223=ORIENTED_EDGE('',*,*,#286,.T.);
#224=ORIENTED_EDGE('',*,*,#287,.F.);
#225=ORIENTED_EDGE('',*,*,#288,.F.);
#226=ORIENTED_EDGE('',*,*,#287,.T.);
#227=ORIENTED_EDGE('',*,*,#289,.F.);
#228=ORIENTED_EDGE('',*,*,#288,.T.);
#229=ORIENTED_EDGE('',*,*,#290,.F.);
#230=ORIENTED_EDGE('',*,*,#289,.T.);
#231=ORIENTED_EDGE('',*,*,#284,.F.);
#232=ORIENTED_EDGE('',*,*,#290,.T.);
#233=ORIENTED_EDGE('',*,*,#291,.T.);
#234=ORIENTED_EDGE('',*,*,#292,.F.);
#235=ORIENTED_EDGE('',*,*,#293,.F.);
#236=ORIENTED_EDGE('',*,*,#294,.T.);
#237=ORIENTED_EDGE('',*,*,#295,.F.);
#238=ORIENTED_EDGE('',*,*,#293,.T.);
#239=ORIENTED_EDGE('',*,*,#296,.F.);
#240=ORIENTED_EDGE('',*,*,#295,.T.);
#241=ORIENTED_EDGE('',*,*,#291,.F.);
#242=ORIENTED_EDGE('',*,*,#296,.T.);
#243=ORIENTED_EDGE('',*,*,#297,.F.);
#244=ORIENTED_EDGE('',*,*,#298,.T.);
#245=ORIENTED_EDGE('',*,*,#298,.F.);
#246=ORIENTED_EDGE('',*,*,#299,.T.);
#247=ORIENTED_EDGE('',*,*,#299,.F.);
#248=ORIENTED_EDGE('',*,*,#300,.T.);
#249=ORIENTED_EDGE('',*,*,#294,.F.);
#250=ORIENTED_EDGE('',*,*,#297,.T.);
#251=ORIENTED_EDGE('',*,*,#300,.F.);
#252=ORIENTED_EDGE('',*,*,#301,.T.);
#253=ORIENTED_EDGE('',*,*,#302,.T.);
#254=ORIENTED_EDGE('',*,*,#301,.F.);
#255=ORIENTED_EDGE('',*,*,#302,.F.);
#256=ORIENTED_EDGE('',*,*,#303,.F.);
#257=ORIENTED_EDGE('',*,*,#304,.F.);
#258=ORIENTED_EDGE('',*,*,#292,.T.);
#259=ORIENTED_EDGE('',*,*,#304,.T.);
#260=ORIENTED_EDGE('',*,*,#303,.T.);
#261=VERTEX_POINT('',#467);
#262=VERTEX_POINT('',#469);
#263=VERTEX_POINT('',#472);
#264=VERTEX_POINT('',#475);
#265=VERTEX_POINT('',#479);
#266=VERTEX_POINT('',#482);
#267=VERTEX_POINT('',#485);
#268=VERTEX_POINT('',#488);
#269=VERTEX_POINT('',#492);
#270=VERTEX_POINT('',#494);
#271=VERTEX_POINT('',#498);
#272=VERTEX_POINT('',#506);
#273=VERTEX_POINT('',#510);
#274=VERTEX_POINT('',#514);
#275=VERTEX_POINT('',#520);
#276=VERTEX_POINT('',#522);
#277=VERTEX_POINT('',#526);
#278=VERTEX_POINT('',#530);
#279=VERTEX_POINT('',#536);
#280=VERTEX_POINT('',#540);
#281=VERTEX_POINT('',#544);
#282=VERTEX_POINT('',#548);
#283=EDGE_CURVE('',#261,#261,#305,.T.);
#284=EDGE_CURVE('',#262,#262,#306,.T.);
#285=EDGE_CURVE('',#263,#263,#307,.T.);
#286=EDGE_CURVE('',#264,#264,#308,.T.);
#287=EDGE_CURVE('',#265,#265,#309,.T.);
#288=EDGE_CURVE('',#266,#266,#310,.T.);
#289=EDGE_CURVE('',#267,#267,#311,.T.);
#290=EDGE_CURVE('',#268,#268,#312,.T.);
#291=EDGE_CURVE('',#269,#269,#313,.T.);
#292=EDGE_CURVE('',#270,#270,#314,.T.);
#293=EDGE_CURVE('',#271,#271,#315,.T.);
#294=EDGE_CURVE('',#272,#272,#32,.T.);
#295=EDGE_CURVE('',#273,#273,#316,.T.);
#296=EDGE_CURVE('',#274,#274,#318,.T.);
#297=EDGE_CURVE('',#275,#275,#320,.T.);
#298=EDGE_CURVE('',#276,#276,#321,.T.);
#299=EDGE_CURVE('',#277,#277,#323,.T.);
#300=EDGE_CURVE('',#278,#278,#324,.T.);
#301=EDGE_CURVE('',#279,#279,#326,.T.);
#302=EDGE_CURVE('',#280,#280,#327,.T.);
#303=EDGE_CURVE('',#281,#281,#329,.T.);
#304=EDGE_CURVE('',#282,#282,#330,.T.);
#305=CIRCLE('',#333,38.7);
#306=CIRCLE('',#334,39.5);
#307=CIRCLE('',#336,23.);
#308=CIRCLE('',#338,20.5);
#309=CIRCLE('',#341,20.5);
#310=CIRCLE('',#343,23.);
#311=CIRCLE('',#345,38.7);
#312=CIRCLE('',#347,39.5);
#313=CIRCLE('',#350,30.4801632882447);
#314=CIRCLE('',#351,30.478020173504);
#315=CIRCLE('',#352,39.9999994320365);
#316=CIRCLE('',#353,39.0626160890375);
#317=CIRCLE('',#354,0.8);
#318=CIRCLE('',#355,31.1418153188569);
#319=CIRCLE('',#356,0.8);
#320=CIRCLE('',#357,39.9999994320365);
#321=CIRCLE('',#358,39.0626160890375);
#322=CIRCLE('',#359,0.8);
#323=CIRCLE('',#360,31.1418153188569);
#324=CIRCLE('',#361,30.4801632882446);
#325=CIRCLE('',#362,0.8);
#326=CIRCLE('',#363,30.4780201735042);
#327=CIRCLE('',#364,30.4692989020947);
#328=CIRCLE('',#365,0.8);
#329=CIRCLE('',#366,30.4733637622469);
#330=CIRCLE('',#367,30.4692989020948);
#331=CIRCLE('',#368,0.8);
#332=AXIS2_PLACEMENT_3D('',#465,#369,#370);
#333=AXIS2_PLACEMENT_3D('',#466,#371,#372);
#334=AXIS2_PLACEMENT_3D('',#468,#373,#374);
#335=AXIS2_PLACEMENT_3D('',#470,#375,#376);
#336=AXIS2_PLACEMENT_3D('',#471,#377,#378);
#337=AXIS2_PLACEMENT_3D('',#473,#379,#380);
#338=AXIS2_PLACEMENT_3D('',#474,#381,#382);
#339=AXIS2_PLACEMENT_3D('',#476,#383,#384);
#340=AXIS2_PLACEMENT_3D('',#477,#385,#386);
#341=AXIS2_PLACEMENT_3D('',#478,#387,#388);
#342=AXIS2_PLACEMENT_3D('',#480,#389,#390);
#343=AXIS2_PLACEMENT_3D('',#481,#391,#392);
#344=AXIS2_PLACEMENT_3D('',#483,#393,#394);
#345=AXIS2_PLACEMENT_3D('',#484,#395,#396);
#346=AXIS2_PLACEMENT_3D('',#486,#397,#398);
#347=AXIS2_PLACEMENT_3D('',#487,#399,#400);
#348=AXIS2_PLACEMENT_3D('',#489,#401,#402);
#349=AXIS2_PLACEMENT_3D('',#490,#403,#404);
#350=AXIS2_PLACEMENT_3D('',#491,#405,#406);
#351=AXIS2_PLACEMENT_3D('',#493,#407,#408);
#352=AXIS2_PLACEMENT_3D('',#497,#411,#412);
#353=AXIS2_PLACEMENT_3D('',#509,#415,#416);
#354=AXIS2_PLACEMENT_3D('',#511,#417,#418);
#355=AXIS2_PLACEMENT_3D('',#513,#420,#421);
#356=AXIS2_PLACEMENT_3D('',#517,#424,#425);
#357=AXIS2_PLACEMENT_3D('',#519,#427,#428);
#358=AXIS2_PLACEMENT_3D('',#521,#429,#430);
#359=AXIS2_PLACEMENT_3D('',#523,#431,#432);
#360=AXIS2_PLACEMENT_3D('',#525,#434,#435);
#361=AXIS2_PLACEMENT_3D('',#529,#438,#439);
#362=AXIS2_PLACEMENT_3D('',#531,#440,#441);
#363=AXIS2_PLACEMENT_3D('',#535,#445,#446);
#364=AXIS2_PLACEMENT_3D('',#539,#449,#450);
#365=AXIS2_PLACEMENT_3D('',#541,#451,#452);
#366=AXIS2_PLACEMENT_3D('',#543,#454,#455);
#367=AXIS2_PLACEMENT_3D('',#547,#458,#459);
#368=AXIS2_PLACEMENT_3D('',#549,#460,#461);
#369=DIRECTION('',(0.,0.,1.));
#370=DIRECTION('',(1.,0.,0.));
#371=DIRECTION('',(-1.,0.,0.));
#372=DIRECTION('',(0.,0.,1.));
#373=DIRECTION('',(-1.,0.,0.));
#374=DIRECTION('',(0.,0.,1.));
#375=DIRECTION('',(-1.,0.,0.));
#376=DIRECTION('',(0.,0.,1.));
#377=DIRECTION('',(-1.,0.,0.));
#378=DIRECTION('',(0.,0.,1.));
#379=DIRECTION('',(1.,0.,0.));
#380=DIRECTION('',(0.,0.,-1.));
#381=DIRECTION('',(-1.,0.,0.));
#382=DIRECTION('',(0.,0.,1.));
#383=DIRECTION('',(1.,0.,0.));
#384=DIRECTION('',(-5.38391694645786E-17,0.,-1.));
#385=DIRECTION('',(1.,0.,0.));
#386=DIRECTION('',(0.,0.,-1.));
#387=DIRECTION('',(-1.,0.,0.));
#388=DIRECTION('',(0.,0.,1.));
#389=DIRECTION('',(-1.,0.,0.));
#390=DIRECTION('',(0.,0.,1.));
#391=DIRECTION('',(-1.,0.,0.));
#392=DIRECTION('',(0.,0.,1.));
#393=DIRECTION('',(-1.,0.,0.));
#394=DIRECTION('',(1.35990081409254E-17,0.,1.));
#395=DIRECTION('',(-1.,0.,0.));
#396=DIRECTION('',(0.,0.,1.));
#397=DIRECTION('',(-1.,0.,0.));
#398=DIRECTION('',(0.,0.,1.));
#399=DIRECTION('',(-1.,0.,0.));
#400=DIRECTION('',(0.,0.,1.));
#401=DIRECTION('',(-1.,0.,0.));
#402=DIRECTION('',(0.,0.,1.));
#403=DIRECTION('',(-1.,0.,0.));
#404=DIRECTION('',(0.,0.,1.));
#405=DIRECTION('',(-1.,0.,0.));
#406=DIRECTION('',(0.,0.,1.));
#407=DIRECTION('',(-1.,0.,0.));
#408=DIRECTION('',(0.,0.,1.));
#409=DIRECTION('',(0.999390827019096,0.00121797487008742,-0.0348782368720627));
#410=DIRECTION('',(-1.,0.,0.));
#411=DIRECTION('',(-1.,0.,0.));
#412=DIRECTION('',(0.,0.,1.));
#413=DIRECTION('',(-0.999390827019096,-0.00121797487008829,0.0348782368720627));
#414=DIRECTION('',(-1.,0.,0.));
#415=DIRECTION('',(-1.,0.,0.));
#416=DIRECTION('',(0.,0.,1.));
#417=DIRECTION('',(-0.0348994967025012,0.0348782368720626,-0.998782025129912));
#418=DIRECTION('',(-0.999390827019096,-0.00121797487009232,0.0348782368720627));
#419=DIRECTION('',(-1.,0.,0.));
#420=DIRECTION('',(-1.,0.,0.));
#421=DIRECTION('',(0.,0.,1.));
#422=DIRECTION('',(0.173542395888916,0.984419333854322,0.0283127526557775));
#423=DIRECTION('',(-1.,0.,0.));
#424=DIRECTION('',(-0.034899496702501,0.0348782368720627,-0.998782025129912));
#425=DIRECTION('',(0.999390827019096,0.00121797487008776,-0.0348782368720627));
#426=DIRECTION('',(-1.,0.,0.));
#427=DIRECTION('',(-1.,0.,0.));
#428=DIRECTION('',(0.,0.,1.));
#429=DIRECTION('',(-1.,0.,0.));
#430=DIRECTION('',(0.,0.,1.));
#431=DIRECTION('',(0.0348994967025009,0.730908180704651,-0.681582905088537));
#432=DIRECTION('',(0.999390827019096,-0.0255238760980198,0.0238013995181127));
#433=DIRECTION('',(-1.,0.,0.));
#434=DIRECTION('',(-1.,0.,0.));
#435=DIRECTION('',(0.,0.,1.));
#436=DIRECTION('',(0.173542395888917,-0.676069447102586,-0.716109725896485));
#437=DIRECTION('',(-1.,0.,0.));
#438=DIRECTION('',(-1.,0.,0.));
#439=DIRECTION('',(0.,0.,1.));
#440=DIRECTION('',(0.0348994967025018,0.730908180704651,-0.681582905088536));
#441=DIRECTION('',(-0.999390827019096,0.0255238760980203,-0.0238013995181132));
#442=DIRECTION('',(-1.,0.,0.));
#443=DIRECTION('',(-0.999390827019096,0.0255238760980193,-0.0238013995181127));
#444=DIRECTION('',(-1.,0.,0.));
#445=DIRECTION('',(-1.,0.,0.));
#446=DIRECTION('',(0.,0.,1.));
#447=DIRECTION('',(0.999390827019096,-0.0255238760980201,0.0238013995181122));
#448=DIRECTION('',(-1.,0.,0.));
#449=DIRECTION('',(-1.,0.,0.));
#450=DIRECTION('',(0.,0.,1.));
#451=DIRECTION('',(-0.034899496702501,0.0348782368720627,-0.998782025129912));
#452=DIRECTION('',(0.999390827019096,0.00121797487008776,-0.0348782368720627));
#453=DIRECTION('',(-1.,0.,0.));
#454=DIRECTION('',(1.,0.,0.));
#455=DIRECTION('',(0.,0.,1.));
#456=DIRECTION('',(0.999390827019096,0.00121797487008742,-0.0348782368720627));
#457=DIRECTION('',(-1.,0.,0.));
#458=DIRECTION('',(-1.,0.,0.));
#459=DIRECTION('',(0.,0.,1.));
#460=DIRECTION('',(0.0348994967025018,0.730908180704651,-0.681582905088536));
#461=DIRECTION('',(-0.999390827019096,0.0255238760980203,-0.0238013995181132));
#462=DIRECTION('',(-1.,0.,0.));
#463=DIRECTION('',(0.999390827019096,-0.0255238760980201,0.0238013995181122));
#464=DIRECTION('',(-1.,0.,0.));
#465=CARTESIAN_POINT('',(0.,0.,0.));
#466=CARTESIAN_POINT('',(0.5,0.,0.));
#467=CARTESIAN_POINT('',(0.5,0.,38.7));
#468=CARTESIAN_POINT('',(1.3,0.,0.));
#469=CARTESIAN_POINT('',(1.3,0.,39.5));
#470=CARTESIAN_POINT('',(1.3,0.,0.));
#471=CARTESIAN_POINT('',(0.5,0.,0.));
#472=CARTESIAN_POINT('',(0.5,0.,23.));
#473=CARTESIAN_POINT('',(0.5,23.,0.));
#474=CARTESIAN_POINT('',(-2.,0.,0.));
#475=CARTESIAN_POINT('',(-2.,0.,20.5));
#476=CARTESIAN_POINT('',(0.5,0.,0.));
#477=CARTESIAN_POINT('',(-2.,15.,0.));
#478=CARTESIAN_POINT('',(16.,0.,0.));
#479=CARTESIAN_POINT('',(16.,0.,20.5));
#480=CARTESIAN_POINT('',(16.,20.5,0.));
#481=CARTESIAN_POINT('',(13.5,0.,0.));
#482=CARTESIAN_POINT('',(13.5,0.,23.));
#483=CARTESIAN_POINT('',(16.,0.,0.));
#484=CARTESIAN_POINT('',(13.5,0.,0.));
#485=CARTESIAN_POINT('',(13.5,0.,38.7));
#486=CARTESIAN_POINT('',(13.5,38.7,0.));
#487=CARTESIAN_POINT('',(12.7,0.,0.));
#488=CARTESIAN_POINT('',(12.7,0.,39.5));
#489=CARTESIAN_POINT('',(12.7,0.,0.));
#490=CARTESIAN_POINT('',(0.,0.,0.));
#491=CARTESIAN_POINT('',(2.19674851069271,0.,0.));
#492=CARTESIAN_POINT('',(2.19674851069271,0.,30.4801632882447));
#493=CARTESIAN_POINT('',(3.6421880117456,0.,0.));
#494=CARTESIAN_POINT('',(3.6421880117456,0.,30.478020173504));
#495=CARTESIAN_POINT('',(2.19674851069271,-30.479090085233,0.255776571057993));
#496=CARTESIAN_POINT('',(13.5,0.,0.));
#497=CARTESIAN_POINT('',(0.800208441615276,0.,0.));
#498=CARTESIAN_POINT('',(0.800208441615276,0.,39.9999994320365));
#499=CARTESIAN_POINT('',(8.8425621699456,6.39679281766448E-15,39.9913788635993));
#500=CARTESIAN_POINT('',(8.8425621699456,79.9827577271986,39.9913788635993));
#501=CARTESIAN_POINT('',(8.8425621699456,79.9827577271986,-39.9913788635993));
#502=CARTESIAN_POINT('',(8.8425621699456,-1.46367293285543E-15,-39.9913788635993));
#503=CARTESIAN_POINT('',(8.8425621699456,-79.9827577271986,-39.9913788635993));
#504=CARTESIAN_POINT('',(8.8425621699456,-79.9827577271986,39.9913788635993));
#505=CARTESIAN_POINT('',(8.8425621699456,6.39679281766448E-15,39.9913788635993));
#506=CARTESIAN_POINT('',(8.8425602029397,1.85398571495021E-14,39.9932316176303));
#507=CARTESIAN_POINT('',(8.8425621699456,-39.9901883446456,-0.308576686919862));
#508=CARTESIAN_POINT('',(13.5,0.,0.));
#509=CARTESIAN_POINT('',(0.0128421738251269,0.,0.));
#510=CARTESIAN_POINT('',(0.0128421738251269,0.,39.0626160890375));
#511=CARTESIAN_POINT('',(0.800208441615279,-39.2004770384887,1.7007864346663E-5));
#512=CARTESIAN_POINT('',(13.5,0.,0.));
#513=CARTESIAN_POINT('',(1.40938224290256,0.,0.));
#514=CARTESIAN_POINT('',(1.40938224290256,0.,31.1418153188569));
#515=CARTESIAN_POINT('',(0.0128421738251142,-39.0626026986536,0.0323438815338581));
#516=CARTESIAN_POINT('',(13.5,0.,0.));
#517=CARTESIAN_POINT('',(2.19674851069271,-31.2786027468484,0.227856973695987));
#518=CARTESIAN_POINT('',(13.5,0.,0.));
#519=CARTESIAN_POINT('',(13.1997915583847,0.,0.));
#520=CARTESIAN_POINT('',(13.1997915583847,0.,39.9999994320365));
#521=CARTESIAN_POINT('',(13.9871578261749,0.,0.));
#522=CARTESIAN_POINT('',(13.9871578261749,0.,39.0626160890375));
#523=CARTESIAN_POINT('',(13.1997915583849,-27.7189351660394,-27.7189111132864));
#524=CARTESIAN_POINT('',(13.5,0.,0.));
#525=CARTESIAN_POINT('',(12.5906177570975,0.,0.));
#526=CARTESIAN_POINT('',(12.5906177570975,0.,31.1418153188569));
#527=CARTESIAN_POINT('',(12.5906177570974,-22.2037979905152,-21.83584246486));
#528=CARTESIAN_POINT('',(13.5,0.,0.));
#529=CARTESIAN_POINT('',(11.8032514893073,0.,0.));
#530=CARTESIAN_POINT('',(11.8032514893073,0.,30.4801632882446));
#531=CARTESIAN_POINT('',(11.8032514893073,-22.278431319578,-21.9561928970953));
#532=CARTESIAN_POINT('',(13.5,0.,0.));
#533=CARTESIAN_POINT('',(13.1997915583847,-28.2645338540895,-28.3039940745816));
#534=CARTESIAN_POINT('',(13.5,0.,0.));
#535=CARTESIAN_POINT('',(10.3578119882551,0.,0.));
#536=CARTESIAN_POINT('',(10.3578119882551,0.,30.4780201735042));
#537=CARTESIAN_POINT('',(10.3578119882551,-21.6959169247448,-21.4055343892907));
#538=CARTESIAN_POINT('',(13.5,0.,0.));
#539=CARTESIAN_POINT('',(10.239102239023,0.,0.));
#540=CARTESIAN_POINT('',(10.239102239023,0.,30.4692989020947));
#541=CARTESIAN_POINT('',(10.2391022390231,-31.2688013913901,-0.0528171237262247));
#542=CARTESIAN_POINT('',(13.5,0.,0.));
#543=CARTESIAN_POINT('',(6.99999999994404,0.,0.));
#544=CARTESIAN_POINT('',(6.99999999994404,0.,30.4733637622469));
#545=CARTESIAN_POINT('',(6.99999999994404,-30.4732362796442,0.0881455115475828));
#546=CARTESIAN_POINT('',(13.5,0.,0.));
#547=CARTESIAN_POINT('',(3.76089776097695,0.,0.));
#548=CARTESIAN_POINT('',(3.76089776097695,0.,30.4692989020948));
#549=CARTESIAN_POINT('',(3.76089776097695,-22.0730341570779,-22.1477288497765));
#550=CARTESIAN_POINT('',(13.5,0.,0.));
#551=CARTESIAN_POINT('',(3.76089776097695,-21.5274354690278,-21.5626458884811));
#552=CARTESIAN_POINT('',(13.5,0.,0.));
#553=MECHANICAL_DESIGN_GEOMETRIC_PRESENTATION_REPRESENTATION('',(#78,#79),
#554);
#554=(
GEOMETRIC_REPRESENTATION_CONTEXT(3)
GLOBAL_UNCERTAINTY_ASSIGNED_CONTEXT((#555))
GLOBAL_UNIT_ASSIGNED_CONTEXT((#561,#557,#556))
REPRESENTATION_CONTEXT('ASDM-CC09-D80x14-d27-Z08',
'TOP_LEVEL_ASSEMBLY_PART')
);
#555=UNCERTAINTY_MEASURE_WITH_UNIT(LENGTH_MEASURE(0.0508),#561,
'DISTANCE_ACCURACY_VALUE','Maximum Tolerance applied to model');
#556=(
NAMED_UNIT(*)
SI_UNIT($,.STERADIAN.)
SOLID_ANGLE_UNIT()
);
#557=(
CONVERSION_BASED_UNIT('DEGREE',#559)
NAMED_UNIT(#558)
PLANE_ANGLE_UNIT()
);
#558=DIMENSIONAL_EXPONENTS(0.,0.,0.,0.,0.,0.,0.);
#559=PLANE_ANGLE_MEASURE_WITH_UNIT(PLANE_ANGLE_MEASURE(0.0174532925),#560);
#560=(
NAMED_UNIT(*)
PLANE_ANGLE_UNIT()
SI_UNIT($,.RADIAN.)
);
#561=(
LENGTH_UNIT()
NAMED_UNIT(*)
SI_UNIT(.MILLI.,.METRE.)
);
ENDSEC;
END-ISO-10303-21;
