ISO-10303-21;
HEADER;
/* Generated by software containing ST-Developer
 * from STEP Tools, Inc. (www.steptools.com) 
 */
/* OPTION: using custom schema-name function */

FILE_DESCRIPTION(
/* description */ (''),
/* implementation_level */ '2;1');

FILE_NAME(
/* name */ 'ASTB-1212-L84-H.stp',
/* time_stamp */ '2023-11-04T01:39:07+03:00',
/* author */ (''),
/* organization */ (''),
/* preprocessor_version */ 'ST-DEVELOPER v19.4',
/* originating_system */ 'SIEMENS PLM Software NX2306.3001',
/* authorisation */ '');

FILE_SCHEMA (('AUTOMOTIVE_DESIGN { 1 0 10303 214 3 1 1 1 }'));
ENDSEC;

DATA;
#10=SHAPE_REPRESENTATION_RELATIONSHIP('None',
'relationship between ASTB-1212-L84-H-None and ASTB-1212-L84-H-None',#22,
#11);
#11=ADVANCED_BREP_SHAPE_REPRESENTATION('ASTB-1212-L84-H-None',(#32),#497);
#12=SHAPE_DEFINITION_REPRESENTATION(#13,#22);
#13=PRODUCT_DEFINITION_SHAPE('','',#14);
#14=PRODUCT_DEFINITION(' ','',#16,#15);
#15=PRODUCT_DEFINITION_CONTEXT('part definition',#21,'design');
#16=PRODUCT_DEFINITION_FORMATION_WITH_SPECIFIED_SOURCE(' ',' ',#18,
 .NOT_KNOWN.);
#17=PRODUCT_RELATED_PRODUCT_CATEGORY('part','',(#18));
#18=PRODUCT('ASTB-1212-L84-H','ASTB-1212-L84-H',' ',(#19));
#19=PRODUCT_CONTEXT(' ',#21,'mechanical');
#20=APPLICATION_PROTOCOL_DEFINITION('international standard',
'automotive_design',2010,#21);
#21=APPLICATION_CONTEXT(
'core data for automotive mechanical design processes');
#22=SHAPE_REPRESENTATION('ASTB-1212-L84-H-None',(#319),#497);
#23=PRESENTATION_LAYER_ASSIGNMENT('1','Layer 1',(#32));
#24=STYLED_ITEM('',(#25),#32);
#25=PRESENTATION_STYLE_ASSIGNMENT((#26));
#26=SURFACE_STYLE_USAGE(.BOTH.,#27);
#27=SURFACE_SIDE_STYLE('',(#28));
#28=SURFACE_STYLE_FILL_AREA(#29);
#29=FILL_AREA_STYLE('',(#30));
#30=FILL_AREA_STYLE_COLOUR('',#31);
#31=COLOUR_RGB('medium steel',0.596078431372549,0.666666666666667,0.686274509803922);
#32=MANIFOLD_SOLID_BREP('',#33);
#33=CLOSED_SHELL('',(#37,#38,#39,#40,#41,#42,#43,#44,#45,#46,#47,#48,#49,
#50,#51,#52,#53));
#34=CYLINDRICAL_SURFACE('',#328,4.);
#35=CIRCLE('',#322,4.);
#36=CIRCLE('',#327,4.);
#37=ADVANCED_FACE('',(#70),#54,.T.);
#38=ADVANCED_FACE('',(#71),#55,.T.);
#39=ADVANCED_FACE('',(#72),#56,.T.);
#40=ADVANCED_FACE('',(#73),#57,.T.);
#41=ADVANCED_FACE('',(#74),#58,.T.);
#42=ADVANCED_FACE('',(#75),#59,.T.);
#43=ADVANCED_FACE('',(#76),#34,.F.);
#44=ADVANCED_FACE('',(#77),#60,.T.);
#45=ADVANCED_FACE('',(#78),#61,.F.);
#46=ADVANCED_FACE('',(#79),#62,.F.);
#47=ADVANCED_FACE('',(#80),#63,.F.);
#48=ADVANCED_FACE('',(#81),#64,.T.);
#49=ADVANCED_FACE('',(#82),#65,.T.);
#50=ADVANCED_FACE('',(#83),#66,.F.);
#51=ADVANCED_FACE('',(#84),#67,.F.);
#52=ADVANCED_FACE('',(#85),#68,.T.);
#53=ADVANCED_FACE('',(#86),#69,.F.);
#54=PLANE('',#320);
#55=PLANE('',#321);
#56=PLANE('',#323);
#57=PLANE('',#324);
#58=PLANE('',#325);
#59=PLANE('',#326);
#60=PLANE('',#329);
#61=PLANE('',#330);
#62=PLANE('',#331);
#63=PLANE('',#332);
#64=PLANE('',#333);
#65=PLANE('',#334);
#66=PLANE('',#335);
#67=PLANE('',#336);
#68=PLANE('',#337);
#69=PLANE('',#338);
#70=FACE_OUTER_BOUND('',#87,.T.);
#71=FACE_OUTER_BOUND('',#88,.T.);
#72=FACE_OUTER_BOUND('',#89,.T.);
#73=FACE_OUTER_BOUND('',#90,.T.);
#74=FACE_OUTER_BOUND('',#91,.T.);
#75=FACE_OUTER_BOUND('',#92,.T.);
#76=FACE_OUTER_BOUND('',#93,.T.);
#77=FACE_OUTER_BOUND('',#94,.T.);
#78=FACE_OUTER_BOUND('',#95,.T.);
#79=FACE_OUTER_BOUND('',#96,.T.);
#80=FACE_OUTER_BOUND('',#97,.T.);
#81=FACE_OUTER_BOUND('',#98,.T.);
#82=FACE_OUTER_BOUND('',#99,.T.);
#83=FACE_OUTER_BOUND('',#100,.T.);
#84=FACE_OUTER_BOUND('',#101,.T.);
#85=FACE_OUTER_BOUND('',#102,.T.);
#86=FACE_OUTER_BOUND('',#103,.T.);
#87=EDGE_LOOP('',(#104,#105,#106,#107));
#88=EDGE_LOOP('',(#108,#109,#110,#111));
#89=EDGE_LOOP('',(#112,#113,#114,#115,#116,#117,#118,#119));
#90=EDGE_LOOP('',(#120,#121,#122,#123));
#91=EDGE_LOOP('',(#124,#125,#126,#127));
#92=EDGE_LOOP('',(#128,#129,#130,#131));
#93=EDGE_LOOP('',(#132,#133,#134,#135));
#94=EDGE_LOOP('',(#136,#137,#138,#139,#140,#141));
#95=EDGE_LOOP('',(#142,#143,#144,#145,#146,#147,#148,#149));
#96=EDGE_LOOP('',(#150,#151,#152,#153));
#97=EDGE_LOOP('',(#154,#155,#156,#157));
#98=EDGE_LOOP('',(#158,#159,#160,#161));
#99=EDGE_LOOP('',(#162,#163,#164,#165));
#100=EDGE_LOOP('',(#166,#167,#168,#169));
#101=EDGE_LOOP('',(#170,#171,#172,#173));
#102=EDGE_LOOP('',(#174,#175,#176,#177));
#103=EDGE_LOOP('',(#178,#179,#180,#181));
#104=ORIENTED_EDGE('',*,*,#206,.T.);
#105=ORIENTED_EDGE('',*,*,#207,.T.);
#106=ORIENTED_EDGE('',*,*,#208,.T.);
#107=ORIENTED_EDGE('',*,*,#209,.T.);
#108=ORIENTED_EDGE('',*,*,#210,.F.);
#109=ORIENTED_EDGE('',*,*,#211,.T.);
#110=ORIENTED_EDGE('',*,*,#212,.T.);
#111=ORIENTED_EDGE('',*,*,#213,.T.);
#112=ORIENTED_EDGE('',*,*,#214,.F.);
#113=ORIENTED_EDGE('',*,*,#215,.T.);
#114=ORIENTED_EDGE('',*,*,#216,.T.);
#115=ORIENTED_EDGE('',*,*,#217,.T.);
#116=ORIENTED_EDGE('',*,*,#218,.F.);
#117=ORIENTED_EDGE('',*,*,#219,.F.);
#118=ORIENTED_EDGE('',*,*,#220,.F.);
#119=ORIENTED_EDGE('',*,*,#221,.F.);
#120=ORIENTED_EDGE('',*,*,#222,.F.);
#121=ORIENTED_EDGE('',*,*,#223,.T.);
#122=ORIENTED_EDGE('',*,*,#214,.T.);
#123=ORIENTED_EDGE('',*,*,#224,.T.);
#124=ORIENTED_EDGE('',*,*,#225,.F.);
#125=ORIENTED_EDGE('',*,*,#224,.F.);
#126=ORIENTED_EDGE('',*,*,#221,.T.);
#127=ORIENTED_EDGE('',*,*,#226,.T.);
#128=ORIENTED_EDGE('',*,*,#227,.F.);
#129=ORIENTED_EDGE('',*,*,#226,.F.);
#130=ORIENTED_EDGE('',*,*,#220,.T.);
#131=ORIENTED_EDGE('',*,*,#228,.T.);
#132=ORIENTED_EDGE('',*,*,#229,.T.);
#133=ORIENTED_EDGE('',*,*,#230,.F.);
#134=ORIENTED_EDGE('',*,*,#228,.F.);
#135=ORIENTED_EDGE('',*,*,#219,.T.);
#136=ORIENTED_EDGE('',*,*,#231,.F.);
#137=ORIENTED_EDGE('',*,*,#229,.F.);
#138=ORIENTED_EDGE('',*,*,#218,.T.);
#139=ORIENTED_EDGE('',*,*,#232,.T.);
#140=ORIENTED_EDGE('',*,*,#210,.T.);
#141=ORIENTED_EDGE('',*,*,#233,.T.);
#142=ORIENTED_EDGE('',*,*,#230,.T.);
#143=ORIENTED_EDGE('',*,*,#231,.T.);
#144=ORIENTED_EDGE('',*,*,#234,.T.);
#145=ORIENTED_EDGE('',*,*,#235,.T.);
#146=ORIENTED_EDGE('',*,*,#236,.T.);
#147=ORIENTED_EDGE('',*,*,#222,.T.);
#148=ORIENTED_EDGE('',*,*,#225,.T.);
#149=ORIENTED_EDGE('',*,*,#227,.T.);
#150=ORIENTED_EDGE('',*,*,#212,.F.);
#151=ORIENTED_EDGE('',*,*,#237,.T.);
#152=ORIENTED_EDGE('',*,*,#206,.F.);
#153=ORIENTED_EDGE('',*,*,#238,.T.);
#154=ORIENTED_EDGE('',*,*,#232,.F.);
#155=ORIENTED_EDGE('',*,*,#217,.F.);
#156=ORIENTED_EDGE('',*,*,#239,.F.);
#157=ORIENTED_EDGE('',*,*,#211,.F.);
#158=ORIENTED_EDGE('',*,*,#234,.F.);
#159=ORIENTED_EDGE('',*,*,#233,.F.);
#160=ORIENTED_EDGE('',*,*,#213,.F.);
#161=ORIENTED_EDGE('',*,*,#240,.F.);
#162=ORIENTED_EDGE('',*,*,#239,.T.);
#163=ORIENTED_EDGE('',*,*,#216,.F.);
#164=ORIENTED_EDGE('',*,*,#241,.F.);
#165=ORIENTED_EDGE('',*,*,#237,.F.);
#166=ORIENTED_EDGE('',*,*,#235,.F.);
#167=ORIENTED_EDGE('',*,*,#240,.T.);
#168=ORIENTED_EDGE('',*,*,#238,.F.);
#169=ORIENTED_EDGE('',*,*,#242,.F.);
#170=ORIENTED_EDGE('',*,*,#241,.T.);
#171=ORIENTED_EDGE('',*,*,#215,.F.);
#172=ORIENTED_EDGE('',*,*,#243,.F.);
#173=ORIENTED_EDGE('',*,*,#207,.F.);
#174=ORIENTED_EDGE('',*,*,#236,.F.);
#175=ORIENTED_EDGE('',*,*,#242,.T.);
#176=ORIENTED_EDGE('',*,*,#209,.F.);
#177=ORIENTED_EDGE('',*,*,#244,.F.);
#178=ORIENTED_EDGE('',*,*,#223,.F.);
#179=ORIENTED_EDGE('',*,*,#244,.T.);
#180=ORIENTED_EDGE('',*,*,#208,.F.);
#181=ORIENTED_EDGE('',*,*,#243,.T.);
#182=VERTEX_POINT('',#418);
#183=VERTEX_POINT('',#419);
#184=VERTEX_POINT('',#421);
#185=VERTEX_POINT('',#423);
#186=VERTEX_POINT('',#427);
#187=VERTEX_POINT('',#428);
#188=VERTEX_POINT('',#430);
#189=VERTEX_POINT('',#432);
#190=VERTEX_POINT('',#436);
#191=VERTEX_POINT('',#437);
#192=VERTEX_POINT('',#439);
#193=VERTEX_POINT('',#441);
#194=VERTEX_POINT('',#443);
#195=VERTEX_POINT('',#445);
#196=VERTEX_POINT('',#447);
#197=VERTEX_POINT('',#449);
#198=VERTEX_POINT('',#453);
#199=VERTEX_POINT('',#454);
#200=VERTEX_POINT('',#459);
#201=VERTEX_POINT('',#463);
#202=VERTEX_POINT('',#467);
#203=VERTEX_POINT('',#471);
#204=VERTEX_POINT('',#476);
#205=VERTEX_POINT('',#478);
#206=EDGE_CURVE('',#182,#183,#245,.T.);
#207=EDGE_CURVE('',#183,#184,#246,.T.);
#208=EDGE_CURVE('',#184,#185,#247,.T.);
#209=EDGE_CURVE('',#185,#182,#248,.T.);
#210=EDGE_CURVE('',#186,#187,#249,.T.);
#211=EDGE_CURVE('',#186,#188,#250,.T.);
#212=EDGE_CURVE('',#188,#189,#251,.T.);
#213=EDGE_CURVE('',#189,#187,#252,.T.);
#214=EDGE_CURVE('',#190,#191,#253,.T.);
#215=EDGE_CURVE('',#190,#192,#254,.T.);
#216=EDGE_CURVE('',#192,#193,#255,.T.);
#217=EDGE_CURVE('',#193,#194,#256,.T.);
#218=EDGE_CURVE('',#195,#194,#257,.T.);
#219=EDGE_CURVE('',#196,#195,#35,.T.);
#220=EDGE_CURVE('',#197,#196,#258,.T.);
#221=EDGE_CURVE('',#191,#197,#259,.T.);
#222=EDGE_CURVE('',#198,#199,#260,.T.);
#223=EDGE_CURVE('',#198,#190,#261,.T.);
#224=EDGE_CURVE('',#191,#199,#262,.T.);
#225=EDGE_CURVE('',#199,#200,#263,.T.);
#226=EDGE_CURVE('',#197,#200,#264,.T.);
#227=EDGE_CURVE('',#200,#201,#265,.T.);
#228=EDGE_CURVE('',#196,#201,#266,.T.);
#229=EDGE_CURVE('',#195,#202,#267,.T.);
#230=EDGE_CURVE('',#201,#202,#36,.T.);
#231=EDGE_CURVE('',#202,#203,#268,.T.);
#232=EDGE_CURVE('',#194,#186,#269,.T.);
#233=EDGE_CURVE('',#187,#203,#270,.T.);
#234=EDGE_CURVE('',#203,#204,#271,.T.);
#235=EDGE_CURVE('',#204,#205,#272,.T.);
#236=EDGE_CURVE('',#205,#198,#273,.T.);
#237=EDGE_CURVE('',#188,#183,#274,.T.);
#238=EDGE_CURVE('',#182,#189,#275,.T.);
#239=EDGE_CURVE('',#188,#193,#276,.T.);
#240=EDGE_CURVE('',#204,#189,#277,.T.);
#241=EDGE_CURVE('',#183,#192,#278,.T.);
#242=EDGE_CURVE('',#205,#182,#279,.T.);
#243=EDGE_CURVE('',#184,#190,#280,.T.);
#244=EDGE_CURVE('',#198,#185,#281,.T.);
#245=LINE('',#417,#282);
#246=LINE('',#420,#283);
#247=LINE('',#422,#284);
#248=LINE('',#424,#285);
#249=LINE('',#426,#286);
#250=LINE('',#429,#287);
#251=LINE('',#431,#288);
#252=LINE('',#433,#289);
#253=LINE('',#435,#290);
#254=LINE('',#438,#291);
#255=LINE('',#440,#292);
#256=LINE('',#442,#293);
#257=LINE('',#444,#294);
#258=LINE('',#448,#295);
#259=LINE('',#450,#296);
#260=LINE('',#452,#297);
#261=LINE('',#455,#298);
#262=LINE('',#456,#299);
#263=LINE('',#458,#300);
#264=LINE('',#460,#301);
#265=LINE('',#462,#302);
#266=LINE('',#464,#303);
#267=LINE('',#466,#304);
#268=LINE('',#470,#305);
#269=LINE('',#472,#306);
#270=LINE('',#473,#307);
#271=LINE('',#475,#308);
#272=LINE('',#477,#309);
#273=LINE('',#479,#310);
#274=LINE('',#481,#311);
#275=LINE('',#482,#312);
#276=LINE('',#484,#313);
#277=LINE('',#486,#314);
#278=LINE('',#488,#315);
#279=LINE('',#490,#316);
#280=LINE('',#492,#317);
#281=LINE('',#494,#318);
#282=VECTOR('',#341,1.);
#283=VECTOR('',#342,1.);
#284=VECTOR('',#343,1.);
#285=VECTOR('',#344,1.);
#286=VECTOR('',#347,1.);
#287=VECTOR('',#348,1.);
#288=VECTOR('',#349,1.);
#289=VECTOR('',#350,1.);
#290=VECTOR('',#353,1.);
#291=VECTOR('',#354,1.);
#292=VECTOR('',#355,1.);
#293=VECTOR('',#356,1.);
#294=VECTOR('',#357,1.);
#295=VECTOR('',#360,1.);
#296=VECTOR('',#361,1.);
#297=VECTOR('',#364,1.);
#298=VECTOR('',#365,1.);
#299=VECTOR('',#366,1.);
#300=VECTOR('',#369,1.);
#301=VECTOR('',#370,1.);
#302=VECTOR('',#373,1.);
#303=VECTOR('',#374,1.);
#304=VECTOR('',#377,1.);
#305=VECTOR('',#382,1.);
#306=VECTOR('',#383,1.);
#307=VECTOR('',#384,1.);
#308=VECTOR('',#387,1.);
#309=VECTOR('',#388,1.);
#310=VECTOR('',#389,1.);
#311=VECTOR('',#392,1.);
#312=VECTOR('',#393,1.);
#313=VECTOR('',#396,1.);
#314=VECTOR('',#399,1.);
#315=VECTOR('',#402,1.);
#316=VECTOR('',#405,1.);
#317=VECTOR('',#408,1.);
#318=VECTOR('',#411,1.);
#319=AXIS2_PLACEMENT_3D('',#416,#339,#340);
#320=AXIS2_PLACEMENT_3D('',#425,#345,#346);
#321=AXIS2_PLACEMENT_3D('',#434,#351,#352);
#322=AXIS2_PLACEMENT_3D('',#446,#358,#359);
#323=AXIS2_PLACEMENT_3D('',#451,#362,#363);
#324=AXIS2_PLACEMENT_3D('',#457,#367,#368);
#325=AXIS2_PLACEMENT_3D('',#461,#371,#372);
#326=AXIS2_PLACEMENT_3D('',#465,#375,#376);
#327=AXIS2_PLACEMENT_3D('',#468,#378,#379);
#328=AXIS2_PLACEMENT_3D('',#469,#380,#381);
#329=AXIS2_PLACEMENT_3D('',#474,#385,#386);
#330=AXIS2_PLACEMENT_3D('',#480,#390,#391);
#331=AXIS2_PLACEMENT_3D('',#483,#394,#395);
#332=AXIS2_PLACEMENT_3D('',#485,#397,#398);
#333=AXIS2_PLACEMENT_3D('',#487,#400,#401);
#334=AXIS2_PLACEMENT_3D('',#489,#403,#404);
#335=AXIS2_PLACEMENT_3D('',#491,#406,#407);
#336=AXIS2_PLACEMENT_3D('',#493,#409,#410);
#337=AXIS2_PLACEMENT_3D('',#495,#412,#413);
#338=AXIS2_PLACEMENT_3D('',#496,#414,#415);
#339=DIRECTION('',(0.,0.,1.));
#340=DIRECTION('',(1.,0.,0.));
#341=DIRECTION('',(0.,0.,-1.));
#342=DIRECTION('',(0.,-1.,0.));
#343=DIRECTION('',(0.,0.,1.));
#344=DIRECTION('',(0.,1.,0.));
#345=DIRECTION('',(-1.,0.,0.));
#346=DIRECTION('',(0.,0.,1.));
#347=DIRECTION('',(0.,0.,1.));
#348=DIRECTION('',(-1.,-1.30104260698261E-15,0.));
#349=DIRECTION('',(0.,0.,1.));
#350=DIRECTION('',(1.,1.30104260698261E-15,0.));
#351=DIRECTION('',(-1.30104260698261E-15,1.,0.));
#352=DIRECTION('',(-1.,-1.30104260698261E-15,0.));
#353=DIRECTION('',(1.,0.,0.));
#354=DIRECTION('',(0.,1.,0.));
#355=DIRECTION('',(0.573576436351046,0.819152044288992,0.));
#356=DIRECTION('',(1.,1.30104260698261E-15,0.));
#357=DIRECTION('',(-6.30808536718838E-16,1.,0.));
#358=DIRECTION('',(0.,0.,-1.));
#359=DIRECTION('',(1.,0.,0.));
#360=DIRECTION('',(-1.,-2.43945488809238E-16,0.));
#361=DIRECTION('',(1.75785312232316E-13,1.,0.));
#362=DIRECTION('',(0.,0.,-1.));
#363=DIRECTION('',(-1.,0.,0.));
#364=DIRECTION('',(1.,0.,0.));
#365=DIRECTION('',(0.,0.,-1.));
#366=DIRECTION('',(0.,0.,1.));
#367=DIRECTION('',(0.,-1.,0.));
#368=DIRECTION('',(0.,0.,-1.));
#369=DIRECTION('',(1.75785312232316E-13,1.,0.));
#370=DIRECTION('',(0.,0.,1.));
#371=DIRECTION('',(1.,-1.75785312232316E-13,0.));
#372=DIRECTION('',(1.75789938161586E-13,1.,0.));
#373=DIRECTION('',(-1.,-2.43945488809238E-16,0.));
#374=DIRECTION('',(0.,0.,1.));
#375=DIRECTION('',(-2.43945488809238E-16,1.,0.));
#376=DIRECTION('',(-1.,-2.4459601011273E-16,0.));
#377=DIRECTION('',(0.,0.,1.));
#378=DIRECTION('',(0.,0.,-1.));
#379=DIRECTION('',(1.,0.,0.));
#380=DIRECTION('',(0.,0.,1.));
#381=DIRECTION('',(1.,0.,0.));
#382=DIRECTION('',(-6.30808536718838E-16,1.,0.));
#383=DIRECTION('',(-4.46048993944254E-16,0.707106781186548,0.707106781186548));
#384=DIRECTION('',(4.46048993944254E-16,-0.707106781186548,0.707106781186548));
#385=DIRECTION('',(1.,6.30808536718838E-16,0.));
#386=DIRECTION('',(-6.31439345255558E-16,1.,0.));
#387=DIRECTION('',(-1.,-1.30104260698261E-15,0.));
#388=DIRECTION('',(-0.573576436351046,-0.819152044288992,0.));
#389=DIRECTION('',(0.,-1.,0.));
#390=DIRECTION('',(0.,0.,-1.));
#391=DIRECTION('',(-1.,0.,0.));
#392=DIRECTION('',(-0.573576436351046,-0.819152044288992,0.));
#393=DIRECTION('',(0.573576436351046,0.819152044288992,0.));
#394=DIRECTION('',(0.819152044288992,-0.573576436351046,0.));
#395=DIRECTION('',(0.573576436351046,0.819152044288992,0.));
#396=DIRECTION('',(0.345437164189906,-0.663578618400426,-0.663578618400426));
#397=DIRECTION('',(9.19976050010025E-16,-0.707106781186547,0.707106781186547));
#398=DIRECTION('',(-1.,-1.30104260698261E-15,0.));
#399=DIRECTION('',(-0.345437164189907,0.663578618400425,-0.663578618400426));
#400=DIRECTION('',(-9.19976050010025E-16,0.707106781186547,0.707106781186547));
#401=DIRECTION('',(1.,1.30104260698261E-15,0.));
#402=DIRECTION('',(0.6901619708142,-0.217607233528032,-0.690161970814196));
#403=DIRECTION('',(-0.579227965339572,0.40557978767264,-0.707106781186544));
#404=DIRECTION('',(-0.573576436351046,-0.819152044288992,0.));
#405=DIRECTION('',(-0.6901619708142,0.217607233528033,-0.690161970814196));
#406=DIRECTION('',(0.579227965339572,-0.40557978767264,-0.707106781186545));
#407=DIRECTION('',(-0.573576436351046,-0.819152044288992,0.));
#408=DIRECTION('',(0.577350269189628,-0.577350269189625,-0.577350269189625));
#409=DIRECTION('',(0.707106781186546,0.,0.70710678118655));
#410=DIRECTION('',(0.,-1.,0.));
#411=DIRECTION('',(-0.577350269189628,0.577350269189625,-0.577350269189625));
#412=DIRECTION('',(-0.707106781186546,0.,0.70710678118655));
#413=DIRECTION('',(0.,1.,0.));
#414=DIRECTION('',(0.707106781186545,0.70710678118655,0.));
#415=DIRECTION('',(0.,0.,1.));
#416=CARTESIAN_POINT('',(0.,0.,0.));
#417=CARTESIAN_POINT('',(-8.67361737988404E-16,16.,0.));
#418=CARTESIAN_POINT('',(-8.67361737988404E-16,16.,-0.3));
#419=CARTESIAN_POINT('',(-8.67361737988404E-16,16.,-11.7));
#420=CARTESIAN_POINT('',(0.,21.5,-11.7));
#421=CARTESIAN_POINT('',(0.,0.299999999999998,-11.7));
#422=CARTESIAN_POINT('',(0.,0.299999999999998,-12.));
#423=CARTESIAN_POINT('',(0.,0.299999999999998,-0.3));
#424=CARTESIAN_POINT('',(0.,16.,-0.3));
#425=CARTESIAN_POINT('',(0.,21.5,-12.));
#426=CARTESIAN_POINT('',(16.,21.5,-12.));
#427=CARTESIAN_POINT('',(16.,21.5,-11.7));
#428=CARTESIAN_POINT('',(16.,21.5,-0.3));
#429=CARTESIAN_POINT('',(16.,21.5,-11.7));
#430=CARTESIAN_POINT('',(3.85114146015339,21.5,-11.7));
#431=CARTESIAN_POINT('',(3.85114146015339,21.5,0.));
#432=CARTESIAN_POINT('',(3.85114146015339,21.5,-0.3));
#433=CARTESIAN_POINT('',(16.,21.5,-0.3));
#434=CARTESIAN_POINT('',(16.,21.5,-12.));
#435=CARTESIAN_POINT('',(0.,0.,-12.));
#436=CARTESIAN_POINT('',(0.300000000000002,0.,-12.));
#437=CARTESIAN_POINT('',(83.9999999999979,0.,-12.));
#438=CARTESIAN_POINT('',(0.300000000000002,16.,-12.));
#439=CARTESIAN_POINT('',(0.300000000000001,15.9054103633363,-12.));
#440=CARTESIAN_POINT('',(4.09688707344008,21.3279270690947,-12.));
#441=CARTESIAN_POINT('',(4.00731157531891,21.2,-12.));
#442=CARTESIAN_POINT('',(20.,21.2,-12.));
#443=CARTESIAN_POINT('',(16.,21.2,-12.));
#444=CARTESIAN_POINT('',(16.,16.,-12.));
#445=CARTESIAN_POINT('',(16.,16.,-12.));
#446=CARTESIAN_POINT('',(20.,16.,-12.));
#447=CARTESIAN_POINT('',(20.,12.,-12.));
#448=CARTESIAN_POINT('',(84.,12.,-12.));
#449=CARTESIAN_POINT('',(84.,12.,-12.));
#450=CARTESIAN_POINT('',(83.9999999999979,0.,-12.));
#451=CARTESIAN_POINT('',(20.,16.,-12.));
#452=CARTESIAN_POINT('',(0.,0.,0.));
#453=CARTESIAN_POINT('',(0.300000000000003,-8.67361737988404E-16,0.));
#454=CARTESIAN_POINT('',(83.9999999999979,0.,0.));
#455=CARTESIAN_POINT('',(0.3,0.,-12.));
#456=CARTESIAN_POINT('',(83.9999999999979,0.,-12.));
#457=CARTESIAN_POINT('',(0.,0.,-12.));
#458=CARTESIAN_POINT('',(83.9999999999979,0.,0.));
#459=CARTESIAN_POINT('',(84.,12.,0.));
#460=CARTESIAN_POINT('',(84.,12.,-12.));
#461=CARTESIAN_POINT('',(83.9999999999979,0.,-12.));
#462=CARTESIAN_POINT('',(84.,12.,0.));
#463=CARTESIAN_POINT('',(20.,12.,0.));
#464=CARTESIAN_POINT('',(20.,12.,-12.));
#465=CARTESIAN_POINT('',(84.,12.,-12.));
#466=CARTESIAN_POINT('',(16.,16.,-12.));
#467=CARTESIAN_POINT('',(16.,16.,0.));
#468=CARTESIAN_POINT('',(20.,16.,0.));
#469=CARTESIAN_POINT('',(20.,16.,-12.));
#470=CARTESIAN_POINT('',(16.,16.,0.));
#471=CARTESIAN_POINT('',(16.,21.2,0.));
#472=CARTESIAN_POINT('',(16.,18.6,-14.6));
#473=CARTESIAN_POINT('',(16.,24.6,-3.4));
#474=CARTESIAN_POINT('',(16.,16.,-12.));
#475=CARTESIAN_POINT('',(20.,21.2,0.));
#476=CARTESIAN_POINT('',(4.00731157531891,21.2,0.));
#477=CARTESIAN_POINT('',(6.82554418003,25.2248532769538,0.));
#478=CARTESIAN_POINT('',(0.300000000000002,15.9054103633363,2.16840434497101E-16));
#479=CARTESIAN_POINT('',(0.300000000000002,16.,0.));
#480=CARTESIAN_POINT('',(20.,16.,0.));
#481=CARTESIAN_POINT('',(-4.17044419723319E-17,16.,-11.7));
#482=CARTESIAN_POINT('',(3.85114146015339,21.5,-0.3));
#483=CARTESIAN_POINT('',(3.85114146015339,21.5,0.));
#484=CARTESIAN_POINT('',(5.30082629132999,18.7151813495685,-14.4848186504315));
#485=CARTESIAN_POINT('',(16.,21.5,-11.7));
#486=CARTESIAN_POINT('',(5.91566845863863,17.5340805352603,3.66591946473964));
#487=CARTESIAN_POINT('',(20.,21.2,0.));
#488=CARTESIAN_POINT('',(2.00863691844596,15.3666792123164,-13.7086369184459));
#489=CARTESIAN_POINT('',(6.82554418003,25.2248532769538,-12.));
#490=CARTESIAN_POINT('',(2.00863691844595,15.3666792123164,1.70863691844594));
#491=CARTESIAN_POINT('',(6.82554418003,25.2248532769538,0.));
#492=CARTESIAN_POINT('',(-7.06666666666667,7.36666666666663,-4.63333333333337));
#493=CARTESIAN_POINT('',(0.,21.5,-11.7));
#494=CARTESIAN_POINT('',(-5.03333333333334,5.33333333333331,-5.33333333333331));
#495=CARTESIAN_POINT('',(0.300000000000002,16.,0.));
#496=CARTESIAN_POINT('',(0.,0.299999999999998,-12.));
#497=(
GEOMETRIC_REPRESENTATION_CONTEXT(3)
GLOBAL_UNCERTAINTY_ASSIGNED_CONTEXT((#498))
GLOBAL_UNIT_ASSIGNED_CONTEXT((#504,#500,#499))
REPRESENTATION_CONTEXT('ASTB-1212-L84-H','TOP_LEVEL_ASSEMBLY_PART')
);
#498=UNCERTAINTY_MEASURE_WITH_UNIT(LENGTH_MEASURE(2.E-5),#504,
'DISTANCE_ACCURACY_VALUE','Maximum Tolerance applied to model');
#499=(
NAMED_UNIT(*)
SI_UNIT($,.STERADIAN.)
SOLID_ANGLE_UNIT()
);
#500=(
CONVERSION_BASED_UNIT('DEGREE',#502)
NAMED_UNIT(#501)
PLANE_ANGLE_UNIT()
);
#501=DIMENSIONAL_EXPONENTS(0.,0.,0.,0.,0.,0.,0.);
#502=PLANE_ANGLE_MEASURE_WITH_UNIT(PLANE_ANGLE_MEASURE(0.0174532925),#503);
#503=(
NAMED_UNIT(*)
PLANE_ANGLE_UNIT()
SI_UNIT($,.RADIAN.)
);
#504=(
LENGTH_UNIT()
NAMED_UNIT(*)
SI_UNIT(.MILLI.,.METRE.)
);
ENDSEC;
END-ISO-10303-21;
