ISO-10303-21;
HEADER;
/* Generated by software containing ST-Developer
 * from STEP Tools, Inc. (www.steptools.com) 
 */
/* OPTION: using custom schema-name function */

FILE_DESCRIPTION(
/* description */ (''),
/* implementation_level */ '2;1');

FILE_NAME(
/* name */ 'ATM-C21-D28-W25-L90-Z01-H.stp',
/* time_stamp */ '2023-09-30T01:53:12+03:00',
/* author */ (''),
/* organization */ (''),
/* preprocessor_version */ 'ST-DEVELOPER v19.4',
/* originating_system */ 'SIEMENS PLM Software NX2306.5001',
/* authorisation */ '');

FILE_SCHEMA (('AUTOMOTIVE_DESIGN { 1 0 10303 214 3 1 1 1 }'));
ENDSEC;

DATA;
#10=PROPERTY_DEFINITION_REPRESENTATION(#14,#12);
#11=PROPERTY_DEFINITION_REPRESENTATION(#15,#13);
#12=REPRESENTATION('',(#16),#443);
#13=REPRESENTATION('',(#17),#443);
#14=PROPERTY_DEFINITION('pmi validation property','',#21);
#15=PROPERTY_DEFINITION('pmi validation property','',#21);
#16=VALUE_REPRESENTATION_ITEM('number of annotations',COUNT_MEASURE(0.));
#17=VALUE_REPRESENTATION_ITEM('number of views',COUNT_MEASURE(0.));
#18=SHAPE_REPRESENTATION_RELATIONSHIP('None',
'relationship between ATM-C21-D28-W25-L90-Z01-H-LIGHT_x_t_objects-None
 and ATM-C21-D28-W25-L90-Z01-H-LIGHT_x_t_objects-None',#30,#19);
#19=ADVANCED_BREP_SHAPE_REPRESENTATION(
'ATM-C21-D28-W25-L90-Z01-H-LIGHT_x_t_objects-None',(#69,#70),#443);
#20=SHAPE_DEFINITION_REPRESENTATION(#21,#30);
#21=PRODUCT_DEFINITION_SHAPE('','',#22);
#22=PRODUCT_DEFINITION(' ','',#24,#23);
#23=PRODUCT_DEFINITION_CONTEXT('part definition',#29,'design');
#24=PRODUCT_DEFINITION_FORMATION_WITH_SPECIFIED_SOURCE(' ',' ',#26,
 .NOT_KNOWN.);
#25=PRODUCT_RELATED_PRODUCT_CATEGORY('part','',(#26));
#26=PRODUCT('ATM-C21-D28-W25-L90-Z01-H-LIGHT_x_t_objects',
'ATM-C21-D28-W25-L90-Z01-H-LIGHT_x_t_objects',' ',(#27));
#27=PRODUCT_CONTEXT(' ',#29,'mechanical');
#28=APPLICATION_PROTOCOL_DEFINITION('international standard',
'automotive_design',2010,#29);
#29=APPLICATION_CONTEXT(
'core data for automotive mechanical design processes');
#30=SHAPE_REPRESENTATION(
'ATM-C21-D28-W25-L90-Z01-H-LIGHT_x_t_objects-None',(#265),#443);
#31=COLOUR_RGB('silver gray',0.6,0.6,0.6);
#32=CONICAL_SURFACE('',#287,11.25,2.00000000000004);
#33=CONICAL_SURFACE('',#291,12.5,30.);
#34=CONICAL_SURFACE('',#295,12.25,10.0000000000001);
#35=TOROIDAL_SURFACE('',#285,10.0774489801543,0.8);
#36=TOROIDAL_SURFACE('',#299,11.25,1.);
#37=FACE_BOUND('',#123,.T.);
#38=FACE_BOUND('',#124,.T.);
#39=FACE_BOUND('',#125,.T.);
#40=FACE_BOUND('',#126,.T.);
#41=FACE_BOUND('',#127,.T.);
#42=FACE_BOUND('',#128,.T.);
#43=FACE_BOUND('',#129,.T.);
#44=FACE_BOUND('',#130,.T.);
#45=FACE_BOUND('',#131,.T.);
#46=FACE_BOUND('',#132,.T.);
#47=FACE_BOUND('',#133,.T.);
#48=FACE_BOUND('',#134,.T.);
#49=FACE_BOUND('',#135,.T.);
#50=FACE_BOUND('',#136,.T.);
#51=FACE_BOUND('',#137,.T.);
#52=FACE_BOUND('',#138,.T.);
#53=PRESENTATION_LAYER_ASSIGNMENT('1','Layer 1',(#69,#70));
#54=STYLED_ITEM('',(#56),#69);
#55=STYLED_ITEM('',(#57),#70);
#56=PRESENTATION_STYLE_ASSIGNMENT((#58));
#57=PRESENTATION_STYLE_ASSIGNMENT((#59));
#58=SURFACE_STYLE_USAGE(.BOTH.,#60);
#59=SURFACE_STYLE_USAGE(.BOTH.,#61);
#60=SURFACE_SIDE_STYLE('',(#62));
#61=SURFACE_SIDE_STYLE('',(#63));
#62=SURFACE_STYLE_FILL_AREA(#64);
#63=SURFACE_STYLE_FILL_AREA(#65);
#64=FILL_AREA_STYLE('',(#66));
#65=FILL_AREA_STYLE('',(#67));
#66=FILL_AREA_STYLE_COLOUR('',#68);
#67=FILL_AREA_STYLE_COLOUR('',#31);
#68=DRAUGHTING_PRE_DEFINED_COLOUR('yellow');
#69=MANIFOLD_SOLID_BREP('',#71);
#70=MANIFOLD_SOLID_BREP('',#72);
#71=CLOSED_SHELL('',(#80,#81,#82,#83,#84,#85,#86,#87));
#72=CLOSED_SHELL('',(#88,#89,#90,#91,#92,#93,#94,#95,#96,#97));
#73=CYLINDRICAL_SURFACE('',#273,10.);
#74=CYLINDRICAL_SURFACE('',#276,14.);
#75=CYLINDRICAL_SURFACE('',#278,10.);
#76=CYLINDRICAL_SURFACE('',#281,14.);
#77=CYLINDRICAL_SURFACE('',#289,11.25);
#78=CYLINDRICAL_SURFACE('',#293,12.5);
#79=CYLINDRICAL_SURFACE('',#297,12.25);
#80=ADVANCED_FACE('',(#104),#98,.F.);
#81=ADVANCED_FACE('',(#105),#99,.F.);
#82=ADVANCED_FACE('',(#106),#73,.F.);
#83=ADVANCED_FACE('',(#107),#100,.F.);
#84=ADVANCED_FACE('',(#108),#74,.T.);
#85=ADVANCED_FACE('',(#109),#75,.F.);
#86=ADVANCED_FACE('',(#110),#101,.F.);
#87=ADVANCED_FACE('',(#111),#76,.T.);
#88=ADVANCED_FACE('',(#112),#102,.F.);
#89=ADVANCED_FACE('',(#37,#38),#35,.T.);
#90=ADVANCED_FACE('',(#39,#40),#32,.T.);
#91=ADVANCED_FACE('',(#41,#42),#77,.T.);
#92=ADVANCED_FACE('',(#43,#44),#33,.T.);
#93=ADVANCED_FACE('',(#45,#46),#78,.T.);
#94=ADVANCED_FACE('',(#47,#48),#34,.T.);
#95=ADVANCED_FACE('',(#49,#50),#79,.T.);
#96=ADVANCED_FACE('',(#51,#52),#36,.T.);
#97=ADVANCED_FACE('',(#113),#103,.F.);
#98=PLANE('',#268);
#99=PLANE('',#271);
#100=PLANE('',#275);
#101=PLANE('',#280);
#102=PLANE('',#283);
#103=PLANE('',#300);
#104=FACE_OUTER_BOUND('',#114,.T.);
#105=FACE_OUTER_BOUND('',#115,.T.);
#106=FACE_OUTER_BOUND('',#116,.T.);
#107=FACE_OUTER_BOUND('',#117,.T.);
#108=FACE_OUTER_BOUND('',#118,.T.);
#109=FACE_OUTER_BOUND('',#119,.T.);
#110=FACE_OUTER_BOUND('',#120,.T.);
#111=FACE_OUTER_BOUND('',#121,.T.);
#112=FACE_OUTER_BOUND('',#122,.T.);
#113=FACE_OUTER_BOUND('',#139,.T.);
#114=EDGE_LOOP('',(#157,#158,#159,#160));
#115=EDGE_LOOP('',(#161,#162,#163,#164));
#116=EDGE_LOOP('',(#165,#166,#167,#168));
#117=EDGE_LOOP('',(#169,#170,#171,#172));
#118=EDGE_LOOP('',(#173,#174,#175,#176));
#119=EDGE_LOOP('',(#177,#178,#179,#180));
#120=EDGE_LOOP('',(#181,#182,#183,#184));
#121=EDGE_LOOP('',(#185,#186,#187,#188));
#122=EDGE_LOOP('',(#189));
#123=EDGE_LOOP('',(#190));
#124=EDGE_LOOP('',(#191));
#125=EDGE_LOOP('',(#192));
#126=EDGE_LOOP('',(#193));
#127=EDGE_LOOP('',(#194));
#128=EDGE_LOOP('',(#195));
#129=EDGE_LOOP('',(#196));
#130=EDGE_LOOP('',(#197));
#131=EDGE_LOOP('',(#198));
#132=EDGE_LOOP('',(#199));
#133=EDGE_LOOP('',(#200));
#134=EDGE_LOOP('',(#201));
#135=EDGE_LOOP('',(#202));
#136=EDGE_LOOP('',(#203));
#137=EDGE_LOOP('',(#204));
#138=EDGE_LOOP('',(#205));
#139=EDGE_LOOP('',(#206));
#140=CIRCLE('',#266,14.);
#141=CIRCLE('',#267,10.);
#142=CIRCLE('',#269,10.);
#143=CIRCLE('',#270,14.);
#144=CIRCLE('',#272,10.);
#145=CIRCLE('',#274,14.);
#146=CIRCLE('',#277,10.);
#147=CIRCLE('',#279,14.);
#148=CIRCLE('',#282,10.0774489801543);
#149=CIRCLE('',#284,10.8769616417696);
#150=CIRCLE('',#286,11.25);
#151=CIRCLE('',#288,11.25);
#152=CIRCLE('',#290,12.5);
#153=CIRCLE('',#292,12.5);
#154=CIRCLE('',#294,12.25);
#155=CIRCLE('',#296,12.25);
#156=CIRCLE('',#298,11.25);
#157=ORIENTED_EDGE('',*,*,#224,.F.);
#158=ORIENTED_EDGE('',*,*,#225,.T.);
#159=ORIENTED_EDGE('',*,*,#226,.F.);
#160=ORIENTED_EDGE('',*,*,#227,.F.);
#161=ORIENTED_EDGE('',*,*,#228,.F.);
#162=ORIENTED_EDGE('',*,*,#226,.T.);
#163=ORIENTED_EDGE('',*,*,#229,.T.);
#164=ORIENTED_EDGE('',*,*,#224,.T.);
#165=ORIENTED_EDGE('',*,*,#230,.F.);
#166=ORIENTED_EDGE('',*,*,#231,.F.);
#167=ORIENTED_EDGE('',*,*,#228,.T.);
#168=ORIENTED_EDGE('',*,*,#232,.F.);
#169=ORIENTED_EDGE('',*,*,#233,.F.);
#170=ORIENTED_EDGE('',*,*,#234,.F.);
#171=ORIENTED_EDGE('',*,*,#230,.T.);
#172=ORIENTED_EDGE('',*,*,#235,.F.);
#173=ORIENTED_EDGE('',*,*,#236,.F.);
#174=ORIENTED_EDGE('',*,*,#229,.F.);
#175=ORIENTED_EDGE('',*,*,#237,.F.);
#176=ORIENTED_EDGE('',*,*,#233,.T.);
#177=ORIENTED_EDGE('',*,*,#227,.T.);
#178=ORIENTED_EDGE('',*,*,#231,.T.);
#179=ORIENTED_EDGE('',*,*,#238,.F.);
#180=ORIENTED_EDGE('',*,*,#232,.T.);
#181=ORIENTED_EDGE('',*,*,#238,.T.);
#182=ORIENTED_EDGE('',*,*,#234,.T.);
#183=ORIENTED_EDGE('',*,*,#239,.F.);
#184=ORIENTED_EDGE('',*,*,#235,.T.);
#185=ORIENTED_EDGE('',*,*,#239,.T.);
#186=ORIENTED_EDGE('',*,*,#237,.T.);
#187=ORIENTED_EDGE('',*,*,#225,.F.);
#188=ORIENTED_EDGE('',*,*,#236,.T.);
#189=ORIENTED_EDGE('',*,*,#240,.T.);
#190=ORIENTED_EDGE('',*,*,#240,.F.);
#191=ORIENTED_EDGE('',*,*,#241,.T.);
#192=ORIENTED_EDGE('',*,*,#241,.F.);
#193=ORIENTED_EDGE('',*,*,#242,.T.);
#194=ORIENTED_EDGE('',*,*,#242,.F.);
#195=ORIENTED_EDGE('',*,*,#243,.T.);
#196=ORIENTED_EDGE('',*,*,#243,.F.);
#197=ORIENTED_EDGE('',*,*,#244,.T.);
#198=ORIENTED_EDGE('',*,*,#244,.F.);
#199=ORIENTED_EDGE('',*,*,#245,.T.);
#200=ORIENTED_EDGE('',*,*,#245,.F.);
#201=ORIENTED_EDGE('',*,*,#246,.T.);
#202=ORIENTED_EDGE('',*,*,#246,.F.);
#203=ORIENTED_EDGE('',*,*,#247,.T.);
#204=ORIENTED_EDGE('',*,*,#247,.F.);
#205=ORIENTED_EDGE('',*,*,#248,.T.);
#206=ORIENTED_EDGE('',*,*,#248,.F.);
#207=VERTEX_POINT('',#383);
#208=VERTEX_POINT('',#384);
#209=VERTEX_POINT('',#386);
#210=VERTEX_POINT('',#388);
#211=VERTEX_POINT('',#395);
#212=VERTEX_POINT('',#396);
#213=VERTEX_POINT('',#401);
#214=VERTEX_POINT('',#402);
#215=VERTEX_POINT('',#415);
#216=VERTEX_POINT('',#418);
#217=VERTEX_POINT('',#421);
#218=VERTEX_POINT('',#424);
#219=VERTEX_POINT('',#427);
#220=VERTEX_POINT('',#430);
#221=VERTEX_POINT('',#433);
#222=VERTEX_POINT('',#436);
#223=VERTEX_POINT('',#439);
#224=EDGE_CURVE('',#207,#208,#249,.T.);
#225=EDGE_CURVE('',#207,#209,#140,.T.);
#226=EDGE_CURVE('',#210,#209,#250,.T.);
#227=EDGE_CURVE('',#208,#210,#141,.T.);
#228=EDGE_CURVE('',#210,#208,#142,.T.);
#229=EDGE_CURVE('',#209,#207,#143,.T.);
#230=EDGE_CURVE('',#211,#212,#144,.T.);
#231=EDGE_CURVE('',#210,#211,#251,.T.);
#232=EDGE_CURVE('',#212,#208,#252,.T.);
#233=EDGE_CURVE('',#213,#214,#145,.T.);
#234=EDGE_CURVE('',#211,#213,#253,.T.);
#235=EDGE_CURVE('',#214,#212,#254,.T.);
#236=EDGE_CURVE('',#207,#214,#255,.T.);
#237=EDGE_CURVE('',#213,#209,#256,.T.);
#238=EDGE_CURVE('',#212,#211,#146,.T.);
#239=EDGE_CURVE('',#214,#213,#147,.T.);
#240=EDGE_CURVE('',#215,#215,#148,.T.);
#241=EDGE_CURVE('',#216,#216,#149,.T.);
#242=EDGE_CURVE('',#217,#217,#150,.T.);
#243=EDGE_CURVE('',#218,#218,#151,.T.);
#244=EDGE_CURVE('',#219,#219,#152,.T.);
#245=EDGE_CURVE('',#220,#220,#153,.T.);
#246=EDGE_CURVE('',#221,#221,#154,.T.);
#247=EDGE_CURVE('',#222,#222,#155,.T.);
#248=EDGE_CURVE('',#223,#223,#156,.T.);
#249=LINE('',#382,#257);
#250=LINE('',#387,#258);
#251=LINE('',#397,#259);
#252=LINE('',#398,#260);
#253=LINE('',#403,#261);
#254=LINE('',#404,#262);
#255=LINE('',#406,#263);
#256=LINE('',#407,#264);
#257=VECTOR('',#303,1.);
#258=VECTOR('',#306,1.);
#259=VECTOR('',#319,1.);
#260=VECTOR('',#320,1.);
#261=VECTOR('',#325,1.);
#262=VECTOR('',#326,1.);
#263=VECTOR('',#329,1.);
#264=VECTOR('',#330,1.);
#265=AXIS2_PLACEMENT_3D('',#381,#301,#302);
#266=AXIS2_PLACEMENT_3D('',#385,#304,#305);
#267=AXIS2_PLACEMENT_3D('',#389,#307,#308);
#268=AXIS2_PLACEMENT_3D('',#390,#309,#310);
#269=AXIS2_PLACEMENT_3D('',#391,#311,#312);
#270=AXIS2_PLACEMENT_3D('',#392,#313,#314);
#271=AXIS2_PLACEMENT_3D('',#393,#315,#316);
#272=AXIS2_PLACEMENT_3D('',#394,#317,#318);
#273=AXIS2_PLACEMENT_3D('',#399,#321,#322);
#274=AXIS2_PLACEMENT_3D('',#400,#323,#324);
#275=AXIS2_PLACEMENT_3D('',#405,#327,#328);
#276=AXIS2_PLACEMENT_3D('',#408,#331,#332);
#277=AXIS2_PLACEMENT_3D('',#409,#333,#334);
#278=AXIS2_PLACEMENT_3D('',#410,#335,#336);
#279=AXIS2_PLACEMENT_3D('',#411,#337,#338);
#280=AXIS2_PLACEMENT_3D('',#412,#339,#340);
#281=AXIS2_PLACEMENT_3D('',#413,#341,#342);
#282=AXIS2_PLACEMENT_3D('',#414,#343,#344);
#283=AXIS2_PLACEMENT_3D('',#416,#345,#346);
#284=AXIS2_PLACEMENT_3D('',#417,#347,#348);
#285=AXIS2_PLACEMENT_3D('',#419,#349,#350);
#286=AXIS2_PLACEMENT_3D('',#420,#351,#352);
#287=AXIS2_PLACEMENT_3D('',#422,#353,#354);
#288=AXIS2_PLACEMENT_3D('',#423,#355,#356);
#289=AXIS2_PLACEMENT_3D('',#425,#357,#358);
#290=AXIS2_PLACEMENT_3D('',#426,#359,#360);
#291=AXIS2_PLACEMENT_3D('',#428,#361,#362);
#292=AXIS2_PLACEMENT_3D('',#429,#363,#364);
#293=AXIS2_PLACEMENT_3D('',#431,#365,#366);
#294=AXIS2_PLACEMENT_3D('',#432,#367,#368);
#295=AXIS2_PLACEMENT_3D('',#434,#369,#370);
#296=AXIS2_PLACEMENT_3D('',#435,#371,#372);
#297=AXIS2_PLACEMENT_3D('',#437,#373,#374);
#298=AXIS2_PLACEMENT_3D('',#438,#375,#376);
#299=AXIS2_PLACEMENT_3D('',#440,#377,#378);
#300=AXIS2_PLACEMENT_3D('',#441,#379,#380);
#301=DIRECTION('',(0.,0.,1.));
#302=DIRECTION('',(1.,0.,0.));
#303=DIRECTION('',(0.,6.12323399573677E-17,-1.));
#304=DIRECTION('',(1.,0.,0.));
#305=DIRECTION('',(0.,-6.12323399573677E-17,1.));
#306=DIRECTION('',(0.,-1.,0.));
#307=DIRECTION('',(1.,0.,0.));
#308=DIRECTION('',(0.,-6.12323399573677E-17,1.));
#309=DIRECTION('',(-1.,0.,0.));
#310=DIRECTION('',(0.,0.,1.));
#311=DIRECTION('',(1.,0.,0.));
#312=DIRECTION('',(0.,-1.,0.));
#313=DIRECTION('',(1.,0.,0.));
#314=DIRECTION('',(0.,-1.,0.));
#315=DIRECTION('',(-1.,0.,0.));
#316=DIRECTION('',(0.,0.,1.));
#317=DIRECTION('',(1.,0.,0.));
#318=DIRECTION('',(0.,-1.,0.));
#319=DIRECTION('',(-1.,0.,0.));
#320=DIRECTION('',(1.,0.,0.));
#321=DIRECTION('',(1.,0.,0.));
#322=DIRECTION('',(0.,0.,-1.));
#323=DIRECTION('',(1.,0.,0.));
#324=DIRECTION('',(0.,-1.,0.));
#325=DIRECTION('',(0.,-1.,0.));
#326=DIRECTION('',(0.,6.12323399573677E-17,-1.));
#327=DIRECTION('',(1.,0.,0.));
#328=DIRECTION('',(0.,0.,-1.));
#329=DIRECTION('',(-1.,0.,0.));
#330=DIRECTION('',(1.,0.,0.));
#331=DIRECTION('',(1.,0.,0.));
#332=DIRECTION('',(0.,0.,-1.));
#333=DIRECTION('',(1.,0.,0.));
#334=DIRECTION('',(0.,-6.12323399573677E-17,1.));
#335=DIRECTION('',(1.,0.,0.));
#336=DIRECTION('',(0.,0.,-1.));
#337=DIRECTION('',(1.,0.,0.));
#338=DIRECTION('',(0.,-6.12323399573677E-17,1.));
#339=DIRECTION('',(1.,0.,0.));
#340=DIRECTION('',(0.,0.,-1.));
#341=DIRECTION('',(1.,0.,0.));
#342=DIRECTION('',(0.,0.,-1.));
#343=DIRECTION('',(-1.,0.,0.));
#344=DIRECTION('',(0.,0.,1.));
#345=DIRECTION('',(1.,0.,0.));
#346=DIRECTION('',(0.,0.,-1.));
#347=DIRECTION('',(-1.,0.,0.));
#348=DIRECTION('',(0.,0.,1.));
#349=DIRECTION('',(-1.,0.,0.));
#350=DIRECTION('',(0.,0.,1.));
#351=DIRECTION('',(-1.,0.,0.));
#352=DIRECTION('',(0.,0.,1.));
#353=DIRECTION('',(1.,0.,0.));
#354=DIRECTION('',(2.36702962046302E-15,0.,-1.));
#355=DIRECTION('',(-1.,0.,0.));
#356=DIRECTION('',(0.,0.,1.));
#357=DIRECTION('',(-1.,0.,0.));
#358=DIRECTION('',(0.,0.,1.));
#359=DIRECTION('',(-1.,0.,0.));
#360=DIRECTION('',(0.,0.,1.));
#361=DIRECTION('',(1.,0.,0.));
#362=DIRECTION('',(-1.29402048163585E-16,0.,-1.));
#363=DIRECTION('',(-1.,0.,0.));
#364=DIRECTION('',(0.,0.,1.));
#365=DIRECTION('',(-1.,0.,0.));
#366=DIRECTION('',(0.,0.,1.));
#367=DIRECTION('',(-1.,0.,0.));
#368=DIRECTION('',(0.,0.,1.));
#369=DIRECTION('',(-1.,0.,0.));
#370=DIRECTION('',(-1.4718432499743E-16,0.,1.));
#371=DIRECTION('',(-1.,0.,0.));
#372=DIRECTION('',(0.,0.,1.));
#373=DIRECTION('',(-1.,0.,0.));
#374=DIRECTION('',(0.,0.,1.));
#375=DIRECTION('',(-1.,0.,0.));
#376=DIRECTION('',(0.,0.,1.));
#377=DIRECTION('',(-1.,0.,0.));
#378=DIRECTION('',(0.,0.,1.));
#379=DIRECTION('',(-1.,0.,0.));
#380=DIRECTION('',(0.,0.,1.));
#381=CARTESIAN_POINT('',(0.,0.,0.));
#382=CARTESIAN_POINT('',(21.,-6.12323399573677E-16,10.));
#383=CARTESIAN_POINT('',(21.,2.57175827820944E-15,14.));
#384=CARTESIAN_POINT('',(21.,1.83697019872103E-15,10.));
#385=CARTESIAN_POINT('',(21.,0.,0.));
#386=CARTESIAN_POINT('',(21.,-14.,0.));
#387=CARTESIAN_POINT('',(21.,-10.,0.));
#388=CARTESIAN_POINT('',(21.,-10.,0.));
#389=CARTESIAN_POINT('',(21.,0.,0.));
#390=CARTESIAN_POINT('',(21.,-6.12323399573677E-16,10.));
#391=CARTESIAN_POINT('',(21.,0.,0.));
#392=CARTESIAN_POINT('',(21.,0.,0.));
#393=CARTESIAN_POINT('',(21.,-10.,0.));
#394=CARTESIAN_POINT('',(0.,0.,0.));
#395=CARTESIAN_POINT('',(0.,-10.,0.));
#396=CARTESIAN_POINT('',(0.,1.83697019872103E-15,10.));
#397=CARTESIAN_POINT('',(0.,-10.,0.));
#398=CARTESIAN_POINT('',(0.,-6.12323399573677E-16,10.));
#399=CARTESIAN_POINT('',(11.954501313166,0.,0.));
#400=CARTESIAN_POINT('',(0.,0.,0.));
#401=CARTESIAN_POINT('',(0.,-14.,0.));
#402=CARTESIAN_POINT('',(0.,2.57175827820944E-15,14.));
#403=CARTESIAN_POINT('',(0.,-14.,0.));
#404=CARTESIAN_POINT('',(0.,-8.57252759403147E-16,14.));
#405=CARTESIAN_POINT('',(0.,-14.,0.));
#406=CARTESIAN_POINT('',(0.,-8.57252759403147E-16,14.));
#407=CARTESIAN_POINT('',(0.,-14.,0.));
#408=CARTESIAN_POINT('',(11.954501313166,0.,0.));
#409=CARTESIAN_POINT('',(0.,0.,0.));
#410=CARTESIAN_POINT('',(11.954501313166,0.,0.));
#411=CARTESIAN_POINT('',(0.,0.,0.));
#412=CARTESIAN_POINT('',(0.,-8.57252759403147E-16,14.));
#413=CARTESIAN_POINT('',(11.954501313166,0.,0.));
#414=CARTESIAN_POINT('',(0.5,0.,0.));
#415=CARTESIAN_POINT('',(0.5,0.,10.0774489801543));
#416=CARTESIAN_POINT('',(0.5,0.,0.));
#417=CARTESIAN_POINT('',(1.272080402638,0.,0.));
#418=CARTESIAN_POINT('',(1.272080402638,0.,10.8769616417696));
#419=CARTESIAN_POINT('',(1.3,0.,0.));
#420=CARTESIAN_POINT('',(11.954501313166,0.,0.));
#421=CARTESIAN_POINT('',(11.954501313166,0.,11.25));
#422=CARTESIAN_POINT('',(11.954501313166,0.,0.));
#423=CARTESIAN_POINT('',(30.,0.,0.));
#424=CARTESIAN_POINT('',(30.,0.,11.25));
#425=CARTESIAN_POINT('',(0.,0.,0.));
#426=CARTESIAN_POINT('',(32.1650635094611,0.,0.));
#427=CARTESIAN_POINT('',(32.1650635094611,0.,12.5));
#428=CARTESIAN_POINT('',(32.1650635094611,0.,0.));
#429=CARTESIAN_POINT('',(84.5821795450956,0.,0.));
#430=CARTESIAN_POINT('',(84.5821795450956,0.,12.5));
#431=CARTESIAN_POINT('',(0.,0.,0.));
#432=CARTESIAN_POINT('',(86.,0.,0.));
#433=CARTESIAN_POINT('',(86.,0.,12.25));
#434=CARTESIAN_POINT('',(86.,0.,0.));
#435=CARTESIAN_POINT('',(89.,0.,0.));
#436=CARTESIAN_POINT('',(89.,0.,12.25));
#437=CARTESIAN_POINT('',(0.,0.,0.));
#438=CARTESIAN_POINT('',(90.,0.,0.));
#439=CARTESIAN_POINT('',(90.,0.,11.25));
#440=CARTESIAN_POINT('',(89.,0.,0.));
#441=CARTESIAN_POINT('',(90.,11.25,0.));
#442=MECHANICAL_DESIGN_GEOMETRIC_PRESENTATION_REPRESENTATION('',(#54,#55),
#443);
#443=(
GEOMETRIC_REPRESENTATION_CONTEXT(3)
GLOBAL_UNCERTAINTY_ASSIGNED_CONTEXT((#444))
GLOBAL_UNIT_ASSIGNED_CONTEXT((#450,#446,#445))
REPRESENTATION_CONTEXT('ATM-C21-D28-W25-L90-Z01-H',
'TOP_LEVEL_ASSEMBLY_PART')
);
#444=UNCERTAINTY_MEASURE_WITH_UNIT(LENGTH_MEASURE(2.E-5),#450,
'DISTANCE_ACCURACY_VALUE','Maximum Tolerance applied to model');
#445=(
NAMED_UNIT(*)
SI_UNIT($,.STERADIAN.)
SOLID_ANGLE_UNIT()
);
#446=(
CONVERSION_BASED_UNIT('DEGREE',#448)
NAMED_UNIT(#447)
PLANE_ANGLE_UNIT()
);
#447=DIMENSIONAL_EXPONENTS(0.,0.,0.,0.,0.,0.,0.);
#448=PLANE_ANGLE_MEASURE_WITH_UNIT(PLANE_ANGLE_MEASURE(0.0174532925),#449);
#449=(
NAMED_UNIT(*)
PLANE_ANGLE_UNIT()
SI_UNIT($,.RADIAN.)
);
#450=(
LENGTH_UNIT()
NAMED_UNIT(*)
SI_UNIT(.MILLI.,.METRE.)
);
ENDSEC;
END-ISO-10303-21;
