ISO-10303-21;
HEADER;
/* Generated by software containing ST-Developer
 * from STEP Tools, Inc. (www.steptools.com) 
 */
/* OPTION: using custom schema-name function */

FILE_DESCRIPTION(
/* description */ (''),
/* implementation_level */ '2;1');

FILE_NAME(
/* name */ 'ATM-C21-D38-W32-L90-Z03-H.stp',
/* time_stamp */ '2023-09-30T00:37:08+03:00',
/* author */ (''),
/* organization */ (''),
/* preprocessor_version */ 'ST-DEVELOPER v19.4',
/* originating_system */ 'SIEMENS PLM Software NX2306.5001',
/* authorisation */ '');

FILE_SCHEMA (('AUTOMOTIVE_DESIGN { 1 0 10303 214 3 1 1 1 }'));
ENDSEC;

DATA;
#10=PROPERTY_DEFINITION_REPRESENTATION(#14,#12);
#11=PROPERTY_DEFINITION_REPRESENTATION(#15,#13);
#12=REPRESENTATION('',(#16),#443);
#13=REPRESENTATION('',(#17),#443);
#14=PROPERTY_DEFINITION('pmi validation property','',#21);
#15=PROPERTY_DEFINITION('pmi validation property','',#21);
#16=VALUE_REPRESENTATION_ITEM('number of annotations',COUNT_MEASURE(0.));
#17=VALUE_REPRESENTATION_ITEM('number of views',COUNT_MEASURE(0.));
#18=SHAPE_REPRESENTATION_RELATIONSHIP('None',
'relationship between ATM-C21-D38-W32-L90-Z03-H-LIGHT_x_t_objects-None
 and ATM-C21-D38-W32-L90-Z03-H-LIGHT_x_t_objects-None',#30,#19);
#19=ADVANCED_BREP_SHAPE_REPRESENTATION(
'ATM-C21-D38-W32-L90-Z03-H-LIGHT_x_t_objects-None',(#64,#65),#443);
#20=SHAPE_DEFINITION_REPRESENTATION(#21,#30);
#21=PRODUCT_DEFINITION_SHAPE('','',#22);
#22=PRODUCT_DEFINITION(' ','',#24,#23);
#23=PRODUCT_DEFINITION_CONTEXT('part definition',#29,'design');
#24=PRODUCT_DEFINITION_FORMATION_WITH_SPECIFIED_SOURCE(' ',' ',#26,
 .NOT_KNOWN.);
#25=PRODUCT_RELATED_PRODUCT_CATEGORY('part','',(#26));
#26=PRODUCT('ATM-C21-D38-W32-L90-Z03-H-LIGHT_x_t_objects',
'ATM-C21-D38-W32-L90-Z03-H-LIGHT_x_t_objects',' ',(#27));
#27=PRODUCT_CONTEXT(' ',#29,'mechanical');
#28=APPLICATION_PROTOCOL_DEFINITION('international standard',
'automotive_design',2010,#29);
#29=APPLICATION_CONTEXT(
'core data for automotive mechanical design processes');
#30=SHAPE_REPRESENTATION(
'ATM-C21-D38-W32-L90-Z03-H-LIGHT_x_t_objects-None',(#265),#443);
#31=DRAUGHTING_PRE_DEFINED_COLOUR('yellow');
#32=LINE('',#410,#40);
#33=LINE('',#415,#41);
#34=LINE('',#425,#42);
#35=LINE('',#426,#43);
#36=LINE('',#431,#44);
#37=LINE('',#432,#45);
#38=LINE('',#434,#46);
#39=LINE('',#435,#47);
#40=VECTOR('',#341,1.);
#41=VECTOR('',#344,1.);
#42=VECTOR('',#357,1.);
#43=VECTOR('',#358,1.);
#44=VECTOR('',#363,1.);
#45=VECTOR('',#364,1.);
#46=VECTOR('',#367,1.);
#47=VECTOR('',#368,1.);
#48=PRESENTATION_LAYER_ASSIGNMENT('1','Layer 1',(#64,#65));
#49=STYLED_ITEM('',(#51),#64);
#50=STYLED_ITEM('',(#52),#65);
#51=PRESENTATION_STYLE_ASSIGNMENT((#53));
#52=PRESENTATION_STYLE_ASSIGNMENT((#54));
#53=SURFACE_STYLE_USAGE(.BOTH.,#55);
#54=SURFACE_STYLE_USAGE(.BOTH.,#56);
#55=SURFACE_SIDE_STYLE('',(#57));
#56=SURFACE_SIDE_STYLE('',(#58));
#57=SURFACE_STYLE_FILL_AREA(#59);
#58=SURFACE_STYLE_FILL_AREA(#60);
#59=FILL_AREA_STYLE('',(#61));
#60=FILL_AREA_STYLE('',(#62));
#61=FILL_AREA_STYLE_COLOUR('',#63);
#62=FILL_AREA_STYLE_COLOUR('',#31);
#63=COLOUR_RGB('silver gray',0.6,0.6,0.6);
#64=MANIFOLD_SOLID_BREP('',#66);
#65=MANIFOLD_SOLID_BREP('',#67);
#66=CLOSED_SHELL('',(#96,#97,#98,#99,#100,#101,#102,#103,#104,#105));
#67=CLOSED_SHELL('',(#106,#107,#108,#109,#110,#111,#112,#113));
#68=CYLINDRICAL_SURFACE('',#273,15.25);
#69=CYLINDRICAL_SURFACE('',#277,16.);
#70=CYLINDRICAL_SURFACE('',#281,15.75);
#71=CYLINDRICAL_SURFACE('',#292,14.);
#72=CYLINDRICAL_SURFACE('',#295,19.);
#73=CYLINDRICAL_SURFACE('',#297,14.);
#74=CYLINDRICAL_SURFACE('',#300,19.);
#75=CONICAL_SURFACE('',#271,15.25,2.00000000000005);
#76=CONICAL_SURFACE('',#275,16.,30.);
#77=CONICAL_SURFACE('',#279,15.75,9.99999999999998);
#78=TOROIDAL_SURFACE('',#269,14.0774489801543,0.8);
#79=TOROIDAL_SURFACE('',#283,14.75,1.);
#80=FACE_BOUND('',#131,.T.);
#81=FACE_BOUND('',#132,.T.);
#82=FACE_BOUND('',#133,.T.);
#83=FACE_BOUND('',#134,.T.);
#84=FACE_BOUND('',#135,.T.);
#85=FACE_BOUND('',#136,.T.);
#86=FACE_BOUND('',#137,.T.);
#87=FACE_BOUND('',#138,.T.);
#88=FACE_BOUND('',#139,.T.);
#89=FACE_BOUND('',#140,.T.);
#90=FACE_BOUND('',#141,.T.);
#91=FACE_BOUND('',#142,.T.);
#92=FACE_BOUND('',#143,.T.);
#93=FACE_BOUND('',#144,.T.);
#94=FACE_BOUND('',#145,.T.);
#95=FACE_BOUND('',#146,.T.);
#96=ADVANCED_FACE('',(#120),#114,.F.);
#97=ADVANCED_FACE('',(#80,#81),#78,.T.);
#98=ADVANCED_FACE('',(#82,#83),#75,.T.);
#99=ADVANCED_FACE('',(#84,#85),#68,.T.);
#100=ADVANCED_FACE('',(#86,#87),#76,.T.);
#101=ADVANCED_FACE('',(#88,#89),#69,.T.);
#102=ADVANCED_FACE('',(#90,#91),#77,.T.);
#103=ADVANCED_FACE('',(#92,#93),#70,.T.);
#104=ADVANCED_FACE('',(#94,#95),#79,.T.);
#105=ADVANCED_FACE('',(#121),#115,.F.);
#106=ADVANCED_FACE('',(#122),#116,.F.);
#107=ADVANCED_FACE('',(#123),#117,.F.);
#108=ADVANCED_FACE('',(#124),#71,.F.);
#109=ADVANCED_FACE('',(#125),#118,.F.);
#110=ADVANCED_FACE('',(#126),#72,.T.);
#111=ADVANCED_FACE('',(#127),#73,.F.);
#112=ADVANCED_FACE('',(#128),#119,.F.);
#113=ADVANCED_FACE('',(#129),#74,.T.);
#114=PLANE('',#267);
#115=PLANE('',#284);
#116=PLANE('',#287);
#117=PLANE('',#290);
#118=PLANE('',#294);
#119=PLANE('',#299);
#120=FACE_OUTER_BOUND('',#130,.T.);
#121=FACE_OUTER_BOUND('',#147,.T.);
#122=FACE_OUTER_BOUND('',#148,.T.);
#123=FACE_OUTER_BOUND('',#149,.T.);
#124=FACE_OUTER_BOUND('',#150,.T.);
#125=FACE_OUTER_BOUND('',#151,.T.);
#126=FACE_OUTER_BOUND('',#152,.T.);
#127=FACE_OUTER_BOUND('',#153,.T.);
#128=FACE_OUTER_BOUND('',#154,.T.);
#129=FACE_OUTER_BOUND('',#155,.T.);
#130=EDGE_LOOP('',(#156));
#131=EDGE_LOOP('',(#157));
#132=EDGE_LOOP('',(#158));
#133=EDGE_LOOP('',(#159));
#134=EDGE_LOOP('',(#160));
#135=EDGE_LOOP('',(#161));
#136=EDGE_LOOP('',(#162));
#137=EDGE_LOOP('',(#163));
#138=EDGE_LOOP('',(#164));
#139=EDGE_LOOP('',(#165));
#140=EDGE_LOOP('',(#166));
#141=EDGE_LOOP('',(#167));
#142=EDGE_LOOP('',(#168));
#143=EDGE_LOOP('',(#169));
#144=EDGE_LOOP('',(#170));
#145=EDGE_LOOP('',(#171));
#146=EDGE_LOOP('',(#172));
#147=EDGE_LOOP('',(#173));
#148=EDGE_LOOP('',(#174,#175,#176,#177));
#149=EDGE_LOOP('',(#178,#179,#180,#181));
#150=EDGE_LOOP('',(#182,#183,#184,#185));
#151=EDGE_LOOP('',(#186,#187,#188,#189));
#152=EDGE_LOOP('',(#190,#191,#192,#193));
#153=EDGE_LOOP('',(#194,#195,#196,#197));
#154=EDGE_LOOP('',(#198,#199,#200,#201));
#155=EDGE_LOOP('',(#202,#203,#204,#205));
#156=ORIENTED_EDGE('',*,*,#223,.T.);
#157=ORIENTED_EDGE('',*,*,#223,.F.);
#158=ORIENTED_EDGE('',*,*,#224,.T.);
#159=ORIENTED_EDGE('',*,*,#224,.F.);
#160=ORIENTED_EDGE('',*,*,#225,.T.);
#161=ORIENTED_EDGE('',*,*,#225,.F.);
#162=ORIENTED_EDGE('',*,*,#226,.T.);
#163=ORIENTED_EDGE('',*,*,#226,.F.);
#164=ORIENTED_EDGE('',*,*,#227,.T.);
#165=ORIENTED_EDGE('',*,*,#227,.F.);
#166=ORIENTED_EDGE('',*,*,#228,.T.);
#167=ORIENTED_EDGE('',*,*,#228,.F.);
#168=ORIENTED_EDGE('',*,*,#229,.T.);
#169=ORIENTED_EDGE('',*,*,#229,.F.);
#170=ORIENTED_EDGE('',*,*,#230,.T.);
#171=ORIENTED_EDGE('',*,*,#230,.F.);
#172=ORIENTED_EDGE('',*,*,#231,.T.);
#173=ORIENTED_EDGE('',*,*,#231,.F.);
#174=ORIENTED_EDGE('',*,*,#232,.T.);
#175=ORIENTED_EDGE('',*,*,#233,.T.);
#176=ORIENTED_EDGE('',*,*,#234,.T.);
#177=ORIENTED_EDGE('',*,*,#235,.F.);
#178=ORIENTED_EDGE('',*,*,#236,.F.);
#179=ORIENTED_EDGE('',*,*,#234,.F.);
#180=ORIENTED_EDGE('',*,*,#237,.T.);
#181=ORIENTED_EDGE('',*,*,#232,.F.);
#182=ORIENTED_EDGE('',*,*,#238,.F.);
#183=ORIENTED_EDGE('',*,*,#239,.F.);
#184=ORIENTED_EDGE('',*,*,#236,.T.);
#185=ORIENTED_EDGE('',*,*,#240,.F.);
#186=ORIENTED_EDGE('',*,*,#241,.F.);
#187=ORIENTED_EDGE('',*,*,#242,.F.);
#188=ORIENTED_EDGE('',*,*,#238,.T.);
#189=ORIENTED_EDGE('',*,*,#243,.F.);
#190=ORIENTED_EDGE('',*,*,#244,.F.);
#191=ORIENTED_EDGE('',*,*,#237,.F.);
#192=ORIENTED_EDGE('',*,*,#245,.F.);
#193=ORIENTED_EDGE('',*,*,#241,.T.);
#194=ORIENTED_EDGE('',*,*,#235,.T.);
#195=ORIENTED_EDGE('',*,*,#239,.T.);
#196=ORIENTED_EDGE('',*,*,#246,.F.);
#197=ORIENTED_EDGE('',*,*,#240,.T.);
#198=ORIENTED_EDGE('',*,*,#246,.T.);
#199=ORIENTED_EDGE('',*,*,#242,.T.);
#200=ORIENTED_EDGE('',*,*,#247,.F.);
#201=ORIENTED_EDGE('',*,*,#243,.T.);
#202=ORIENTED_EDGE('',*,*,#247,.T.);
#203=ORIENTED_EDGE('',*,*,#245,.T.);
#204=ORIENTED_EDGE('',*,*,#233,.F.);
#205=ORIENTED_EDGE('',*,*,#244,.T.);
#206=VERTEX_POINT('',#383);
#207=VERTEX_POINT('',#386);
#208=VERTEX_POINT('',#389);
#209=VERTEX_POINT('',#392);
#210=VERTEX_POINT('',#395);
#211=VERTEX_POINT('',#398);
#212=VERTEX_POINT('',#401);
#213=VERTEX_POINT('',#404);
#214=VERTEX_POINT('',#407);
#215=VERTEX_POINT('',#411);
#216=VERTEX_POINT('',#412);
#217=VERTEX_POINT('',#414);
#218=VERTEX_POINT('',#416);
#219=VERTEX_POINT('',#423);
#220=VERTEX_POINT('',#424);
#221=VERTEX_POINT('',#429);
#222=VERTEX_POINT('',#430);
#223=EDGE_CURVE('',#206,#206,#248,.T.);
#224=EDGE_CURVE('',#207,#207,#249,.T.);
#225=EDGE_CURVE('',#208,#208,#250,.T.);
#226=EDGE_CURVE('',#209,#209,#251,.T.);
#227=EDGE_CURVE('',#210,#210,#252,.T.);
#228=EDGE_CURVE('',#211,#211,#253,.T.);
#229=EDGE_CURVE('',#212,#212,#254,.T.);
#230=EDGE_CURVE('',#213,#213,#255,.T.);
#231=EDGE_CURVE('',#214,#214,#256,.T.);
#232=EDGE_CURVE('',#215,#216,#32,.T.);
#233=EDGE_CURVE('',#216,#217,#257,.T.);
#234=EDGE_CURVE('',#217,#218,#33,.T.);
#235=EDGE_CURVE('',#215,#218,#258,.T.);
#236=EDGE_CURVE('',#218,#215,#259,.T.);
#237=EDGE_CURVE('',#217,#216,#260,.T.);
#238=EDGE_CURVE('',#219,#220,#261,.T.);
#239=EDGE_CURVE('',#218,#219,#34,.T.);
#240=EDGE_CURVE('',#220,#215,#35,.T.);
#241=EDGE_CURVE('',#221,#222,#262,.T.);
#242=EDGE_CURVE('',#219,#221,#36,.T.);
#243=EDGE_CURVE('',#222,#220,#37,.T.);
#244=EDGE_CURVE('',#216,#222,#38,.T.);
#245=EDGE_CURVE('',#221,#217,#39,.T.);
#246=EDGE_CURVE('',#220,#219,#263,.T.);
#247=EDGE_CURVE('',#222,#221,#264,.T.);
#248=CIRCLE('',#266,14.0774489801543);
#249=CIRCLE('',#268,14.8769616417696);
#250=CIRCLE('',#270,15.25);
#251=CIRCLE('',#272,15.25);
#252=CIRCLE('',#274,16.);
#253=CIRCLE('',#276,16.);
#254=CIRCLE('',#278,15.75);
#255=CIRCLE('',#280,15.75);
#256=CIRCLE('',#282,14.75);
#257=CIRCLE('',#285,19.);
#258=CIRCLE('',#286,14.);
#259=CIRCLE('',#288,14.);
#260=CIRCLE('',#289,19.);
#261=CIRCLE('',#291,14.);
#262=CIRCLE('',#293,19.);
#263=CIRCLE('',#296,14.);
#264=CIRCLE('',#298,19.);
#265=AXIS2_PLACEMENT_3D('',#381,#301,#302);
#266=AXIS2_PLACEMENT_3D('',#382,#303,#304);
#267=AXIS2_PLACEMENT_3D('',#384,#305,#306);
#268=AXIS2_PLACEMENT_3D('',#385,#307,#308);
#269=AXIS2_PLACEMENT_3D('',#387,#309,#310);
#270=AXIS2_PLACEMENT_3D('',#388,#311,#312);
#271=AXIS2_PLACEMENT_3D('',#390,#313,#314);
#272=AXIS2_PLACEMENT_3D('',#391,#315,#316);
#273=AXIS2_PLACEMENT_3D('',#393,#317,#318);
#274=AXIS2_PLACEMENT_3D('',#394,#319,#320);
#275=AXIS2_PLACEMENT_3D('',#396,#321,#322);
#276=AXIS2_PLACEMENT_3D('',#397,#323,#324);
#277=AXIS2_PLACEMENT_3D('',#399,#325,#326);
#278=AXIS2_PLACEMENT_3D('',#400,#327,#328);
#279=AXIS2_PLACEMENT_3D('',#402,#329,#330);
#280=AXIS2_PLACEMENT_3D('',#403,#331,#332);
#281=AXIS2_PLACEMENT_3D('',#405,#333,#334);
#282=AXIS2_PLACEMENT_3D('',#406,#335,#336);
#283=AXIS2_PLACEMENT_3D('',#408,#337,#338);
#284=AXIS2_PLACEMENT_3D('',#409,#339,#340);
#285=AXIS2_PLACEMENT_3D('',#413,#342,#343);
#286=AXIS2_PLACEMENT_3D('',#417,#345,#346);
#287=AXIS2_PLACEMENT_3D('',#418,#347,#348);
#288=AXIS2_PLACEMENT_3D('',#419,#349,#350);
#289=AXIS2_PLACEMENT_3D('',#420,#351,#352);
#290=AXIS2_PLACEMENT_3D('',#421,#353,#354);
#291=AXIS2_PLACEMENT_3D('',#422,#355,#356);
#292=AXIS2_PLACEMENT_3D('',#427,#359,#360);
#293=AXIS2_PLACEMENT_3D('',#428,#361,#362);
#294=AXIS2_PLACEMENT_3D('',#433,#365,#366);
#295=AXIS2_PLACEMENT_3D('',#436,#369,#370);
#296=AXIS2_PLACEMENT_3D('',#437,#371,#372);
#297=AXIS2_PLACEMENT_3D('',#438,#373,#374);
#298=AXIS2_PLACEMENT_3D('',#439,#375,#376);
#299=AXIS2_PLACEMENT_3D('',#440,#377,#378);
#300=AXIS2_PLACEMENT_3D('',#441,#379,#380);
#301=DIRECTION('',(0.,0.,1.));
#302=DIRECTION('',(1.,0.,0.));
#303=DIRECTION('',(-1.,0.,0.));
#304=DIRECTION('',(0.,0.,1.));
#305=DIRECTION('',(1.,0.,0.));
#306=DIRECTION('',(0.,0.,-1.));
#307=DIRECTION('',(-1.,0.,0.));
#308=DIRECTION('',(0.,0.,1.));
#309=DIRECTION('',(-1.,0.,0.));
#310=DIRECTION('',(0.,0.,1.));
#311=DIRECTION('',(-1.,0.,0.));
#312=DIRECTION('',(0.,0.,1.));
#313=DIRECTION('',(1.,0.,0.));
#314=DIRECTION('',(2.17831179576612E-15,0.,-1.));
#315=DIRECTION('',(-1.,0.,0.));
#316=DIRECTION('',(0.,0.,1.));
#317=DIRECTION('',(-1.,0.,0.));
#318=DIRECTION('',(0.,0.,1.));
#319=DIRECTION('',(-1.,0.,0.));
#320=DIRECTION('',(0.,0.,1.));
#321=DIRECTION('',(1.,0.,0.));
#322=DIRECTION('',(-1.16944312056757E-16,0.,-1.));
#323=DIRECTION('',(-1.,0.,0.));
#324=DIRECTION('',(0.,0.,1.));
#325=DIRECTION('',(-1.,0.,0.));
#326=DIRECTION('',(0.,0.,1.));
#327=DIRECTION('',(-1.,0.,0.));
#328=DIRECTION('',(0.,0.,1.));
#329=DIRECTION('',(-1.,0.,0.));
#330=DIRECTION('',(-1.44502352719488E-16,0.,1.));
#331=DIRECTION('',(-1.,0.,0.));
#332=DIRECTION('',(0.,0.,1.));
#333=DIRECTION('',(-1.,0.,0.));
#334=DIRECTION('',(0.,0.,1.));
#335=DIRECTION('',(-1.,0.,0.));
#336=DIRECTION('',(0.,0.,1.));
#337=DIRECTION('',(-1.,0.,0.));
#338=DIRECTION('',(0.,0.,1.));
#339=DIRECTION('',(-1.,0.,0.));
#340=DIRECTION('',(0.,0.,1.));
#341=DIRECTION('',(6.93889390390723E-16,-6.12323399573677E-17,1.));
#342=DIRECTION('',(1.,0.,0.));
#343=DIRECTION('',(0.,-6.12323399573677E-17,1.));
#344=DIRECTION('',(-6.93889390390723E-16,1.,0.));
#345=DIRECTION('',(1.,0.,0.));
#346=DIRECTION('',(0.,-6.12323399573677E-17,1.));
#347=DIRECTION('',(-1.,0.,0.));
#348=DIRECTION('',(0.,0.,1.));
#349=DIRECTION('',(1.,0.,0.));
#350=DIRECTION('',(0.,-1.,0.));
#351=DIRECTION('',(1.,0.,0.));
#352=DIRECTION('',(0.,-1.,0.));
#353=DIRECTION('',(-1.,0.,0.));
#354=DIRECTION('',(0.,0.,1.));
#355=DIRECTION('',(1.,0.,0.));
#356=DIRECTION('',(0.,-1.,0.));
#357=DIRECTION('',(-1.,0.,0.));
#358=DIRECTION('',(1.,0.,0.));
#359=DIRECTION('',(1.,0.,0.));
#360=DIRECTION('',(0.,0.,-1.));
#361=DIRECTION('',(1.,0.,0.));
#362=DIRECTION('',(0.,-1.,0.));
#363=DIRECTION('',(0.,-1.,0.));
#364=DIRECTION('',(0.,6.12323399573677E-17,-1.));
#365=DIRECTION('',(1.,0.,0.));
#366=DIRECTION('',(0.,0.,-1.));
#367=DIRECTION('',(-1.,0.,0.));
#368=DIRECTION('',(1.,0.,0.));
#369=DIRECTION('',(1.,0.,0.));
#370=DIRECTION('',(0.,0.,-1.));
#371=DIRECTION('',(1.,0.,0.));
#372=DIRECTION('',(0.,-6.12323399573677E-17,1.));
#373=DIRECTION('',(1.,0.,0.));
#374=DIRECTION('',(0.,0.,-1.));
#375=DIRECTION('',(1.,0.,0.));
#376=DIRECTION('',(0.,-6.12323399573677E-17,1.));
#377=DIRECTION('',(1.,0.,0.));
#378=DIRECTION('',(0.,0.,-1.));
#379=DIRECTION('',(1.,0.,0.));
#380=DIRECTION('',(0.,0.,-1.));
#381=CARTESIAN_POINT('',(0.,0.,0.));
#382=CARTESIAN_POINT('',(0.5,0.,0.));
#383=CARTESIAN_POINT('',(0.5,0.,14.0774489801543));
#384=CARTESIAN_POINT('',(0.5,0.,0.));
#385=CARTESIAN_POINT('',(1.272080402638,0.,0.));
#386=CARTESIAN_POINT('',(1.272080402638,0.,14.8769616417696));
#387=CARTESIAN_POINT('',(1.3,0.,0.));
#388=CARTESIAN_POINT('',(11.954501313166,0.,0.));
#389=CARTESIAN_POINT('',(11.954501313166,0.,15.25));
#390=CARTESIAN_POINT('',(11.954501313166,0.,0.));
#391=CARTESIAN_POINT('',(30.,0.,0.));
#392=CARTESIAN_POINT('',(30.,0.,15.25));
#393=CARTESIAN_POINT('',(0.,0.,0.));
#394=CARTESIAN_POINT('',(31.2990381056767,0.,0.));
#395=CARTESIAN_POINT('',(31.2990381056767,0.,16.));
#396=CARTESIAN_POINT('',(31.2990381056767,0.,0.));
#397=CARTESIAN_POINT('',(84.5821795450956,0.,0.));
#398=CARTESIAN_POINT('',(84.5821795450956,0.,16.));
#399=CARTESIAN_POINT('',(0.,0.,0.));
#400=CARTESIAN_POINT('',(86.,0.,0.));
#401=CARTESIAN_POINT('',(86.,0.,15.75));
#402=CARTESIAN_POINT('',(86.,0.,0.));
#403=CARTESIAN_POINT('',(89.,0.,0.));
#404=CARTESIAN_POINT('',(89.,0.,15.75));
#405=CARTESIAN_POINT('',(0.,0.,0.));
#406=CARTESIAN_POINT('',(90.,0.,0.));
#407=CARTESIAN_POINT('',(90.,0.,14.75));
#408=CARTESIAN_POINT('',(89.,0.,0.));
#409=CARTESIAN_POINT('',(90.,14.75,0.));
#410=CARTESIAN_POINT('',(21.,-8.57252759403147E-16,14.));
#411=CARTESIAN_POINT('',(21.,2.57175827820944E-15,14.));
#412=CARTESIAN_POINT('',(21.,3.49024337756995E-15,19.));
#413=CARTESIAN_POINT('',(21.,0.,0.));
#414=CARTESIAN_POINT('',(21.,-19.,0.));
#415=CARTESIAN_POINT('',(21.,-14.,0.));
#416=CARTESIAN_POINT('',(21.,-14.,0.));
#417=CARTESIAN_POINT('',(21.,0.,0.));
#418=CARTESIAN_POINT('',(21.,-8.57252759403147E-16,14.));
#419=CARTESIAN_POINT('',(21.,0.,0.));
#420=CARTESIAN_POINT('',(21.,0.,0.));
#421=CARTESIAN_POINT('',(21.,-14.,0.));
#422=CARTESIAN_POINT('',(0.,0.,0.));
#423=CARTESIAN_POINT('',(0.,-14.,0.));
#424=CARTESIAN_POINT('',(0.,2.57175827820944E-15,14.));
#425=CARTESIAN_POINT('',(0.,-14.,0.));
#426=CARTESIAN_POINT('',(0.,-8.57252759403147E-16,14.));
#427=CARTESIAN_POINT('',(30.,0.,0.));
#428=CARTESIAN_POINT('',(0.,0.,0.));
#429=CARTESIAN_POINT('',(0.,-19.,0.));
#430=CARTESIAN_POINT('',(0.,3.49024337756995E-15,19.));
#431=CARTESIAN_POINT('',(0.,-19.,0.));
#432=CARTESIAN_POINT('',(0.,-1.16341445918999E-15,19.));
#433=CARTESIAN_POINT('',(0.,-19.,0.));
#434=CARTESIAN_POINT('',(0.,-1.16341445918999E-15,19.));
#435=CARTESIAN_POINT('',(0.,-19.,0.));
#436=CARTESIAN_POINT('',(30.,0.,0.));
#437=CARTESIAN_POINT('',(0.,0.,0.));
#438=CARTESIAN_POINT('',(30.,0.,0.));
#439=CARTESIAN_POINT('',(0.,0.,0.));
#440=CARTESIAN_POINT('',(0.,-1.16341445918999E-15,19.));
#441=CARTESIAN_POINT('',(30.,0.,0.));
#442=MECHANICAL_DESIGN_GEOMETRIC_PRESENTATION_REPRESENTATION('',(#49,#50),
#443);
#443=(
GEOMETRIC_REPRESENTATION_CONTEXT(3)
GLOBAL_UNCERTAINTY_ASSIGNED_CONTEXT((#444))
GLOBAL_UNIT_ASSIGNED_CONTEXT((#450,#446,#445))
REPRESENTATION_CONTEXT('ATM-C21-D38-W32-L90-Z03-H',
'TOP_LEVEL_ASSEMBLY_PART')
);
#444=UNCERTAINTY_MEASURE_WITH_UNIT(LENGTH_MEASURE(2.E-5),#450,
'DISTANCE_ACCURACY_VALUE','Maximum Tolerance applied to model');
#445=(
NAMED_UNIT(*)
SI_UNIT($,.STERADIAN.)
SOLID_ANGLE_UNIT()
);
#446=(
CONVERSION_BASED_UNIT('DEGREE',#448)
NAMED_UNIT(#447)
PLANE_ANGLE_UNIT()
);
#447=DIMENSIONAL_EXPONENTS(0.,0.,0.,0.,0.,0.,0.);
#448=PLANE_ANGLE_MEASURE_WITH_UNIT(PLANE_ANGLE_MEASURE(0.0174532925),#449);
#449=(
NAMED_UNIT(*)
PLANE_ANGLE_UNIT()
SI_UNIT($,.RADIAN.)
);
#450=(
LENGTH_UNIT()
NAMED_UNIT(*)
SI_UNIT(.MILLI.,.METRE.)
);
ENDSEC;
END-ISO-10303-21;
