ISO-10303-21;
HEADER;
/* Generated by software containing ST-Developer
 * from STEP Tools, Inc. (www.steptools.com) 
 */
/* OPTION: using custom schema-name function */

FILE_DESCRIPTION(
/* description */ (''),
/* implementation_level */ '2;1');

FILE_NAME(
/* name */ 'ATM-C21-D43-W32-L90-Z03-H.stp',
/* time_stamp */ '2023-09-30T01:43:51+03:00',
/* author */ (''),
/* organization */ (''),
/* preprocessor_version */ 'ST-DEVELOPER v19.4',
/* originating_system */ 'SIEMENS PLM Software NX2306.5001',
/* authorisation */ '');

FILE_SCHEMA (('AUTOMOTIVE_DESIGN { 1 0 10303 214 3 1 1 1 }'));
ENDSEC;

DATA;
#10=PROPERTY_DEFINITION_REPRESENTATION(#14,#12);
#11=PROPERTY_DEFINITION_REPRESENTATION(#15,#13);
#12=REPRESENTATION('',(#16),#503);
#13=REPRESENTATION('',(#17),#503);
#14=PROPERTY_DEFINITION('pmi validation property','',#21);
#15=PROPERTY_DEFINITION('pmi validation property','',#21);
#16=VALUE_REPRESENTATION_ITEM('number of annotations',COUNT_MEASURE(0.));
#17=VALUE_REPRESENTATION_ITEM('number of views',COUNT_MEASURE(0.));
#18=SHAPE_REPRESENTATION_RELATIONSHIP('None',
'relationship between ATM-C21-D43-W32-L90-Z03-H-LIGHT_x_t_objects-None
 and ATM-C21-D43-W32-L90-Z03-H-LIGHT_x_t_objects-None',#30,#19);
#19=ADVANCED_BREP_SHAPE_REPRESENTATION(
'ATM-C21-D43-W32-L90-Z03-H-LIGHT_x_t_objects-None',(#77,#78),#503);
#20=SHAPE_DEFINITION_REPRESENTATION(#21,#30);
#21=PRODUCT_DEFINITION_SHAPE('','',#22);
#22=PRODUCT_DEFINITION(' ','',#24,#23);
#23=PRODUCT_DEFINITION_CONTEXT('part definition',#29,'design');
#24=PRODUCT_DEFINITION_FORMATION_WITH_SPECIFIED_SOURCE(' ',' ',#26,
 .NOT_KNOWN.);
#25=PRODUCT_RELATED_PRODUCT_CATEGORY('part','',(#26));
#26=PRODUCT('ATM-C21-D43-W32-L90-Z03-H-LIGHT_x_t_objects',
'ATM-C21-D43-W32-L90-Z03-H-LIGHT_x_t_objects',' ',(#27));
#27=PRODUCT_CONTEXT(' ',#29,'mechanical');
#28=APPLICATION_PROTOCOL_DEFINITION('international standard',
'automotive_design',2010,#29);
#29=APPLICATION_CONTEXT(
'core data for automotive mechanical design processes');
#30=SHAPE_REPRESENTATION(
'ATM-C21-D43-W32-L90-Z03-H-LIGHT_x_t_objects-None',(#298),#503);
#31=COLOUR_RGB('silver gray',0.6,0.6,0.6);
#32=CONICAL_SURFACE('',#320,17.75,2.00000000000004);
#33=CONICAL_SURFACE('',#326,15.75,19.9999999999997);
#34=CONICAL_SURFACE('',#330,16.,29.9999999999999);
#35=CONICAL_SURFACE('',#334,15.75,9.99999999999998);
#36=TOROIDAL_SURFACE('',#318,16.5774489801543,0.8);
#37=TOROIDAL_SURFACE('',#324,15.25,2.5);
#38=TOROIDAL_SURFACE('',#338,14.75,1.);
#39=FACE_BOUND('',#135,.T.);
#40=FACE_BOUND('',#136,.T.);
#41=FACE_BOUND('',#137,.T.);
#42=FACE_BOUND('',#138,.T.);
#43=FACE_BOUND('',#139,.T.);
#44=FACE_BOUND('',#140,.T.);
#45=FACE_BOUND('',#141,.T.);
#46=FACE_BOUND('',#142,.T.);
#47=FACE_BOUND('',#143,.T.);
#48=FACE_BOUND('',#144,.T.);
#49=FACE_BOUND('',#145,.T.);
#50=FACE_BOUND('',#146,.T.);
#51=FACE_BOUND('',#147,.T.);
#52=FACE_BOUND('',#148,.T.);
#53=FACE_BOUND('',#149,.T.);
#54=FACE_BOUND('',#150,.T.);
#55=FACE_BOUND('',#151,.T.);
#56=FACE_BOUND('',#152,.T.);
#57=FACE_BOUND('',#153,.T.);
#58=FACE_BOUND('',#154,.T.);
#59=FACE_BOUND('',#155,.T.);
#60=FACE_BOUND('',#156,.T.);
#61=PRESENTATION_LAYER_ASSIGNMENT('1','Layer 1',(#77,#78));
#62=STYLED_ITEM('',(#64),#77);
#63=STYLED_ITEM('',(#65),#78);
#64=PRESENTATION_STYLE_ASSIGNMENT((#66));
#65=PRESENTATION_STYLE_ASSIGNMENT((#67));
#66=SURFACE_STYLE_USAGE(.BOTH.,#68);
#67=SURFACE_STYLE_USAGE(.BOTH.,#69);
#68=SURFACE_SIDE_STYLE('',(#70));
#69=SURFACE_SIDE_STYLE('',(#71));
#70=SURFACE_STYLE_FILL_AREA(#72);
#71=SURFACE_STYLE_FILL_AREA(#73);
#72=FILL_AREA_STYLE('',(#74));
#73=FILL_AREA_STYLE('',(#75));
#74=FILL_AREA_STYLE_COLOUR('',#76);
#75=FILL_AREA_STYLE_COLOUR('',#31);
#76=DRAUGHTING_PRE_DEFINED_COLOUR('yellow');
#77=MANIFOLD_SOLID_BREP('',#79);
#78=MANIFOLD_SOLID_BREP('',#80);
#79=CLOSED_SHELL('',(#89,#90,#91,#92,#93,#94,#95,#96));
#80=CLOSED_SHELL('',(#97,#98,#99,#100,#101,#102,#103,#104,#105,#106,#107,
#108,#109));
#81=CYLINDRICAL_SURFACE('',#306,16.5);
#82=CYLINDRICAL_SURFACE('',#309,21.5);
#83=CYLINDRICAL_SURFACE('',#311,16.5);
#84=CYLINDRICAL_SURFACE('',#314,21.5);
#85=CYLINDRICAL_SURFACE('',#322,17.75);
#86=CYLINDRICAL_SURFACE('',#328,15.75);
#87=CYLINDRICAL_SURFACE('',#332,16.);
#88=CYLINDRICAL_SURFACE('',#336,15.75);
#89=ADVANCED_FACE('',(#116),#110,.F.);
#90=ADVANCED_FACE('',(#117),#111,.F.);
#91=ADVANCED_FACE('',(#118),#81,.F.);
#92=ADVANCED_FACE('',(#119),#112,.F.);
#93=ADVANCED_FACE('',(#120),#82,.T.);
#94=ADVANCED_FACE('',(#121),#83,.F.);
#95=ADVANCED_FACE('',(#122),#113,.F.);
#96=ADVANCED_FACE('',(#123),#84,.T.);
#97=ADVANCED_FACE('',(#124),#114,.F.);
#98=ADVANCED_FACE('',(#39,#40),#36,.T.);
#99=ADVANCED_FACE('',(#41,#42),#32,.T.);
#100=ADVANCED_FACE('',(#43,#44),#85,.T.);
#101=ADVANCED_FACE('',(#45,#46),#37,.T.);
#102=ADVANCED_FACE('',(#47,#48),#33,.T.);
#103=ADVANCED_FACE('',(#49,#50),#86,.T.);
#104=ADVANCED_FACE('',(#51,#52),#34,.T.);
#105=ADVANCED_FACE('',(#53,#54),#87,.T.);
#106=ADVANCED_FACE('',(#55,#56),#35,.T.);
#107=ADVANCED_FACE('',(#57,#58),#88,.T.);
#108=ADVANCED_FACE('',(#59,#60),#38,.T.);
#109=ADVANCED_FACE('',(#125),#115,.F.);
#110=PLANE('',#301);
#111=PLANE('',#304);
#112=PLANE('',#308);
#113=PLANE('',#313);
#114=PLANE('',#316);
#115=PLANE('',#339);
#116=FACE_OUTER_BOUND('',#126,.T.);
#117=FACE_OUTER_BOUND('',#127,.T.);
#118=FACE_OUTER_BOUND('',#128,.T.);
#119=FACE_OUTER_BOUND('',#129,.T.);
#120=FACE_OUTER_BOUND('',#130,.T.);
#121=FACE_OUTER_BOUND('',#131,.T.);
#122=FACE_OUTER_BOUND('',#132,.T.);
#123=FACE_OUTER_BOUND('',#133,.T.);
#124=FACE_OUTER_BOUND('',#134,.T.);
#125=FACE_OUTER_BOUND('',#157,.T.);
#126=EDGE_LOOP('',(#178,#179,#180,#181));
#127=EDGE_LOOP('',(#182,#183,#184,#185));
#128=EDGE_LOOP('',(#186,#187,#188,#189));
#129=EDGE_LOOP('',(#190,#191,#192,#193));
#130=EDGE_LOOP('',(#194,#195,#196,#197));
#131=EDGE_LOOP('',(#198,#199,#200,#201));
#132=EDGE_LOOP('',(#202,#203,#204,#205));
#133=EDGE_LOOP('',(#206,#207,#208,#209));
#134=EDGE_LOOP('',(#210));
#135=EDGE_LOOP('',(#211));
#136=EDGE_LOOP('',(#212));
#137=EDGE_LOOP('',(#213));
#138=EDGE_LOOP('',(#214));
#139=EDGE_LOOP('',(#215));
#140=EDGE_LOOP('',(#216));
#141=EDGE_LOOP('',(#217));
#142=EDGE_LOOP('',(#218));
#143=EDGE_LOOP('',(#219));
#144=EDGE_LOOP('',(#220));
#145=EDGE_LOOP('',(#221));
#146=EDGE_LOOP('',(#222));
#147=EDGE_LOOP('',(#223));
#148=EDGE_LOOP('',(#224));
#149=EDGE_LOOP('',(#225));
#150=EDGE_LOOP('',(#226));
#151=EDGE_LOOP('',(#227));
#152=EDGE_LOOP('',(#228));
#153=EDGE_LOOP('',(#229));
#154=EDGE_LOOP('',(#230));
#155=EDGE_LOOP('',(#231));
#156=EDGE_LOOP('',(#232));
#157=EDGE_LOOP('',(#233));
#158=CIRCLE('',#299,21.5);
#159=CIRCLE('',#300,16.5);
#160=CIRCLE('',#302,16.5);
#161=CIRCLE('',#303,21.5);
#162=CIRCLE('',#305,16.5);
#163=CIRCLE('',#307,21.5);
#164=CIRCLE('',#310,16.5);
#165=CIRCLE('',#312,21.5);
#166=CIRCLE('',#315,16.5774489801543);
#167=CIRCLE('',#317,17.3769616417696);
#168=CIRCLE('',#319,17.75);
#169=CIRCLE('',#321,17.75);
#170=CIRCLE('',#323,17.5992315519648);
#171=CIRCLE('',#325,15.75);
#172=CIRCLE('',#327,15.75);
#173=CIRCLE('',#329,16.);
#174=CIRCLE('',#331,16.);
#175=CIRCLE('',#333,15.75);
#176=CIRCLE('',#335,15.75);
#177=CIRCLE('',#337,14.75);
#178=ORIENTED_EDGE('',*,*,#254,.T.);
#179=ORIENTED_EDGE('',*,*,#255,.T.);
#180=ORIENTED_EDGE('',*,*,#256,.T.);
#181=ORIENTED_EDGE('',*,*,#257,.F.);
#182=ORIENTED_EDGE('',*,*,#258,.F.);
#183=ORIENTED_EDGE('',*,*,#256,.F.);
#184=ORIENTED_EDGE('',*,*,#259,.T.);
#185=ORIENTED_EDGE('',*,*,#254,.F.);
#186=ORIENTED_EDGE('',*,*,#260,.F.);
#187=ORIENTED_EDGE('',*,*,#261,.F.);
#188=ORIENTED_EDGE('',*,*,#258,.T.);
#189=ORIENTED_EDGE('',*,*,#262,.F.);
#190=ORIENTED_EDGE('',*,*,#263,.F.);
#191=ORIENTED_EDGE('',*,*,#264,.F.);
#192=ORIENTED_EDGE('',*,*,#260,.T.);
#193=ORIENTED_EDGE('',*,*,#265,.F.);
#194=ORIENTED_EDGE('',*,*,#266,.T.);
#195=ORIENTED_EDGE('',*,*,#259,.F.);
#196=ORIENTED_EDGE('',*,*,#267,.T.);
#197=ORIENTED_EDGE('',*,*,#263,.T.);
#198=ORIENTED_EDGE('',*,*,#257,.T.);
#199=ORIENTED_EDGE('',*,*,#261,.T.);
#200=ORIENTED_EDGE('',*,*,#268,.F.);
#201=ORIENTED_EDGE('',*,*,#262,.T.);
#202=ORIENTED_EDGE('',*,*,#268,.T.);
#203=ORIENTED_EDGE('',*,*,#264,.T.);
#204=ORIENTED_EDGE('',*,*,#269,.F.);
#205=ORIENTED_EDGE('',*,*,#265,.T.);
#206=ORIENTED_EDGE('',*,*,#269,.T.);
#207=ORIENTED_EDGE('',*,*,#267,.F.);
#208=ORIENTED_EDGE('',*,*,#255,.F.);
#209=ORIENTED_EDGE('',*,*,#266,.F.);
#210=ORIENTED_EDGE('',*,*,#270,.T.);
#211=ORIENTED_EDGE('',*,*,#270,.F.);
#212=ORIENTED_EDGE('',*,*,#271,.T.);
#213=ORIENTED_EDGE('',*,*,#271,.F.);
#214=ORIENTED_EDGE('',*,*,#272,.T.);
#215=ORIENTED_EDGE('',*,*,#272,.F.);
#216=ORIENTED_EDGE('',*,*,#273,.T.);
#217=ORIENTED_EDGE('',*,*,#273,.F.);
#218=ORIENTED_EDGE('',*,*,#274,.T.);
#219=ORIENTED_EDGE('',*,*,#274,.F.);
#220=ORIENTED_EDGE('',*,*,#275,.T.);
#221=ORIENTED_EDGE('',*,*,#275,.F.);
#222=ORIENTED_EDGE('',*,*,#276,.T.);
#223=ORIENTED_EDGE('',*,*,#276,.F.);
#224=ORIENTED_EDGE('',*,*,#277,.T.);
#225=ORIENTED_EDGE('',*,*,#277,.F.);
#226=ORIENTED_EDGE('',*,*,#278,.T.);
#227=ORIENTED_EDGE('',*,*,#278,.F.);
#228=ORIENTED_EDGE('',*,*,#279,.T.);
#229=ORIENTED_EDGE('',*,*,#279,.F.);
#230=ORIENTED_EDGE('',*,*,#280,.T.);
#231=ORIENTED_EDGE('',*,*,#280,.F.);
#232=ORIENTED_EDGE('',*,*,#281,.T.);
#233=ORIENTED_EDGE('',*,*,#281,.F.);
#234=VERTEX_POINT('',#434);
#235=VERTEX_POINT('',#435);
#236=VERTEX_POINT('',#437);
#237=VERTEX_POINT('',#439);
#238=VERTEX_POINT('',#446);
#239=VERTEX_POINT('',#447);
#240=VERTEX_POINT('',#452);
#241=VERTEX_POINT('',#453);
#242=VERTEX_POINT('',#466);
#243=VERTEX_POINT('',#469);
#244=VERTEX_POINT('',#472);
#245=VERTEX_POINT('',#475);
#246=VERTEX_POINT('',#478);
#247=VERTEX_POINT('',#481);
#248=VERTEX_POINT('',#484);
#249=VERTEX_POINT('',#487);
#250=VERTEX_POINT('',#490);
#251=VERTEX_POINT('',#493);
#252=VERTEX_POINT('',#496);
#253=VERTEX_POINT('',#499);
#254=EDGE_CURVE('',#234,#235,#282,.T.);
#255=EDGE_CURVE('',#235,#236,#158,.T.);
#256=EDGE_CURVE('',#236,#237,#283,.T.);
#257=EDGE_CURVE('',#234,#237,#159,.T.);
#258=EDGE_CURVE('',#237,#234,#160,.T.);
#259=EDGE_CURVE('',#236,#235,#161,.T.);
#260=EDGE_CURVE('',#238,#239,#162,.T.);
#261=EDGE_CURVE('',#237,#238,#284,.T.);
#262=EDGE_CURVE('',#239,#234,#285,.T.);
#263=EDGE_CURVE('',#240,#241,#163,.T.);
#264=EDGE_CURVE('',#238,#240,#286,.T.);
#265=EDGE_CURVE('',#241,#239,#287,.T.);
#266=EDGE_CURVE('',#241,#235,#288,.T.);
#267=EDGE_CURVE('',#236,#240,#289,.T.);
#268=EDGE_CURVE('',#239,#238,#164,.T.);
#269=EDGE_CURVE('',#241,#240,#165,.T.);
#270=EDGE_CURVE('',#242,#242,#166,.T.);
#271=EDGE_CURVE('',#243,#243,#167,.T.);
#272=EDGE_CURVE('',#244,#244,#168,.T.);
#273=EDGE_CURVE('',#245,#245,#169,.T.);
#274=EDGE_CURVE('',#246,#246,#170,.T.);
#275=EDGE_CURVE('',#247,#247,#171,.T.);
#276=EDGE_CURVE('',#248,#248,#172,.T.);
#277=EDGE_CURVE('',#249,#249,#173,.T.);
#278=EDGE_CURVE('',#250,#250,#174,.T.);
#279=EDGE_CURVE('',#251,#251,#175,.T.);
#280=EDGE_CURVE('',#252,#252,#176,.T.);
#281=EDGE_CURVE('',#253,#253,#177,.T.);
#282=LINE('',#433,#290);
#283=LINE('',#438,#291);
#284=LINE('',#448,#292);
#285=LINE('',#449,#293);
#286=LINE('',#454,#294);
#287=LINE('',#455,#295);
#288=LINE('',#457,#296);
#289=LINE('',#458,#297);
#290=VECTOR('',#342,1.);
#291=VECTOR('',#345,1.);
#292=VECTOR('',#358,1.);
#293=VECTOR('',#359,1.);
#294=VECTOR('',#364,1.);
#295=VECTOR('',#365,1.);
#296=VECTOR('',#368,1.);
#297=VECTOR('',#369,1.);
#298=AXIS2_PLACEMENT_3D('',#432,#340,#341);
#299=AXIS2_PLACEMENT_3D('',#436,#343,#344);
#300=AXIS2_PLACEMENT_3D('',#440,#346,#347);
#301=AXIS2_PLACEMENT_3D('',#441,#348,#349);
#302=AXIS2_PLACEMENT_3D('',#442,#350,#351);
#303=AXIS2_PLACEMENT_3D('',#443,#352,#353);
#304=AXIS2_PLACEMENT_3D('',#444,#354,#355);
#305=AXIS2_PLACEMENT_3D('',#445,#356,#357);
#306=AXIS2_PLACEMENT_3D('',#450,#360,#361);
#307=AXIS2_PLACEMENT_3D('',#451,#362,#363);
#308=AXIS2_PLACEMENT_3D('',#456,#366,#367);
#309=AXIS2_PLACEMENT_3D('',#459,#370,#371);
#310=AXIS2_PLACEMENT_3D('',#460,#372,#373);
#311=AXIS2_PLACEMENT_3D('',#461,#374,#375);
#312=AXIS2_PLACEMENT_3D('',#462,#376,#377);
#313=AXIS2_PLACEMENT_3D('',#463,#378,#379);
#314=AXIS2_PLACEMENT_3D('',#464,#380,#381);
#315=AXIS2_PLACEMENT_3D('',#465,#382,#383);
#316=AXIS2_PLACEMENT_3D('',#467,#384,#385);
#317=AXIS2_PLACEMENT_3D('',#468,#386,#387);
#318=AXIS2_PLACEMENT_3D('',#470,#388,#389);
#319=AXIS2_PLACEMENT_3D('',#471,#390,#391);
#320=AXIS2_PLACEMENT_3D('',#473,#392,#393);
#321=AXIS2_PLACEMENT_3D('',#474,#394,#395);
#322=AXIS2_PLACEMENT_3D('',#476,#396,#397);
#323=AXIS2_PLACEMENT_3D('',#477,#398,#399);
#324=AXIS2_PLACEMENT_3D('',#479,#400,#401);
#325=AXIS2_PLACEMENT_3D('',#480,#402,#403);
#326=AXIS2_PLACEMENT_3D('',#482,#404,#405);
#327=AXIS2_PLACEMENT_3D('',#483,#406,#407);
#328=AXIS2_PLACEMENT_3D('',#485,#408,#409);
#329=AXIS2_PLACEMENT_3D('',#486,#410,#411);
#330=AXIS2_PLACEMENT_3D('',#488,#412,#413);
#331=AXIS2_PLACEMENT_3D('',#489,#414,#415);
#332=AXIS2_PLACEMENT_3D('',#491,#416,#417);
#333=AXIS2_PLACEMENT_3D('',#492,#418,#419);
#334=AXIS2_PLACEMENT_3D('',#494,#420,#421);
#335=AXIS2_PLACEMENT_3D('',#495,#422,#423);
#336=AXIS2_PLACEMENT_3D('',#497,#424,#425);
#337=AXIS2_PLACEMENT_3D('',#498,#426,#427);
#338=AXIS2_PLACEMENT_3D('',#500,#428,#429);
#339=AXIS2_PLACEMENT_3D('',#501,#430,#431);
#340=DIRECTION('',(0.,0.,1.));
#341=DIRECTION('',(1.,0.,0.));
#342=DIRECTION('',(0.,-6.12323399573677E-17,1.));
#343=DIRECTION('',(1.,0.,0.));
#344=DIRECTION('',(0.,-6.12323399573677E-17,1.));
#345=DIRECTION('',(0.,1.,0.));
#346=DIRECTION('',(1.,0.,0.));
#347=DIRECTION('',(0.,-6.12323399573677E-17,1.));
#348=DIRECTION('',(-1.,0.,0.));
#349=DIRECTION('',(0.,0.,1.));
#350=DIRECTION('',(1.,0.,0.));
#351=DIRECTION('',(0.,-1.,0.));
#352=DIRECTION('',(1.,0.,0.));
#353=DIRECTION('',(0.,-1.,0.));
#354=DIRECTION('',(-1.,0.,0.));
#355=DIRECTION('',(0.,0.,1.));
#356=DIRECTION('',(1.,0.,0.));
#357=DIRECTION('',(0.,-1.,0.));
#358=DIRECTION('',(-1.,0.,0.));
#359=DIRECTION('',(1.,0.,0.));
#360=DIRECTION('',(1.,0.,0.));
#361=DIRECTION('',(0.,0.,-1.));
#362=DIRECTION('',(1.,0.,0.));
#363=DIRECTION('',(0.,-1.,0.));
#364=DIRECTION('',(0.,-1.,0.));
#365=DIRECTION('',(0.,6.12323399573677E-17,-1.));
#366=DIRECTION('',(1.,0.,0.));
#367=DIRECTION('',(0.,0.,-1.));
#368=DIRECTION('',(1.,0.,0.));
#369=DIRECTION('',(-1.,0.,0.));
#370=DIRECTION('',(1.,0.,0.));
#371=DIRECTION('',(0.,0.,-1.));
#372=DIRECTION('',(1.,0.,0.));
#373=DIRECTION('',(0.,-6.12323399573677E-17,1.));
#374=DIRECTION('',(1.,0.,0.));
#375=DIRECTION('',(0.,0.,-1.));
#376=DIRECTION('',(1.,0.,0.));
#377=DIRECTION('',(0.,-6.12323399573677E-17,1.));
#378=DIRECTION('',(1.,0.,0.));
#379=DIRECTION('',(0.,0.,-1.));
#380=DIRECTION('',(1.,0.,0.));
#381=DIRECTION('',(0.,0.,-1.));
#382=DIRECTION('',(-1.,0.,0.));
#383=DIRECTION('',(0.,0.,1.));
#384=DIRECTION('',(1.,0.,0.));
#385=DIRECTION('',(0.,0.,-1.));
#386=DIRECTION('',(-1.,0.,0.));
#387=DIRECTION('',(0.,0.,1.));
#388=DIRECTION('',(-1.,0.,0.));
#389=DIRECTION('',(0.,0.,1.));
#390=DIRECTION('',(-1.,0.,0.));
#391=DIRECTION('',(0.,0.,1.));
#392=DIRECTION('',(1.,0.,0.));
#393=DIRECTION('',(2.07491897386576E-15,0.,-1.));
#394=DIRECTION('',(-1.,0.,0.));
#395=DIRECTION('',(0.,0.,1.));
#396=DIRECTION('',(-1.,0.,0.));
#397=DIRECTION('',(0.,0.,1.));
#398=DIRECTION('',(-1.,0.,0.));
#399=DIRECTION('',(0.,0.,1.));
#400=DIRECTION('',(-1.,0.,0.));
#401=DIRECTION('',(0.,0.,1.));
#402=DIRECTION('',(-1.,0.,0.));
#403=DIRECTION('',(0.,0.,1.));
#404=DIRECTION('',(-1.,0.,0.));
#405=DIRECTION('',(9.13685034103667E-18,0.,1.));
#406=DIRECTION('',(-1.,0.,0.));
#407=DIRECTION('',(0.,0.,1.));
#408=DIRECTION('',(-1.,0.,0.));
#409=DIRECTION('',(0.,0.,1.));
#410=DIRECTION('',(-1.,0.,0.));
#411=DIRECTION('',(0.,0.,1.));
#412=DIRECTION('',(1.,0.,0.));
#413=DIRECTION('',(4.67777248227029E-17,0.,-1.));
#414=DIRECTION('',(-1.,0.,0.));
#415=DIRECTION('',(0.,0.,1.));
#416=DIRECTION('',(-1.,0.,0.));
#417=DIRECTION('',(0.,0.,1.));
#418=DIRECTION('',(-1.,0.,0.));
#419=DIRECTION('',(0.,0.,1.));
#420=DIRECTION('',(-1.,0.,0.));
#421=DIRECTION('',(-1.44502352719488E-16,0.,1.));
#422=DIRECTION('',(-1.,0.,0.));
#423=DIRECTION('',(0.,0.,1.));
#424=DIRECTION('',(-1.,0.,0.));
#425=DIRECTION('',(0.,0.,1.));
#426=DIRECTION('',(-1.,0.,0.));
#427=DIRECTION('',(0.,0.,1.));
#428=DIRECTION('',(-1.,0.,0.));
#429=DIRECTION('',(0.,0.,1.));
#430=DIRECTION('',(-1.,0.,0.));
#431=DIRECTION('',(0.,0.,1.));
#432=CARTESIAN_POINT('',(0.,0.,0.));
#433=CARTESIAN_POINT('',(21.,-1.01033360929657E-15,16.5));
#434=CARTESIAN_POINT('',(21.,3.0310008278897E-15,16.5));
#435=CARTESIAN_POINT('',(21.,3.94948592725021E-15,21.5));
#436=CARTESIAN_POINT('',(21.,0.,0.));
#437=CARTESIAN_POINT('',(21.,-21.5,0.));
#438=CARTESIAN_POINT('',(21.,-16.5,0.));
#439=CARTESIAN_POINT('',(21.,-16.5,0.));
#440=CARTESIAN_POINT('',(21.,0.,0.));
#441=CARTESIAN_POINT('',(21.,-1.01033360929657E-15,16.5));
#442=CARTESIAN_POINT('',(21.,0.,0.));
#443=CARTESIAN_POINT('',(21.,0.,0.));
#444=CARTESIAN_POINT('',(21.,-16.5,0.));
#445=CARTESIAN_POINT('',(0.,0.,0.));
#446=CARTESIAN_POINT('',(0.,-16.5,0.));
#447=CARTESIAN_POINT('',(0.,3.0310008278897E-15,16.5));
#448=CARTESIAN_POINT('',(0.,-16.5,0.));
#449=CARTESIAN_POINT('',(0.,-1.01033360929657E-15,16.5));
#450=CARTESIAN_POINT('',(11.954501313166,0.,0.));
#451=CARTESIAN_POINT('',(0.,0.,0.));
#452=CARTESIAN_POINT('',(0.,-21.5,0.));
#453=CARTESIAN_POINT('',(0.,3.94948592725021E-15,21.5));
#454=CARTESIAN_POINT('',(0.,-21.5,0.));
#455=CARTESIAN_POINT('',(0.,-1.3164953090834E-15,21.5));
#456=CARTESIAN_POINT('',(0.,-21.5,0.));
#457=CARTESIAN_POINT('',(0.,-1.3164953090834E-15,21.5));
#458=CARTESIAN_POINT('',(0.,-21.5,0.));
#459=CARTESIAN_POINT('',(11.954501313166,0.,0.));
#460=CARTESIAN_POINT('',(0.,0.,0.));
#461=CARTESIAN_POINT('',(11.954501313166,0.,0.));
#462=CARTESIAN_POINT('',(0.,0.,0.));
#463=CARTESIAN_POINT('',(0.,-1.3164953090834E-15,21.5));
#464=CARTESIAN_POINT('',(11.954501313166,0.,0.));
#465=CARTESIAN_POINT('',(0.5,0.,0.));
#466=CARTESIAN_POINT('',(0.5,0.,16.5774489801543));
#467=CARTESIAN_POINT('',(0.5,0.,0.));
#468=CARTESIAN_POINT('',(1.272080402638,0.,0.));
#469=CARTESIAN_POINT('',(1.272080402638,0.,17.3769616417696));
#470=CARTESIAN_POINT('',(1.3,0.,0.));
#471=CARTESIAN_POINT('',(11.954501313166,0.,0.));
#472=CARTESIAN_POINT('',(11.954501313166,0.,17.75));
#473=CARTESIAN_POINT('',(11.954501313166,0.,0.));
#474=CARTESIAN_POINT('',(21.6312150074272,0.,0.));
#475=CARTESIAN_POINT('',(21.6312150074272,0.,17.75));
#476=CARTESIAN_POINT('',(0.,0.,0.));
#477=CARTESIAN_POINT('',(22.4862653657414,0.,0.));
#478=CARTESIAN_POINT('',(22.4862653657414,0.,17.5992315519648));
#479=CARTESIAN_POINT('',(21.6312150074272,0.,0.));
#480=CARTESIAN_POINT('',(27.5669872981078,0.,0.));
#481=CARTESIAN_POINT('',(27.5669872981078,0.,15.75));
#482=CARTESIAN_POINT('',(27.5669872981078,0.,0.));
#483=CARTESIAN_POINT('',(29.5669872981078,0.,0.));
#484=CARTESIAN_POINT('',(29.5669872981078,0.,15.75));
#485=CARTESIAN_POINT('',(0.,0.,0.));
#486=CARTESIAN_POINT('',(30.,0.,0.));
#487=CARTESIAN_POINT('',(30.,0.,16.));
#488=CARTESIAN_POINT('',(30.,0.,0.));
#489=CARTESIAN_POINT('',(84.5821795450956,0.,0.));
#490=CARTESIAN_POINT('',(84.5821795450956,0.,16.));
#491=CARTESIAN_POINT('',(0.,0.,0.));
#492=CARTESIAN_POINT('',(86.,0.,0.));
#493=CARTESIAN_POINT('',(86.,0.,15.75));
#494=CARTESIAN_POINT('',(86.,0.,0.));
#495=CARTESIAN_POINT('',(89.,0.,0.));
#496=CARTESIAN_POINT('',(89.,0.,15.75));
#497=CARTESIAN_POINT('',(0.,0.,0.));
#498=CARTESIAN_POINT('',(90.,0.,0.));
#499=CARTESIAN_POINT('',(90.,0.,14.75));
#500=CARTESIAN_POINT('',(89.,0.,0.));
#501=CARTESIAN_POINT('',(90.,14.75,0.));
#502=MECHANICAL_DESIGN_GEOMETRIC_PRESENTATION_REPRESENTATION('',(#62,#63),
#503);
#503=(
GEOMETRIC_REPRESENTATION_CONTEXT(3)
GLOBAL_UNCERTAINTY_ASSIGNED_CONTEXT((#504))
GLOBAL_UNIT_ASSIGNED_CONTEXT((#510,#506,#505))
REPRESENTATION_CONTEXT('ATM-C21-D43-W32-L90-Z03-H',
'TOP_LEVEL_ASSEMBLY_PART')
);
#504=UNCERTAINTY_MEASURE_WITH_UNIT(LENGTH_MEASURE(2.E-5),#510,
'DISTANCE_ACCURACY_VALUE','Maximum Tolerance applied to model');
#505=(
NAMED_UNIT(*)
SI_UNIT($,.STERADIAN.)
SOLID_ANGLE_UNIT()
);
#506=(
CONVERSION_BASED_UNIT('DEGREE',#508)
NAMED_UNIT(#507)
PLANE_ANGLE_UNIT()
);
#507=DIMENSIONAL_EXPONENTS(0.,0.,0.,0.,0.,0.,0.);
#508=PLANE_ANGLE_MEASURE_WITH_UNIT(PLANE_ANGLE_MEASURE(0.0174532925),#509);
#509=(
NAMED_UNIT(*)
PLANE_ANGLE_UNIT()
SI_UNIT($,.RADIAN.)
);
#510=(
LENGTH_UNIT()
NAMED_UNIT(*)
SI_UNIT(.MILLI.,.METRE.)
);
ENDSEC;
END-ISO-10303-21;
