ISO-10303-21;
HEADER;
/* Generated by software containing ST-Developer
 * from STEP Tools, Inc. (www.steptools.com) 
 */
/* OPTION: using custom schema-name function */

FILE_DESCRIPTION(
/* description */ (''),
/* implementation_level */ '2;1');

FILE_NAME(
/* name */ 'ATM-H32-D32-C32-L130-Z05-H.stp',
/* time_stamp */ '2023-09-30T02:16:14+03:00',
/* author */ (''),
/* organization */ (''),
/* preprocessor_version */ 'ST-DEVELOPER v19.4',
/* originating_system */ 'SIEMENS PLM Software NX2306.5001',
/* authorisation */ '');

FILE_SCHEMA (('AUTOMOTIVE_DESIGN { 1 0 10303 214 3 1 1 1 }'));
ENDSEC;

DATA;
#10=PROPERTY_DEFINITION_REPRESENTATION(#14,#12);
#11=PROPERTY_DEFINITION_REPRESENTATION(#15,#13);
#12=REPRESENTATION('',(#16),#463);
#13=REPRESENTATION('',(#17),#463);
#14=PROPERTY_DEFINITION('pmi validation property','',#21);
#15=PROPERTY_DEFINITION('pmi validation property','',#21);
#16=VALUE_REPRESENTATION_ITEM('number of annotations',COUNT_MEASURE(0.));
#17=VALUE_REPRESENTATION_ITEM('number of views',COUNT_MEASURE(0.));
#18=SHAPE_REPRESENTATION_RELATIONSHIP('None',
'relationship between ATM-H32-D32-C32-L130-Z05-H-LIGHT_x_t_objects-Non
e and ATM-H32-D32-C32-L130-Z05-H-LIGHT_x_t_objects-None',#30,#19);
#19=ADVANCED_BREP_SHAPE_REPRESENTATION(
'ATM-H32-D32-C32-L130-Z05-H-LIGHT_x_t_objects-None',(#72,#73),#463);
#20=SHAPE_DEFINITION_REPRESENTATION(#21,#30);
#21=PRODUCT_DEFINITION_SHAPE('','',#22);
#22=PRODUCT_DEFINITION(' ','',#24,#23);
#23=PRODUCT_DEFINITION_CONTEXT('part definition',#29,'design');
#24=PRODUCT_DEFINITION_FORMATION_WITH_SPECIFIED_SOURCE(' ',' ',#26,
 .NOT_KNOWN.);
#25=PRODUCT_RELATED_PRODUCT_CATEGORY('part','',(#26));
#26=PRODUCT('ATM-H32-D32-C32-L130-Z05-H-LIGHT_x_t_objects',
'ATM-H32-D32-C32-L130-Z05-H-LIGHT_x_t_objects',' ',(#27));
#27=PRODUCT_CONTEXT(' ',#29,'mechanical');
#28=APPLICATION_PROTOCOL_DEFINITION('international standard',
'automotive_design',2010,#29);
#29=APPLICATION_CONTEXT(
'core data for automotive mechanical design processes');
#30=SHAPE_REPRESENTATION(
'ATM-H32-D32-C32-L130-Z05-H-LIGHT_x_t_objects-None',(#276),#463);
#31=COLOUR_RGB('silver gray',0.6,0.6,0.6);
#32=CONICAL_SURFACE('',#298,13.5,1.8);
#33=CONICAL_SURFACE('',#304,16.,45.0000000000001);
#34=CONICAL_SURFACE('',#308,15.75,10.0000000000001);
#35=TOROIDAL_SURFACE('',#296,11.9966860600692,1.);
#36=TOROIDAL_SURFACE('',#302,17.5,4.);
#37=TOROIDAL_SURFACE('',#312,14.75,1.);
#38=FACE_BOUND('',#127,.T.);
#39=FACE_BOUND('',#128,.T.);
#40=FACE_BOUND('',#129,.T.);
#41=FACE_BOUND('',#130,.T.);
#42=FACE_BOUND('',#131,.T.);
#43=FACE_BOUND('',#132,.T.);
#44=FACE_BOUND('',#133,.T.);
#45=FACE_BOUND('',#134,.T.);
#46=FACE_BOUND('',#135,.T.);
#47=FACE_BOUND('',#136,.T.);
#48=FACE_BOUND('',#137,.T.);
#49=FACE_BOUND('',#138,.T.);
#50=FACE_BOUND('',#139,.T.);
#51=FACE_BOUND('',#140,.T.);
#52=FACE_BOUND('',#141,.T.);
#53=FACE_BOUND('',#142,.T.);
#54=FACE_BOUND('',#143,.T.);
#55=FACE_BOUND('',#144,.T.);
#56=PRESENTATION_LAYER_ASSIGNMENT('1','Layer 1',(#72,#73));
#57=STYLED_ITEM('',(#59),#72);
#58=STYLED_ITEM('',(#60),#73);
#59=PRESENTATION_STYLE_ASSIGNMENT((#61));
#60=PRESENTATION_STYLE_ASSIGNMENT((#62));
#61=SURFACE_STYLE_USAGE(.BOTH.,#63);
#62=SURFACE_STYLE_USAGE(.BOTH.,#64);
#63=SURFACE_SIDE_STYLE('',(#65));
#64=SURFACE_SIDE_STYLE('',(#66));
#65=SURFACE_STYLE_FILL_AREA(#67);
#66=SURFACE_STYLE_FILL_AREA(#68);
#67=FILL_AREA_STYLE('',(#69));
#68=FILL_AREA_STYLE('',(#70));
#69=FILL_AREA_STYLE_COLOUR('',#71);
#70=FILL_AREA_STYLE_COLOUR('',#31);
#71=DRAUGHTING_PRE_DEFINED_COLOUR('yellow');
#72=MANIFOLD_SOLID_BREP('',#74);
#73=MANIFOLD_SOLID_BREP('',#75);
#74=CLOSED_SHELL('',(#83,#84,#85,#86,#87,#88,#89,#90));
#75=CLOSED_SHELL('',(#91,#92,#93,#94,#95,#96,#97,#98,#99,#100,#101));
#76=CYLINDRICAL_SURFACE('',#284,9.);
#77=CYLINDRICAL_SURFACE('',#287,16.);
#78=CYLINDRICAL_SURFACE('',#289,9.);
#79=CYLINDRICAL_SURFACE('',#292,16.);
#80=CYLINDRICAL_SURFACE('',#300,13.5);
#81=CYLINDRICAL_SURFACE('',#306,16.);
#82=CYLINDRICAL_SURFACE('',#310,15.75);
#83=ADVANCED_FACE('',(#108),#102,.F.);
#84=ADVANCED_FACE('',(#109),#103,.F.);
#85=ADVANCED_FACE('',(#110),#76,.F.);
#86=ADVANCED_FACE('',(#111),#104,.F.);
#87=ADVANCED_FACE('',(#112),#77,.T.);
#88=ADVANCED_FACE('',(#113),#78,.F.);
#89=ADVANCED_FACE('',(#114),#105,.F.);
#90=ADVANCED_FACE('',(#115),#79,.T.);
#91=ADVANCED_FACE('',(#116),#106,.F.);
#92=ADVANCED_FACE('',(#38,#39),#35,.T.);
#93=ADVANCED_FACE('',(#40,#41),#32,.T.);
#94=ADVANCED_FACE('',(#42,#43),#80,.T.);
#95=ADVANCED_FACE('',(#44,#45),#36,.F.);
#96=ADVANCED_FACE('',(#46,#47),#33,.T.);
#97=ADVANCED_FACE('',(#48,#49),#81,.T.);
#98=ADVANCED_FACE('',(#50,#51),#34,.T.);
#99=ADVANCED_FACE('',(#52,#53),#82,.T.);
#100=ADVANCED_FACE('',(#54,#55),#37,.T.);
#101=ADVANCED_FACE('',(#117),#107,.F.);
#102=PLANE('',#279);
#103=PLANE('',#282);
#104=PLANE('',#286);
#105=PLANE('',#291);
#106=PLANE('',#294);
#107=PLANE('',#313);
#108=FACE_OUTER_BOUND('',#118,.T.);
#109=FACE_OUTER_BOUND('',#119,.T.);
#110=FACE_OUTER_BOUND('',#120,.T.);
#111=FACE_OUTER_BOUND('',#121,.T.);
#112=FACE_OUTER_BOUND('',#122,.T.);
#113=FACE_OUTER_BOUND('',#123,.T.);
#114=FACE_OUTER_BOUND('',#124,.T.);
#115=FACE_OUTER_BOUND('',#125,.T.);
#116=FACE_OUTER_BOUND('',#126,.T.);
#117=FACE_OUTER_BOUND('',#145,.T.);
#118=EDGE_LOOP('',(#164,#165,#166,#167));
#119=EDGE_LOOP('',(#168,#169,#170,#171));
#120=EDGE_LOOP('',(#172,#173,#174,#175));
#121=EDGE_LOOP('',(#176,#177,#178,#179));
#122=EDGE_LOOP('',(#180,#181,#182,#183));
#123=EDGE_LOOP('',(#184,#185,#186,#187));
#124=EDGE_LOOP('',(#188,#189,#190,#191));
#125=EDGE_LOOP('',(#192,#193,#194,#195));
#126=EDGE_LOOP('',(#196));
#127=EDGE_LOOP('',(#197));
#128=EDGE_LOOP('',(#198));
#129=EDGE_LOOP('',(#199));
#130=EDGE_LOOP('',(#200));
#131=EDGE_LOOP('',(#201));
#132=EDGE_LOOP('',(#202));
#133=EDGE_LOOP('',(#203));
#134=EDGE_LOOP('',(#204));
#135=EDGE_LOOP('',(#205));
#136=EDGE_LOOP('',(#206));
#137=EDGE_LOOP('',(#207));
#138=EDGE_LOOP('',(#208));
#139=EDGE_LOOP('',(#209));
#140=EDGE_LOOP('',(#210));
#141=EDGE_LOOP('',(#211));
#142=EDGE_LOOP('',(#212));
#143=EDGE_LOOP('',(#213));
#144=EDGE_LOOP('',(#214));
#145=EDGE_LOOP('',(#215));
#146=CIRCLE('',#277,16.);
#147=CIRCLE('',#278,9.);
#148=CIRCLE('',#280,9.);
#149=CIRCLE('',#281,16.);
#150=CIRCLE('',#283,9.);
#151=CIRCLE('',#285,16.);
#152=CIRCLE('',#288,9.);
#153=CIRCLE('',#290,16.);
#154=CIRCLE('',#293,11.9966860600692);
#155=CIRCLE('',#295,12.996192620435);
#156=CIRCLE('',#297,13.5);
#157=CIRCLE('',#299,13.5);
#158=CIRCLE('',#301,14.6715728752538);
#159=CIRCLE('',#303,16.);
#160=CIRCLE('',#305,16.);
#161=CIRCLE('',#307,15.75);
#162=CIRCLE('',#309,15.75);
#163=CIRCLE('',#311,14.75);
#164=ORIENTED_EDGE('',*,*,#234,.F.);
#165=ORIENTED_EDGE('',*,*,#235,.T.);
#166=ORIENTED_EDGE('',*,*,#236,.F.);
#167=ORIENTED_EDGE('',*,*,#237,.F.);
#168=ORIENTED_EDGE('',*,*,#238,.F.);
#169=ORIENTED_EDGE('',*,*,#236,.T.);
#170=ORIENTED_EDGE('',*,*,#239,.T.);
#171=ORIENTED_EDGE('',*,*,#234,.T.);
#172=ORIENTED_EDGE('',*,*,#240,.F.);
#173=ORIENTED_EDGE('',*,*,#241,.F.);
#174=ORIENTED_EDGE('',*,*,#238,.T.);
#175=ORIENTED_EDGE('',*,*,#242,.F.);
#176=ORIENTED_EDGE('',*,*,#243,.F.);
#177=ORIENTED_EDGE('',*,*,#244,.F.);
#178=ORIENTED_EDGE('',*,*,#240,.T.);
#179=ORIENTED_EDGE('',*,*,#245,.F.);
#180=ORIENTED_EDGE('',*,*,#246,.T.);
#181=ORIENTED_EDGE('',*,*,#239,.F.);
#182=ORIENTED_EDGE('',*,*,#247,.T.);
#183=ORIENTED_EDGE('',*,*,#243,.T.);
#184=ORIENTED_EDGE('',*,*,#237,.T.);
#185=ORIENTED_EDGE('',*,*,#241,.T.);
#186=ORIENTED_EDGE('',*,*,#248,.F.);
#187=ORIENTED_EDGE('',*,*,#242,.T.);
#188=ORIENTED_EDGE('',*,*,#248,.T.);
#189=ORIENTED_EDGE('',*,*,#244,.T.);
#190=ORIENTED_EDGE('',*,*,#249,.F.);
#191=ORIENTED_EDGE('',*,*,#245,.T.);
#192=ORIENTED_EDGE('',*,*,#249,.T.);
#193=ORIENTED_EDGE('',*,*,#247,.F.);
#194=ORIENTED_EDGE('',*,*,#235,.F.);
#195=ORIENTED_EDGE('',*,*,#246,.F.);
#196=ORIENTED_EDGE('',*,*,#250,.T.);
#197=ORIENTED_EDGE('',*,*,#250,.F.);
#198=ORIENTED_EDGE('',*,*,#251,.T.);
#199=ORIENTED_EDGE('',*,*,#251,.F.);
#200=ORIENTED_EDGE('',*,*,#252,.T.);
#201=ORIENTED_EDGE('',*,*,#252,.F.);
#202=ORIENTED_EDGE('',*,*,#253,.T.);
#203=ORIENTED_EDGE('',*,*,#253,.F.);
#204=ORIENTED_EDGE('',*,*,#254,.T.);
#205=ORIENTED_EDGE('',*,*,#254,.F.);
#206=ORIENTED_EDGE('',*,*,#255,.T.);
#207=ORIENTED_EDGE('',*,*,#255,.F.);
#208=ORIENTED_EDGE('',*,*,#256,.T.);
#209=ORIENTED_EDGE('',*,*,#256,.F.);
#210=ORIENTED_EDGE('',*,*,#257,.T.);
#211=ORIENTED_EDGE('',*,*,#257,.F.);
#212=ORIENTED_EDGE('',*,*,#258,.T.);
#213=ORIENTED_EDGE('',*,*,#258,.F.);
#214=ORIENTED_EDGE('',*,*,#259,.T.);
#215=ORIENTED_EDGE('',*,*,#259,.F.);
#216=VERTEX_POINT('',#400);
#217=VERTEX_POINT('',#401);
#218=VERTEX_POINT('',#403);
#219=VERTEX_POINT('',#405);
#220=VERTEX_POINT('',#412);
#221=VERTEX_POINT('',#413);
#222=VERTEX_POINT('',#418);
#223=VERTEX_POINT('',#419);
#224=VERTEX_POINT('',#432);
#225=VERTEX_POINT('',#435);
#226=VERTEX_POINT('',#438);
#227=VERTEX_POINT('',#441);
#228=VERTEX_POINT('',#444);
#229=VERTEX_POINT('',#447);
#230=VERTEX_POINT('',#450);
#231=VERTEX_POINT('',#453);
#232=VERTEX_POINT('',#456);
#233=VERTEX_POINT('',#459);
#234=EDGE_CURVE('',#216,#217,#260,.T.);
#235=EDGE_CURVE('',#216,#218,#146,.T.);
#236=EDGE_CURVE('',#219,#218,#261,.T.);
#237=EDGE_CURVE('',#217,#219,#147,.T.);
#238=EDGE_CURVE('',#219,#217,#148,.T.);
#239=EDGE_CURVE('',#218,#216,#149,.T.);
#240=EDGE_CURVE('',#220,#221,#150,.T.);
#241=EDGE_CURVE('',#219,#220,#262,.T.);
#242=EDGE_CURVE('',#221,#217,#263,.T.);
#243=EDGE_CURVE('',#222,#223,#151,.T.);
#244=EDGE_CURVE('',#220,#222,#264,.T.);
#245=EDGE_CURVE('',#223,#221,#265,.T.);
#246=EDGE_CURVE('',#223,#216,#266,.T.);
#247=EDGE_CURVE('',#218,#222,#267,.T.);
#248=EDGE_CURVE('',#221,#220,#152,.T.);
#249=EDGE_CURVE('',#223,#222,#153,.T.);
#250=EDGE_CURVE('',#224,#224,#154,.T.);
#251=EDGE_CURVE('',#225,#225,#155,.T.);
#252=EDGE_CURVE('',#226,#226,#156,.T.);
#253=EDGE_CURVE('',#227,#227,#157,.T.);
#254=EDGE_CURVE('',#228,#228,#158,.T.);
#255=EDGE_CURVE('',#229,#229,#159,.T.);
#256=EDGE_CURVE('',#230,#230,#160,.T.);
#257=EDGE_CURVE('',#231,#231,#161,.T.);
#258=EDGE_CURVE('',#232,#232,#162,.T.);
#259=EDGE_CURVE('',#233,#233,#163,.T.);
#260=LINE('',#399,#268);
#261=LINE('',#404,#269);
#262=LINE('',#414,#270);
#263=LINE('',#415,#271);
#264=LINE('',#420,#272);
#265=LINE('',#421,#273);
#266=LINE('',#423,#274);
#267=LINE('',#424,#275);
#268=VECTOR('',#316,1.);
#269=VECTOR('',#319,1.);
#270=VECTOR('',#332,1.);
#271=VECTOR('',#333,1.);
#272=VECTOR('',#338,1.);
#273=VECTOR('',#339,1.);
#274=VECTOR('',#342,1.);
#275=VECTOR('',#343,1.);
#276=AXIS2_PLACEMENT_3D('',#398,#314,#315);
#277=AXIS2_PLACEMENT_3D('',#402,#317,#318);
#278=AXIS2_PLACEMENT_3D('',#406,#320,#321);
#279=AXIS2_PLACEMENT_3D('',#407,#322,#323);
#280=AXIS2_PLACEMENT_3D('',#408,#324,#325);
#281=AXIS2_PLACEMENT_3D('',#409,#326,#327);
#282=AXIS2_PLACEMENT_3D('',#410,#328,#329);
#283=AXIS2_PLACEMENT_3D('',#411,#330,#331);
#284=AXIS2_PLACEMENT_3D('',#416,#334,#335);
#285=AXIS2_PLACEMENT_3D('',#417,#336,#337);
#286=AXIS2_PLACEMENT_3D('',#422,#340,#341);
#287=AXIS2_PLACEMENT_3D('',#425,#344,#345);
#288=AXIS2_PLACEMENT_3D('',#426,#346,#347);
#289=AXIS2_PLACEMENT_3D('',#427,#348,#349);
#290=AXIS2_PLACEMENT_3D('',#428,#350,#351);
#291=AXIS2_PLACEMENT_3D('',#429,#352,#353);
#292=AXIS2_PLACEMENT_3D('',#430,#354,#355);
#293=AXIS2_PLACEMENT_3D('',#431,#356,#357);
#294=AXIS2_PLACEMENT_3D('',#433,#358,#359);
#295=AXIS2_PLACEMENT_3D('',#434,#360,#361);
#296=AXIS2_PLACEMENT_3D('',#436,#362,#363);
#297=AXIS2_PLACEMENT_3D('',#437,#364,#365);
#298=AXIS2_PLACEMENT_3D('',#439,#366,#367);
#299=AXIS2_PLACEMENT_3D('',#440,#368,#369);
#300=AXIS2_PLACEMENT_3D('',#442,#370,#371);
#301=AXIS2_PLACEMENT_3D('',#443,#372,#373);
#302=AXIS2_PLACEMENT_3D('',#445,#374,#375);
#303=AXIS2_PLACEMENT_3D('',#446,#376,#377);
#304=AXIS2_PLACEMENT_3D('',#448,#378,#379);
#305=AXIS2_PLACEMENT_3D('',#449,#380,#381);
#306=AXIS2_PLACEMENT_3D('',#451,#382,#383);
#307=AXIS2_PLACEMENT_3D('',#452,#384,#385);
#308=AXIS2_PLACEMENT_3D('',#454,#386,#387);
#309=AXIS2_PLACEMENT_3D('',#455,#388,#389);
#310=AXIS2_PLACEMENT_3D('',#457,#390,#391);
#311=AXIS2_PLACEMENT_3D('',#458,#392,#393);
#312=AXIS2_PLACEMENT_3D('',#460,#394,#395);
#313=AXIS2_PLACEMENT_3D('',#461,#396,#397);
#314=DIRECTION('',(0.,0.,1.));
#315=DIRECTION('',(1.,0.,0.));
#316=DIRECTION('',(0.,6.12323399573676E-17,-1.));
#317=DIRECTION('',(1.,0.,0.));
#318=DIRECTION('',(0.,-6.12323399573677E-17,1.));
#319=DIRECTION('',(0.,-1.,0.));
#320=DIRECTION('',(1.,0.,0.));
#321=DIRECTION('',(0.,-6.12323399573677E-17,1.));
#322=DIRECTION('',(-1.,0.,0.));
#323=DIRECTION('',(0.,0.,1.));
#324=DIRECTION('',(1.,0.,0.));
#325=DIRECTION('',(0.,-1.,0.));
#326=DIRECTION('',(1.,0.,0.));
#327=DIRECTION('',(0.,-1.,0.));
#328=DIRECTION('',(-1.,0.,0.));
#329=DIRECTION('',(0.,0.,1.));
#330=DIRECTION('',(1.,0.,0.));
#331=DIRECTION('',(0.,-1.,0.));
#332=DIRECTION('',(-1.,0.,0.));
#333=DIRECTION('',(1.,0.,0.));
#334=DIRECTION('',(1.,0.,0.));
#335=DIRECTION('',(0.,0.,-1.));
#336=DIRECTION('',(1.,0.,0.));
#337=DIRECTION('',(0.,-1.,0.));
#338=DIRECTION('',(0.,-1.,0.));
#339=DIRECTION('',(0.,6.12323399573676E-17,-1.));
#340=DIRECTION('',(1.,0.,0.));
#341=DIRECTION('',(0.,0.,-1.));
#342=DIRECTION('',(1.,0.,0.));
#343=DIRECTION('',(-1.,0.,0.));
#344=DIRECTION('',(1.,0.,0.));
#345=DIRECTION('',(0.,0.,-1.));
#346=DIRECTION('',(1.,0.,0.));
#347=DIRECTION('',(0.,-6.12323399573677E-17,1.));
#348=DIRECTION('',(1.,0.,0.));
#349=DIRECTION('',(0.,0.,-1.));
#350=DIRECTION('',(1.,0.,0.));
#351=DIRECTION('',(0.,-6.12323399573677E-17,1.));
#352=DIRECTION('',(1.,0.,0.));
#353=DIRECTION('',(0.,0.,-1.));
#354=DIRECTION('',(1.,0.,0.));
#355=DIRECTION('',(0.,0.,-1.));
#356=DIRECTION('',(-1.,0.,0.));
#357=DIRECTION('',(0.,0.,1.));
#358=DIRECTION('',(1.,0.,0.));
#359=DIRECTION('',(0.,0.,-1.));
#360=DIRECTION('',(-1.,0.,0.));
#361=DIRECTION('',(0.,0.,1.));
#362=DIRECTION('',(-1.,0.,0.));
#363=DIRECTION('',(0.,0.,1.));
#364=DIRECTION('',(-1.,0.,0.));
#365=DIRECTION('',(0.,0.,1.));
#366=DIRECTION('',(1.,0.,0.));
#367=DIRECTION('',(1.54450714804823E-15,0.,-1.));
#368=DIRECTION('',(-1.,0.,0.));
#369=DIRECTION('',(0.,0.,1.));
#370=DIRECTION('',(-1.,0.,0.));
#371=DIRECTION('',(0.,0.,1.));
#372=DIRECTION('',(-1.,0.,0.));
#373=DIRECTION('',(0.,0.,1.));
#374=DIRECTION('',(-1.,0.,0.));
#375=DIRECTION('',(0.,0.,1.));
#376=DIRECTION('',(-1.,0.,0.));
#377=DIRECTION('',(0.,0.,1.));
#378=DIRECTION('',(1.,0.,0.));
#379=DIRECTION('',(4.09777199049638E-17,0.,-1.));
#380=DIRECTION('',(-1.,0.,0.));
#381=DIRECTION('',(0.,0.,1.));
#382=DIRECTION('',(-1.,0.,0.));
#383=DIRECTION('',(0.,0.,1.));
#384=DIRECTION('',(-1.,0.,0.));
#385=DIRECTION('',(0.,0.,1.));
#386=DIRECTION('',(-1.,0.,0.));
#387=DIRECTION('',(0.,0.,1.));
#388=DIRECTION('',(-1.,0.,0.));
#389=DIRECTION('',(0.,0.,1.));
#390=DIRECTION('',(-1.,0.,0.));
#391=DIRECTION('',(0.,0.,1.));
#392=DIRECTION('',(-1.,0.,0.));
#393=DIRECTION('',(0.,0.,1.));
#394=DIRECTION('',(-1.,0.,0.));
#395=DIRECTION('',(0.,0.,1.));
#396=DIRECTION('',(-1.,0.,0.));
#397=DIRECTION('',(0.,0.,1.));
#398=CARTESIAN_POINT('',(0.,0.,0.));
#399=CARTESIAN_POINT('',(32.,-9.79717439317882E-16,16.));
#400=CARTESIAN_POINT('',(32.,2.93915231795365E-15,16.));
#401=CARTESIAN_POINT('',(32.,1.65327317884893E-15,9.));
#402=CARTESIAN_POINT('',(32.,0.,0.));
#403=CARTESIAN_POINT('',(32.,-16.,0.));
#404=CARTESIAN_POINT('',(32.,-16.,0.));
#405=CARTESIAN_POINT('',(32.,-9.,0.));
#406=CARTESIAN_POINT('',(32.,0.,0.));
#407=CARTESIAN_POINT('',(32.,-9.79717439317882E-16,16.));
#408=CARTESIAN_POINT('',(32.,0.,0.));
#409=CARTESIAN_POINT('',(32.,0.,0.));
#410=CARTESIAN_POINT('',(32.,-16.,0.));
#411=CARTESIAN_POINT('',(0.,0.,0.));
#412=CARTESIAN_POINT('',(0.,-9.,0.));
#413=CARTESIAN_POINT('',(0.,1.65327317884893E-15,9.));
#414=CARTESIAN_POINT('',(0.,-9.,0.));
#415=CARTESIAN_POINT('',(0.,-5.51091059616309E-16,9.));
#416=CARTESIAN_POINT('',(37.8284271247462,0.,0.));
#417=CARTESIAN_POINT('',(0.,0.,0.));
#418=CARTESIAN_POINT('',(0.,-16.,0.));
#419=CARTESIAN_POINT('',(0.,2.93915231795365E-15,16.));
#420=CARTESIAN_POINT('',(0.,-16.,0.));
#421=CARTESIAN_POINT('',(0.,-9.79717439317882E-16,16.));
#422=CARTESIAN_POINT('',(0.,-16.,0.));
#423=CARTESIAN_POINT('',(0.,-9.79717439317882E-16,16.));
#424=CARTESIAN_POINT('',(0.,-16.,0.));
#425=CARTESIAN_POINT('',(37.8284271247462,0.,0.));
#426=CARTESIAN_POINT('',(0.,0.,0.));
#427=CARTESIAN_POINT('',(37.8284271247462,0.,0.));
#428=CARTESIAN_POINT('',(0.,0.,0.));
#429=CARTESIAN_POINT('',(0.,-9.79717439317882E-16,16.));
#430=CARTESIAN_POINT('',(37.8284271247462,0.,0.));
#431=CARTESIAN_POINT('',(0.5,0.,0.));
#432=CARTESIAN_POINT('',(0.5,0.,11.9966860600692));
#433=CARTESIAN_POINT('',(0.5,0.,0.));
#434=CARTESIAN_POINT('',(1.46858924092187,0.,0.));
#435=CARTESIAN_POINT('',(1.46858924092187,0.,12.996192620435));
#436=CARTESIAN_POINT('',(1.5,0.,0.));
#437=CARTESIAN_POINT('',(17.5,0.,0.));
#438=CARTESIAN_POINT('',(17.5,0.,13.5));
#439=CARTESIAN_POINT('',(17.5,0.,0.));
#440=CARTESIAN_POINT('',(35.,0.,0.));
#441=CARTESIAN_POINT('',(35.,0.,13.5));
#442=CARTESIAN_POINT('',(0.,0.,0.));
#443=CARTESIAN_POINT('',(37.8284271247462,0.,0.));
#444=CARTESIAN_POINT('',(37.8284271247462,0.,14.6715728752538));
#445=CARTESIAN_POINT('',(35.,0.,0.));
#446=CARTESIAN_POINT('',(39.1568542494924,0.,0.));
#447=CARTESIAN_POINT('',(39.1568542494924,0.,16.));
#448=CARTESIAN_POINT('',(39.1568542494924,0.,0.));
#449=CARTESIAN_POINT('',(124.582179545096,0.,0.));
#450=CARTESIAN_POINT('',(124.582179545096,0.,16.));
#451=CARTESIAN_POINT('',(0.,0.,0.));
#452=CARTESIAN_POINT('',(126.,0.,0.));
#453=CARTESIAN_POINT('',(126.,0.,15.75));
#454=CARTESIAN_POINT('',(126.,0.,0.));
#455=CARTESIAN_POINT('',(129.,0.,0.));
#456=CARTESIAN_POINT('',(129.,0.,15.75));
#457=CARTESIAN_POINT('',(0.,0.,0.));
#458=CARTESIAN_POINT('',(130.,0.,0.));
#459=CARTESIAN_POINT('',(130.,0.,14.75));
#460=CARTESIAN_POINT('',(129.,0.,0.));
#461=CARTESIAN_POINT('',(130.,14.75,0.));
#462=MECHANICAL_DESIGN_GEOMETRIC_PRESENTATION_REPRESENTATION('',(#57,#58),
#463);
#463=(
GEOMETRIC_REPRESENTATION_CONTEXT(3)
GLOBAL_UNCERTAINTY_ASSIGNED_CONTEXT((#464))
GLOBAL_UNIT_ASSIGNED_CONTEXT((#470,#466,#465))
REPRESENTATION_CONTEXT('ATM-H32-D32-C32-L130-Z05-H',
'TOP_LEVEL_ASSEMBLY_PART')
);
#464=UNCERTAINTY_MEASURE_WITH_UNIT(LENGTH_MEASURE(2.E-5),#470,
'DISTANCE_ACCURACY_VALUE','Maximum Tolerance applied to model');
#465=(
NAMED_UNIT(*)
SI_UNIT($,.STERADIAN.)
SOLID_ANGLE_UNIT()
);
#466=(
CONVERSION_BASED_UNIT('DEGREE',#468)
NAMED_UNIT(#467)
PLANE_ANGLE_UNIT()
);
#467=DIMENSIONAL_EXPONENTS(0.,0.,0.,0.,0.,0.,0.);
#468=PLANE_ANGLE_MEASURE_WITH_UNIT(PLANE_ANGLE_MEASURE(0.0174532925),#469);
#469=(
NAMED_UNIT(*)
PLANE_ANGLE_UNIT()
SI_UNIT($,.RADIAN.)
);
#470=(
LENGTH_UNIT()
NAMED_UNIT(*)
SI_UNIT(.MILLI.,.METRE.)
);
ENDSEC;
END-ISO-10303-21;
