ISO-10303-21;
HEADER;
/* Generated by software containing ST-Developer
 * from STEP Tools, Inc. (www.steptools.com) 
 */
/* OPTION: using custom schema-name function */

FILE_DESCRIPTION(
/* description */ (''),
/* implementation_level */ '2;1');

FILE_NAME(
/* name */ 'ATSMR-RD0702-D25-W16-L90-Z03.stp',
/* time_stamp */ '2023-10-04T08:59:16+03:00',
/* author */ (''),
/* organization */ (''),
/* preprocessor_version */ 'ST-DEVELOPER v19.4',
/* originating_system */ 'SIEMENS PLM Software NX2306.5001',
/* authorisation */ '');

FILE_SCHEMA (('AUTOMOTIVE_DESIGN { 1 0 10303 214 3 1 1 1 }'));
ENDSEC;

DATA;
#10=PROPERTY_DEFINITION_REPRESENTATION(#14,#12);
#11=PROPERTY_DEFINITION_REPRESENTATION(#15,#13);
#12=REPRESENTATION('',(#16),#430);
#13=REPRESENTATION('',(#17),#430);
#14=PROPERTY_DEFINITION('pmi validation property','',#21);
#15=PROPERTY_DEFINITION('pmi validation property','',#21);
#16=VALUE_REPRESENTATION_ITEM('number of annotations',COUNT_MEASURE(0.));
#17=VALUE_REPRESENTATION_ITEM('number of views',COUNT_MEASURE(0.));
#18=SHAPE_REPRESENTATION_RELATIONSHIP('None',
'relationship between ATSMR-RD0702-D25-W16-L90-Z03-LIGHT_x_t_objects-N
one and ATSMR-RD0702-D25-W16-L90-Z03-LIGHT_x_t_objects-None',#30,#19);
#19=ADVANCED_BREP_SHAPE_REPRESENTATION(
'ATSMR-RD0702-D25-W16-L90-Z03-LIGHT_x_t_objects-None',(#63,#64),#430);
#20=SHAPE_DEFINITION_REPRESENTATION(#21,#30);
#21=PRODUCT_DEFINITION_SHAPE('','',#22);
#22=PRODUCT_DEFINITION(' ','',#24,#23);
#23=PRODUCT_DEFINITION_CONTEXT('part definition',#29,'design');
#24=PRODUCT_DEFINITION_FORMATION_WITH_SPECIFIED_SOURCE(' ',' ',#26,
 .NOT_KNOWN.);
#25=PRODUCT_RELATED_PRODUCT_CATEGORY('part','',(#26));
#26=PRODUCT('ATSMR-RD0702-D25-W16-L90-Z03-LIGHT_x_t_objects',
'ATSMR-RD0702-D25-W16-L90-Z03-LIGHT_x_t_objects',' ',(#27));
#27=PRODUCT_CONTEXT(' ',#29,'mechanical');
#28=APPLICATION_PROTOCOL_DEFINITION('international standard',
'automotive_design',2010,#29);
#29=APPLICATION_CONTEXT(
'core data for automotive mechanical design processes');
#30=SHAPE_REPRESENTATION(
'ATSMR-RD0702-D25-W16-L90-Z03-LIGHT_x_t_objects-None',(#188),#430);
#31=COLOUR_RGB('silver gray',0.6,0.6,0.6);
#32=SURFACE_OF_REVOLUTION('',#34,#33);
#33=AXIS1_PLACEMENT('',#415,#239);
#34=B_SPLINE_CURVE_WITH_KNOTS('',3,(#357,#358,#359,#360,#361,#362,#363,
#364,#365,#366,#367,#368,#369,#370,#371,#372,#373,#374,#375,#376,#377,#378,
#379,#380,#381,#382,#383,#384,#385,#386,#387,#388,#389,#390,#391,#392,#393,
#394,#395,#396,#397,#398,#399,#400,#401,#402,#403,#404,#405,#406,#407,#408,
#409,#410,#411,#412,#413,#414),.UNSPECIFIED.,.T.,.F.,(2,2,2,2,2,2,2,2,2,
2,2,2,2,2,2,2,2,2,2,2,2,2,2,2,2,2,2,2,2,2,2),(-0.03125,0.,0.0625,0.09375,
0.125,0.15625,0.1875,0.25,0.28125,0.3125,0.34375,0.375,0.4375,0.46875,0.5,
0.53125,0.5625,0.59375,0.625,0.65625,0.6875,0.71875,0.75,0.8125,0.84375,
0.875,0.90625,0.9375,0.96875,1.,1.0625),.UNSPECIFIED.);
#35=PLANE('',#198);
#36=PLANE('',#200);
#37=PLANE('',#203);
#38=FACE_OUTER_BOUND('',#114,.T.);
#39=FACE_OUTER_BOUND('',#115,.T.);
#40=TOROIDAL_SURFACE('',#197,6.75,1.);
#41=TOROIDAL_SURFACE('',#207,11.25,5.);
#42=CYLINDRICAL_SURFACE('',#195,7.75);
#43=CYLINDRICAL_SURFACE('',#205,6.25);
#44=CYLINDRICAL_SURFACE('',#210,8.);
#45=CONICAL_SURFACE('',#193,7.75,10.0000000000001);
#46=CONICAL_SURFACE('',#209,8.,25.0000000000001);
#47=PRESENTATION_LAYER_ASSIGNMENT('1','Layer 1',(#63,#64));
#48=STYLED_ITEM('',(#50),#63);
#49=STYLED_ITEM('',(#51),#64);
#50=PRESENTATION_STYLE_ASSIGNMENT((#52));
#51=PRESENTATION_STYLE_ASSIGNMENT((#53));
#52=SURFACE_STYLE_USAGE(.BOTH.,#54);
#53=SURFACE_STYLE_USAGE(.BOTH.,#55);
#54=SURFACE_SIDE_STYLE('',(#56));
#55=SURFACE_SIDE_STYLE('',(#57));
#56=SURFACE_STYLE_FILL_AREA(#58);
#57=SURFACE_STYLE_FILL_AREA(#59);
#58=FILL_AREA_STYLE('',(#60));
#59=FILL_AREA_STYLE('',(#61));
#60=FILL_AREA_STYLE_COLOUR('',#62);
#61=FILL_AREA_STYLE_COLOUR('',#31);
#62=DRAUGHTING_PRE_DEFINED_COLOUR('yellow');
#63=MANIFOLD_SOLID_BREP('',#65);
#64=MANIFOLD_SOLID_BREP('',#66);
#65=CLOSED_SHELL('',(#67,#68));
#66=CLOSED_SHELL('',(#69,#70,#71,#72,#73,#74,#75,#76,#77,#78,#79));
#67=ADVANCED_FACE('',(#82,#83),#80,.F.);
#68=ADVANCED_FACE('',(#84,#85),#81,.F.);
#69=ADVANCED_FACE('',(#86,#87),#45,.T.);
#70=ADVANCED_FACE('',(#88,#89),#42,.T.);
#71=ADVANCED_FACE('',(#90,#91),#40,.T.);
#72=ADVANCED_FACE('',(#38),#35,.F.);
#73=ADVANCED_FACE('',(#39),#36,.F.);
#74=ADVANCED_FACE('',(#92,#93),#32,.T.);
#75=ADVANCED_FACE('',(#94,#95),#37,.F.);
#76=ADVANCED_FACE('',(#96,#97),#43,.T.);
#77=ADVANCED_FACE('',(#98,#99),#41,.F.);
#78=ADVANCED_FACE('',(#100,#101),#46,.T.);
#79=ADVANCED_FACE('',(#102,#103),#44,.T.);
#80=(
BOUNDED_SURFACE()
B_SPLINE_SURFACE(3,3,((#263,#264,#265,#266,#267,#268,#269),(#270,#271,#272,
#273,#274,#275,#276),(#277,#278,#279,#280,#281,#282,#283),(#284,#285,#286,
#287,#288,#289,#290),(#291,#292,#293,#294,#295,#296,#297),(#298,#299,#300,
#301,#302,#303,#304),(#305,#306,#307,#308,#309,#310,#311)),
 .UNSPECIFIED.,.T.,.F.,.F.)
B_SPLINE_SURFACE_WITH_KNOTS((1,3,3,3,1),(4,3,4),(-0.5,0.,0.5,1.,1.5),(0.,
0.5,1.),.UNSPECIFIED.)
GEOMETRIC_REPRESENTATION_ITEM()
RATIONAL_B_SPLINE_SURFACE(((1.,0.563513306114831,0.563513306114831,1.,0.563513306114831,
0.563513306114831,1.),(0.333333333333334,0.187837768704943,0.187837768704943,
0.333333333333334,0.187837768704943,0.187837768704943,0.333333333333334),
(0.333333333333334,0.187837768704943,0.187837768704943,0.333333333333334,
0.187837768704943,0.187837768704943,0.333333333333334),(1.,0.563513306114831,
0.563513306114831,1.,0.563513306114831,0.563513306114831,1.),(0.333333333333334,
0.187837768704943,0.187837768704943,0.333333333333334,0.187837768704943,
0.187837768704943,0.333333333333334),(0.333333333333334,0.187837768704943,
0.187837768704943,0.333333333333334,0.187837768704943,0.187837768704943,
0.333333333333334),(1.,0.563513306114831,0.563513306114831,1.,0.563513306114831,
0.563513306114831,1.)))
REPRESENTATION_ITEM('')
SURFACE()
);
#81=(
BOUNDED_SURFACE()
B_SPLINE_SURFACE(3,3,((#312,#313,#314,#315),(#316,#317,#318,#319),(#320,
#321,#322,#323),(#324,#325,#326,#327),(#328,#329,#330,#331),(#332,#333,
#334,#335),(#336,#337,#338,#339)),.UNSPECIFIED.,.T.,.F.,.F.)
B_SPLINE_SURFACE_WITH_KNOTS((1,3,3,3,1),(4,4),(-0.5,0.,0.5,1.,1.5),(0.,
1.),.UNSPECIFIED.)
GEOMETRIC_REPRESENTATION_ITEM()
RATIONAL_B_SPLINE_SURFACE(((1.,0.841051540390927,0.841051540390927,1.),
(0.333333333333334,0.280350513463643,0.280350513463643,0.333333333333334),
(0.333333333333334,0.280350513463643,0.280350513463643,0.333333333333334),
(1.,0.841051540390927,0.841051540390927,1.),(0.333333333333334,0.280350513463643,
0.280350513463643,0.333333333333334),(0.333333333333334,0.280350513463643,
0.280350513463643,0.333333333333334),(1.,0.841051540390927,0.841051540390927,
1.)))
REPRESENTATION_ITEM('')
SURFACE()
);
#82=FACE_BOUND('',#104,.T.);
#83=FACE_BOUND('',#105,.T.);
#84=FACE_BOUND('',#106,.T.);
#85=FACE_BOUND('',#107,.T.);
#86=FACE_BOUND('',#108,.T.);
#87=FACE_BOUND('',#109,.T.);
#88=FACE_BOUND('',#110,.T.);
#89=FACE_BOUND('',#111,.T.);
#90=FACE_BOUND('',#112,.T.);
#91=FACE_BOUND('',#113,.T.);
#92=FACE_BOUND('',#116,.T.);
#93=FACE_BOUND('',#117,.T.);
#94=FACE_BOUND('',#118,.T.);
#95=FACE_BOUND('',#119,.T.);
#96=FACE_BOUND('',#120,.T.);
#97=FACE_BOUND('',#121,.T.);
#98=FACE_BOUND('',#122,.T.);
#99=FACE_BOUND('',#123,.T.);
#100=FACE_BOUND('',#124,.T.);
#101=FACE_BOUND('',#125,.T.);
#102=FACE_BOUND('',#126,.T.);
#103=FACE_BOUND('',#127,.T.);
#104=EDGE_LOOP('',(#128));
#105=EDGE_LOOP('',(#129));
#106=EDGE_LOOP('',(#130));
#107=EDGE_LOOP('',(#131));
#108=EDGE_LOOP('',(#132));
#109=EDGE_LOOP('',(#133));
#110=EDGE_LOOP('',(#134));
#111=EDGE_LOOP('',(#135));
#112=EDGE_LOOP('',(#136));
#113=EDGE_LOOP('',(#137));
#114=EDGE_LOOP('',(#138));
#115=EDGE_LOOP('',(#139));
#116=EDGE_LOOP('',(#140));
#117=EDGE_LOOP('',(#141));
#118=EDGE_LOOP('',(#142));
#119=EDGE_LOOP('',(#143));
#120=EDGE_LOOP('',(#144));
#121=EDGE_LOOP('',(#145));
#122=EDGE_LOOP('',(#146));
#123=EDGE_LOOP('',(#147));
#124=EDGE_LOOP('',(#148));
#125=EDGE_LOOP('',(#149));
#126=EDGE_LOOP('',(#150));
#127=EDGE_LOOP('',(#151));
#128=ORIENTED_EDGE('',*,*,#164,.F.);
#129=ORIENTED_EDGE('',*,*,#165,.F.);
#130=ORIENTED_EDGE('',*,*,#165,.T.);
#131=ORIENTED_EDGE('',*,*,#164,.T.);
#132=ORIENTED_EDGE('',*,*,#166,.F.);
#133=ORIENTED_EDGE('',*,*,#167,.T.);
#134=ORIENTED_EDGE('',*,*,#167,.F.);
#135=ORIENTED_EDGE('',*,*,#168,.T.);
#136=ORIENTED_EDGE('',*,*,#168,.F.);
#137=ORIENTED_EDGE('',*,*,#169,.T.);
#138=ORIENTED_EDGE('',*,*,#169,.F.);
#139=ORIENTED_EDGE('',*,*,#170,.T.);
#140=ORIENTED_EDGE('',*,*,#170,.F.);
#141=ORIENTED_EDGE('',*,*,#171,.T.);
#142=ORIENTED_EDGE('',*,*,#171,.F.);
#143=ORIENTED_EDGE('',*,*,#172,.T.);
#144=ORIENTED_EDGE('',*,*,#172,.F.);
#145=ORIENTED_EDGE('',*,*,#173,.T.);
#146=ORIENTED_EDGE('',*,*,#173,.F.);
#147=ORIENTED_EDGE('',*,*,#174,.T.);
#148=ORIENTED_EDGE('',*,*,#174,.F.);
#149=ORIENTED_EDGE('',*,*,#175,.T.);
#150=ORIENTED_EDGE('',*,*,#175,.F.);
#151=ORIENTED_EDGE('',*,*,#166,.T.);
#152=VERTEX_POINT('',#260);
#153=VERTEX_POINT('',#262);
#154=VERTEX_POINT('',#341);
#155=VERTEX_POINT('',#343);
#156=VERTEX_POINT('',#346);
#157=VERTEX_POINT('',#349);
#158=VERTEX_POINT('',#353);
#159=VERTEX_POINT('',#356);
#160=VERTEX_POINT('',#417);
#161=VERTEX_POINT('',#420);
#162=VERTEX_POINT('',#423);
#163=VERTEX_POINT('',#426);
#164=EDGE_CURVE('',#152,#152,#176,.T.);
#165=EDGE_CURVE('',#153,#153,#177,.T.);
#166=EDGE_CURVE('',#154,#154,#178,.T.);
#167=EDGE_CURVE('',#155,#155,#179,.T.);
#168=EDGE_CURVE('',#156,#156,#180,.T.);
#169=EDGE_CURVE('',#157,#157,#181,.T.);
#170=EDGE_CURVE('',#158,#158,#182,.T.);
#171=EDGE_CURVE('',#159,#159,#183,.T.);
#172=EDGE_CURVE('',#160,#160,#184,.T.);
#173=EDGE_CURVE('',#161,#161,#185,.T.);
#174=EDGE_CURVE('',#162,#162,#186,.T.);
#175=EDGE_CURVE('',#163,#163,#187,.T.);
#176=CIRCLE('',#189,3.5);
#177=CIRCLE('',#190,3.5);
#178=CIRCLE('',#191,8.);
#179=CIRCLE('',#192,7.75);
#180=CIRCLE('',#194,7.75);
#181=CIRCLE('',#196,6.75);
#182=CIRCLE('',#199,9.06572001270901);
#183=CIRCLE('',#201,9.06557534637728);
#184=CIRCLE('',#202,6.25);
#185=CIRCLE('',#204,6.25);
#186=CIRCLE('',#206,6.71846106481675);
#187=CIRCLE('',#208,8.);
#188=AXIS2_PLACEMENT_3D('',#258,#211,#212);
#189=AXIS2_PLACEMENT_3D('',#259,#213,#214);
#190=AXIS2_PLACEMENT_3D('',#261,#215,#216);
#191=AXIS2_PLACEMENT_3D('',#340,#217,#218);
#192=AXIS2_PLACEMENT_3D('',#342,#219,#220);
#193=AXIS2_PLACEMENT_3D('',#344,#221,#222);
#194=AXIS2_PLACEMENT_3D('',#345,#223,#224);
#195=AXIS2_PLACEMENT_3D('',#347,#225,#226);
#196=AXIS2_PLACEMENT_3D('',#348,#227,#228);
#197=AXIS2_PLACEMENT_3D('',#350,#229,#230);
#198=AXIS2_PLACEMENT_3D('',#351,#231,#232);
#199=AXIS2_PLACEMENT_3D('',#352,#233,#234);
#200=AXIS2_PLACEMENT_3D('',#354,#235,#236);
#201=AXIS2_PLACEMENT_3D('',#355,#237,#238);
#202=AXIS2_PLACEMENT_3D('',#416,#240,#241);
#203=AXIS2_PLACEMENT_3D('',#418,#242,#243);
#204=AXIS2_PLACEMENT_3D('',#419,#244,#245);
#205=AXIS2_PLACEMENT_3D('',#421,#246,#247);
#206=AXIS2_PLACEMENT_3D('',#422,#248,#249);
#207=AXIS2_PLACEMENT_3D('',#424,#250,#251);
#208=AXIS2_PLACEMENT_3D('',#425,#252,#253);
#209=AXIS2_PLACEMENT_3D('',#427,#254,#255);
#210=AXIS2_PLACEMENT_3D('',#428,#256,#257);
#211=DIRECTION('',(0.,0.,1.));
#212=DIRECTION('',(1.,0.,0.));
#213=DIRECTION('',(0.,-0.987117014340245,-0.16));
#214=DIRECTION('',(1.,0.,0.));
#215=DIRECTION('',(0.,0.,1.));
#216=DIRECTION('',(1.,0.,0.));
#217=DIRECTION('',(-1.,0.,0.));
#218=DIRECTION('',(0.,0.,1.));
#219=DIRECTION('',(-1.,0.,0.));
#220=DIRECTION('',(0.,0.,1.));
#221=DIRECTION('',(-1.,0.,0.));
#222=DIRECTION('',(-1.50782436287279E-16,0.,1.));
#223=DIRECTION('',(-1.,0.,0.));
#224=DIRECTION('',(0.,0.,1.));
#225=DIRECTION('',(-1.,0.,0.));
#226=DIRECTION('',(0.,0.,1.));
#227=DIRECTION('',(-1.,0.,0.));
#228=DIRECTION('',(0.,0.,1.));
#229=DIRECTION('',(-1.,0.,0.));
#230=DIRECTION('',(0.,0.,1.));
#231=DIRECTION('',(-1.,0.,0.));
#232=DIRECTION('',(0.,0.,1.));
#233=DIRECTION('',(-1.,0.,0.));
#234=DIRECTION('',(0.,0.,1.));
#235=DIRECTION('',(1.,0.,0.));
#236=DIRECTION('',(0.,0.,-1.));
#237=DIRECTION('',(-1.,0.,0.));
#238=DIRECTION('',(0.,0.,1.));
#239=DIRECTION('',(-1.,0.,0.));
#240=DIRECTION('',(-1.,0.,0.));
#241=DIRECTION('',(0.,0.,1.));
#242=DIRECTION('',(-1.,0.,0.));
#243=DIRECTION('',(0.,0.,1.));
#244=DIRECTION('',(-1.,0.,0.));
#245=DIRECTION('',(0.,0.,1.));
#246=DIRECTION('',(-1.,0.,0.));
#247=DIRECTION('',(0.,0.,1.));
#248=DIRECTION('',(-1.,0.,0.));
#249=DIRECTION('',(0.,0.,1.));
#250=DIRECTION('',(-1.,0.,0.));
#251=DIRECTION('',(0.,0.,1.));
#252=DIRECTION('',(-1.,0.,0.));
#253=DIRECTION('',(0.,0.,1.));
#254=DIRECTION('',(1.,0.,0.));
#255=DIRECTION('',(7.31476056163492E-17,0.,-1.));
#256=DIRECTION('',(-1.,0.,0.));
#257=DIRECTION('',(0.,0.,1.));
#258=CARTESIAN_POINT('',(0.,0.,0.));
#259=CARTESIAN_POINT('',(3.5,-0.446472713659755,9.00450507557628));
#260=CARTESIAN_POINT('',(7.,-0.446472713659755,9.00450507557628));
#261=CARTESIAN_POINT('',(3.5,-8.9599358,1.));
#262=CARTESIAN_POINT('',(7.,-8.9599358,1.));
#263=CARTESIAN_POINT('',(7.,-8.9599358,1.));
#264=CARTESIAN_POINT('',(7.,-10.0702360092127,-8.94821859327229));
#265=CARTESIAN_POINT('',(7.,-1.11715221893353,-13.4250601560648));
#266=CARTESIAN_POINT('',(7.,6.17560973974994,-6.56827937000455));
#267=CARTESIAN_POINT('',(7.,13.4683716984334,0.288501416055751));
#268=CARTESIAN_POINT('',(7.,9.55123115560934,9.50022382296046));
#269=CARTESIAN_POINT('',(7.,-0.446472713659757,9.00450507557628));
#270=CARTESIAN_POINT('',(7.,-1.9599358,1.));
#271=CARTESIAN_POINT('',(7.,-3.0702360092127,-1.17611712878345));
#272=CARTESIAN_POINT('',(7.,-1.41129596573144,-2.96948553624938));
#273=CARTESIAN_POINT('',(7.,0.844568565645203,-2.03176088111905));
#274=CARTESIAN_POINT('',(7.,3.10043309702185,-1.09403622598872));
#275=CARTESIAN_POINT('',(7.,2.99925756283366,1.34686848826053));
#276=CARTESIAN_POINT('',(7.,0.673527286340244,2.09468597519456));
#277=CARTESIAN_POINT('',(1.72461449739155E-15,-1.9599358,1.));
#278=CARTESIAN_POINT('',(1.72461449739155E-15,-3.0702360092127,-1.17611712878345));
#279=CARTESIAN_POINT('',(1.72461449739155E-15,-1.41129596573144,-2.96948553624938));
#280=CARTESIAN_POINT('',(1.72461449739155E-15,0.844568565645203,-2.03176088111905));
#281=CARTESIAN_POINT('',(1.72461449739155E-15,3.10043309702185,-1.09403622598872));
#282=CARTESIAN_POINT('',(1.72461449739155E-15,2.99925756283366,1.34686848826053));
#283=CARTESIAN_POINT('',(1.72461449739155E-15,0.673527286340244,2.09468597519456));
#284=CARTESIAN_POINT('',(8.67361737988404E-16,-8.9599358,1.));
#285=CARTESIAN_POINT('',(8.67361737988403E-16,-10.0702360092127,-8.94821859327229));
#286=CARTESIAN_POINT('',(8.67361737988403E-16,-1.11715221893353,-13.4250601560648));
#287=CARTESIAN_POINT('',(8.67361737988404E-16,6.17560973974994,-6.56827937000455));
#288=CARTESIAN_POINT('',(8.67361737988403E-16,13.4683716984334,0.288501416055751));
#289=CARTESIAN_POINT('',(8.67361737988403E-16,9.55123115560934,9.50022382296046));
#290=CARTESIAN_POINT('',(8.67361737988404E-16,-0.446472713659757,9.00450507557628));
#291=CARTESIAN_POINT('',(1.01089785852566E-17,-15.9599358,1.));
#292=CARTESIAN_POINT('',(1.01089785852566E-17,-17.0702360092127,-16.7203200577612));
#293=CARTESIAN_POINT('',(1.01089785852566E-17,-0.823008472135615,-23.8806347758803));
#294=CARTESIAN_POINT('',(1.01089785852566E-17,11.5066509138547,-11.10479785889));
#295=CARTESIAN_POINT('',(1.01089785852566E-17,23.836310299845,1.67103905810022));
#296=CARTESIAN_POINT('',(1.01089785852566E-17,16.103204748385,17.6535791576604));
#297=CARTESIAN_POINT('',(1.01089785852566E-17,-1.56647271365976,15.914324175958));
#298=CARTESIAN_POINT('',(7.,-15.9599358,1.));
#299=CARTESIAN_POINT('',(7.,-17.0702360092127,-16.7203200577612));
#300=CARTESIAN_POINT('',(7.,-0.823008472135615,-23.8806347758803));
#301=CARTESIAN_POINT('',(7.,11.5066509138547,-11.10479785889));
#302=CARTESIAN_POINT('',(7.,23.836310299845,1.67103905810022));
#303=CARTESIAN_POINT('',(7.,16.103204748385,17.6535791576604));
#304=CARTESIAN_POINT('',(7.,-1.56647271365976,15.914324175958));
#305=CARTESIAN_POINT('',(7.,-8.9599358,1.));
#306=CARTESIAN_POINT('',(7.,-10.0702360092127,-8.94821859327229));
#307=CARTESIAN_POINT('',(7.,-1.11715221893353,-13.4250601560648));
#308=CARTESIAN_POINT('',(7.,6.17560973974994,-6.56827937000455));
#309=CARTESIAN_POINT('',(7.,13.4683716984334,0.288501416055751));
#310=CARTESIAN_POINT('',(7.,9.55123115560934,9.50022382296046));
#311=CARTESIAN_POINT('',(7.,-0.446472713659757,9.00450507557628));
#312=CARTESIAN_POINT('',(7.,-0.446472713659755,9.00450507557628));
#313=CARTESIAN_POINT('',(7.,-5.0720998569684,8.77515140364012));
#314=CARTESIAN_POINT('',(7.,-8.44623436894022,5.60273184266382));
#315=CARTESIAN_POINT('',(7.,-8.9599358,1.));
#316=CARTESIAN_POINT('',(7.,0.673527286340245,2.09468597519456));
#317=CARTESIAN_POINT('',(6.99999999999999,-0.402515896738067,2.44067790604536));
#318=CARTESIAN_POINT('',(6.99999999999999,-1.44623436894022,2.00682182524531));
#319=CARTESIAN_POINT('',(7.,-1.9599358,1.));
#320=CARTESIAN_POINT('',(1.72461449739155E-15,0.673527286340245,2.09468597519456));
#321=CARTESIAN_POINT('',(1.72461449739155E-15,-0.402515896738067,2.44067790604536));
#322=CARTESIAN_POINT('',(1.72461449739155E-15,-1.44623436894022,2.00682182524531));
#323=CARTESIAN_POINT('',(1.72461449739155E-15,-1.9599358,1.));
#324=CARTESIAN_POINT('',(8.67361737988404E-16,-0.446472713659755,9.00450507557628));
#325=CARTESIAN_POINT('',(8.67361737988404E-16,-5.0720998569684,8.77515140364012));
#326=CARTESIAN_POINT('',(8.67361737988404E-16,-8.44623436894022,5.60273184266382));
#327=CARTESIAN_POINT('',(8.67361737988404E-16,-8.9599358,1.));
#328=CARTESIAN_POINT('',(1.01089785852566E-17,-1.56647271365976,15.914324175958));
#329=CARTESIAN_POINT('',(1.01089785852566E-17,-9.74168381719873,15.1096249012349));
#330=CARTESIAN_POINT('',(1.01089785852566E-17,-15.4462343689402,9.19864186008232));
#331=CARTESIAN_POINT('',(1.01089785852566E-17,-15.9599358,0.999999999999999));
#332=CARTESIAN_POINT('',(7.,-1.56647271365976,15.914324175958));
#333=CARTESIAN_POINT('',(6.99999999999999,-9.74168381719873,15.1096249012349));
#334=CARTESIAN_POINT('',(6.99999999999999,-15.4462343689402,9.19864186008232));
#335=CARTESIAN_POINT('',(7.,-15.9599358,0.999999999999999));
#336=CARTESIAN_POINT('',(7.,-0.446472713659755,9.00450507557628));
#337=CARTESIAN_POINT('',(7.,-5.0720998569684,8.77515140364012));
#338=CARTESIAN_POINT('',(7.,-8.44623436894022,5.60273184266382));
#339=CARTESIAN_POINT('',(7.,-8.9599358,1.));
#340=CARTESIAN_POINT('',(84.5821795450956,0.,0.));
#341=CARTESIAN_POINT('',(84.5821795450956,0.,8.));
#342=CARTESIAN_POINT('',(86.,0.,0.));
#343=CARTESIAN_POINT('',(86.,0.,7.75));
#344=CARTESIAN_POINT('',(86.,0.,0.));
#345=CARTESIAN_POINT('',(89.,0.,0.));
#346=CARTESIAN_POINT('',(89.,0.,7.75));
#347=CARTESIAN_POINT('',(0.,0.,0.));
#348=CARTESIAN_POINT('',(90.,0.,0.));
#349=CARTESIAN_POINT('',(90.,0.,6.75));
#350=CARTESIAN_POINT('',(89.,0.,0.));
#351=CARTESIAN_POINT('',(90.,0.,0.));
#352=CARTESIAN_POINT('',(0.73771920088366,0.,0.));
#353=CARTESIAN_POINT('',(0.73771920088366,0.,9.06572001270901));
#354=CARTESIAN_POINT('',(0.737719200883661,9.06572001270901,0.));
#355=CARTESIAN_POINT('',(6.26228094354242,0.,0.));
#356=CARTESIAN_POINT('',(6.26228094354242,0.,9.06557534637728));
#357=CARTESIAN_POINT('',(3.31870649566387,6.34943509192941,0.));
#358=CARTESIAN_POINT('',(3.86258700867226,6.34943509192941,0.));
#359=CARTESIAN_POINT('',(4.22312664232835,6.41994400954484,0.));
#360=CARTESIAN_POINT('',(4.72067671362075,6.62091288510033,0.));
#361=CARTESIAN_POINT('',(4.88168373802477,6.70469599245136,0.));
#362=CARTESIAN_POINT('',(5.18360963922468,6.90187147377695,0.));
#363=CARTESIAN_POINT('',(5.32311604531113,7.01391550924058,0.));
#364=CARTESIAN_POINT('',(5.57932988308259,7.26478213633202,0.));
#365=CARTESIAN_POINT('',(5.69665204699493,7.40503406511965,0.));
#366=CARTESIAN_POINT('',(5.89800231263029,7.70154426611713,0.));
#367=CARTESIAN_POINT('',(5.98340347931054,7.85876061592706,0.));
#368=CARTESIAN_POINT('',(6.19266091003954,8.35795296534183,0.));
#369=CARTESIAN_POINT('',(6.26370141487797,8.7151128762806,0.));
#370=CARTESIAN_POINT('',(6.2615384285633,9.25697929880669,0.));
#371=CARTESIAN_POINT('',(6.24287223177033,9.43492253834961,0.));
#372=CARTESIAN_POINT('',(6.17077142029621,9.78561870733486,0.));
#373=CARTESIAN_POINT('',(6.11638009957184,9.96010871249862,0.));
#374=CARTESIAN_POINT('',(5.97615813347238,10.2904189652903,0.));
#375=CARTESIAN_POINT('',(5.89050555208221,10.4473091960989,0.));
#376=CARTESIAN_POINT('',(5.68808739658514,10.7445440212523,0.));
#377=CARTESIAN_POINT('',(5.57108723723495,10.8843428487654,0.));
#378=CARTESIAN_POINT('',(5.18833408572897,11.2603240604171,0.));
#379=CARTESIAN_POINT('',(4.88036547764995,11.4625710296005,0.));
#380=CARTESIAN_POINT('',(4.38375025074894,11.665054174172,0.));
#381=CARTESIAN_POINT('',(4.20975984142567,11.7171022132055,0.));
#382=CARTESIAN_POINT('',(3.85601999161947,11.7861697741667,0.));
#383=CARTESIAN_POINT('',(3.67799741981663,11.8032418629304,0.));
#384=CARTESIAN_POINT('',(3.31968857896898,11.8030928120731,0.));
#385=CARTESIAN_POINT('',(3.13778843479328,11.785305656534,0.));
#386=CARTESIAN_POINT('',(2.78598018603544,11.7159152754087,0.));
#387=CARTESIAN_POINT('',(2.61467848004575,11.6646137554941,0.));
#388=CARTESIAN_POINT('',(2.28141023541077,11.5283278015171,0.));
#389=CARTESIAN_POINT('',(2.12054101230938,11.4433236977507,0.));
#390=CARTESIAN_POINT('',(1.82194075281054,11.2463820785072,0.));
#391=CARTESIAN_POINT('',(1.68220304487891,11.1335776567312,0.));
#392=CARTESIAN_POINT('',(1.42411736228664,10.8791952263704,0.));
#393=CARTESIAN_POINT('',(1.30955306223163,10.7414272291548,0.));
#394=CARTESIAN_POINT('',(1.10844845956895,10.4454193026544,0.));
#395=CARTESIAN_POINT('',(1.02121467040009,10.285249251911,0.));
#396=CARTESIAN_POINT('',(0.88145746022279,9.95396040919507,0.));
#397=CARTESIAN_POINT('',(0.828505000155633,9.78314285397897,0.));
#398=CARTESIAN_POINT('',(0.756565808643607,9.43112680562318,0.));
#399=CARTESIAN_POINT('',(0.738050407401051,9.24948032358283,0.));
#400=CARTESIAN_POINT('',(0.737069917692893,8.712580422129,0.));
#401=CARTESIAN_POINT('',(0.809646241502785,8.3510936055271,0.));
#402=CARTESIAN_POINT('',(1.01774528917093,7.85670928798048,0.));
#403=CARTESIAN_POINT('',(1.10471174581388,7.69681943298594,0.));
#404=CARTESIAN_POINT('',(1.30766046624624,7.39943720279365,0.));
#405=CARTESIAN_POINT('',(1.4226333985922,7.26259973884399,0.));
#406=CARTESIAN_POINT('',(1.67899027268524,7.01211740412097,0.));
#407=CARTESIAN_POINT('',(1.82179626351615,6.89792046381993,0.));
#408=CARTESIAN_POINT('',(2.12213081624711,6.70263862236891,0.));
#409=CARTESIAN_POINT('',(2.28071213773689,6.62016145556428,0.));
#410=CARTESIAN_POINT('',(2.61475099501765,6.48562135874592,0.));
#411=CARTESIAN_POINT('',(2.78921011295133,6.4344026089663,0.));
#412=CARTESIAN_POINT('',(3.14033316906656,6.36668467509295,0.));
#413=CARTESIAN_POINT('',(3.31870649566387,6.34943509192941,0.));
#414=CARTESIAN_POINT('',(3.86258700867226,6.34943509192941,0.));
#415=CARTESIAN_POINT('',(0.,0.,0.));
#416=CARTESIAN_POINT('',(6.26228094354242,0.,0.));
#417=CARTESIAN_POINT('',(6.26228094354242,0.,6.25));
#418=CARTESIAN_POINT('',(6.26228094354242,9.06557534637727,0.));
#419=CARTESIAN_POINT('',(13.8915266867853,0.,0.));
#420=CARTESIAN_POINT('',(13.8915266867853,0.,6.25));
#421=CARTESIAN_POINT('',(0.,0.,0.));
#422=CARTESIAN_POINT('',(16.0046179954888,0.,0.));
#423=CARTESIAN_POINT('',(16.0046179954888,0.,6.71846106481675));
#424=CARTESIAN_POINT('',(13.8915266867853,0.,0.));
#425=CARTESIAN_POINT('',(18.7528871108917,0.,0.));
#426=CARTESIAN_POINT('',(18.7528871108917,0.,8.));
#427=CARTESIAN_POINT('',(18.7528871108917,0.,0.));
#428=CARTESIAN_POINT('',(0.,0.,0.));
#429=MECHANICAL_DESIGN_GEOMETRIC_PRESENTATION_REPRESENTATION('',(#48,#49),
#430);
#430=(
GEOMETRIC_REPRESENTATION_CONTEXT(3)
GLOBAL_UNCERTAINTY_ASSIGNED_CONTEXT((#431))
GLOBAL_UNIT_ASSIGNED_CONTEXT((#437,#433,#432))
REPRESENTATION_CONTEXT('ATSMR-RD0702-D25-W16-L90-Z03',
'TOP_LEVEL_ASSEMBLY_PART')
);
#431=UNCERTAINTY_MEASURE_WITH_UNIT(LENGTH_MEASURE(2.E-5),#437,
'DISTANCE_ACCURACY_VALUE','Maximum Tolerance applied to model');
#432=(
NAMED_UNIT(*)
SI_UNIT($,.STERADIAN.)
SOLID_ANGLE_UNIT()
);
#433=(
CONVERSION_BASED_UNIT('DEGREE',#435)
NAMED_UNIT(#434)
PLANE_ANGLE_UNIT()
);
#434=DIMENSIONAL_EXPONENTS(0.,0.,0.,0.,0.,0.,0.);
#435=PLANE_ANGLE_MEASURE_WITH_UNIT(PLANE_ANGLE_MEASURE(0.0174532925),#436);
#436=(
NAMED_UNIT(*)
PLANE_ANGLE_UNIT()
SI_UNIT($,.RADIAN.)
);
#437=(
LENGTH_UNIT()
NAMED_UNIT(*)
SI_UNIT(.MILLI.,.METRE.)
);
ENDSEC;
END-ISO-10303-21;
