ISO-10303-21;
HEADER;
/* Generated by software containing ST-Developer
 * from STEP Tools, Inc. (www.steptools.com) 
 */
/* OPTION: using custom schema-name function */

FILE_DESCRIPTION(
/* description */ (''),
/* implementation_level */ '2;1');

FILE_NAME(
/* name */ 'ATSMR-RD0702-D35-W25-L100-Z05.stp',
/* time_stamp */ '2023-10-02T17:56:17+03:00',
/* author */ (''),
/* organization */ (''),
/* preprocessor_version */ 'ST-DEVELOPER v19.4',
/* originating_system */ 'SIEMENS PLM Software NX2306.5001',
/* authorisation */ '');

FILE_SCHEMA (('AUTOMOTIVE_DESIGN { 1 0 10303 214 3 1 1 1 }'));
ENDSEC;

DATA;
#10=PROPERTY_DEFINITION_REPRESENTATION(#14,#12);
#11=PROPERTY_DEFINITION_REPRESENTATION(#15,#13);
#12=REPRESENTATION('',(#16),#432);
#13=REPRESENTATION('',(#17),#432);
#14=PROPERTY_DEFINITION('pmi validation property','',#21);
#15=PROPERTY_DEFINITION('pmi validation property','',#21);
#16=VALUE_REPRESENTATION_ITEM('number of annotations',COUNT_MEASURE(0.));
#17=VALUE_REPRESENTATION_ITEM('number of views',COUNT_MEASURE(0.));
#18=SHAPE_REPRESENTATION_RELATIONSHIP('None',
'relationship between ATSMR-RD0702-D35-W25-L100-Z05-LIGHT_x_t_objects-
None and ATSMR-RD0702-D35-W25-L100-Z05-LIGHT_x_t_objects-None',#30,#19);
#19=ADVANCED_BREP_SHAPE_REPRESENTATION(
'ATSMR-RD0702-D35-W25-L100-Z05-LIGHT_x_t_objects-None',(#63,#64),#432);
#20=SHAPE_DEFINITION_REPRESENTATION(#21,#30);
#21=PRODUCT_DEFINITION_SHAPE('','',#22);
#22=PRODUCT_DEFINITION(' ','',#24,#23);
#23=PRODUCT_DEFINITION_CONTEXT('part definition',#29,'design');
#24=PRODUCT_DEFINITION_FORMATION_WITH_SPECIFIED_SOURCE(' ',' ',#26,
 .NOT_KNOWN.);
#25=PRODUCT_RELATED_PRODUCT_CATEGORY('part','',(#26));
#26=PRODUCT('ATSMR-RD0702-D35-W25-L100-Z05-LIGHT_x_t_objects',
'ATSMR-RD0702-D35-W25-L100-Z05-LIGHT_x_t_objects',' ',(#27));
#27=PRODUCT_CONTEXT(' ',#29,'mechanical');
#28=APPLICATION_PROTOCOL_DEFINITION('international standard',
'automotive_design',2010,#29);
#29=APPLICATION_CONTEXT(
'core data for automotive mechanical design processes');
#30=SHAPE_REPRESENTATION(
'ATSMR-RD0702-D35-W25-L100-Z05-LIGHT_x_t_objects-None',(#188),#432);
#31=COLOUR_RGB('silver gray',0.6,0.6,0.6);
#32=CONICAL_SURFACE('',#201,12.25,9.99999999999998);
#33=CONICAL_SURFACE('',#205,12.5,25.0000000000001);
#34=CYLINDRICAL_SURFACE('',#199,12.25);
#35=CYLINDRICAL_SURFACE('',#203,12.5);
#36=CYLINDRICAL_SURFACE('',#209,10.);
#37=TOROIDAL_SURFACE('',#197,11.25,1.);
#38=TOROIDAL_SURFACE('',#207,15.,5.);
#39=PLANE('',#193);
#40=PLANE('',#195);
#41=PLANE('',#210);
#42=FACE_OUTER_BOUND('',#110,.T.);
#43=FACE_OUTER_BOUND('',#111,.T.);
#44=SURFACE_OF_REVOLUTION('',#46,#45);
#45=AXIS1_PLACEMENT('',#404,#221);
#46=B_SPLINE_CURVE_WITH_KNOTS('',3,(#344,#345,#346,#347,#348,#349,#350,
#351,#352,#353,#354,#355,#356,#357,#358,#359,#360,#361,#362,#363,#364,#365,
#366,#367,#368,#369,#370,#371,#372,#373,#374,#375,#376,#377,#378,#379,#380,
#381,#382,#383,#384,#385,#386,#387,#388,#389,#390,#391,#392,#393,#394,#395,
#396,#397,#398,#399,#400,#401,#402,#403),.UNSPECIFIED.,.T.,.F.,(2,2,2,2,
2,2,2,2,2,2,2,2,2,2,2,2,2,2,2,2,2,2,2,2,2,2,2,2,2,2,2,2),(-0.0312500000000007,
0.,0.0624999999999991,0.0937499999999987,0.124999999999998,0.15625,0.187499999999998,
0.218749999999997,0.249999999999997,0.281249999999996,0.312499999999995,
0.343749999999995,0.374999999999995,0.437499999999994,0.468749999999994,
0.499999999999994,0.531249999999994,0.5625,0.59375,0.625,0.65625,0.6875,
0.71875,0.75,0.8125,0.84375,0.875,0.90625,0.9375,0.96875,1.,1.0625),
 .UNSPECIFIED.);
#47=PRESENTATION_LAYER_ASSIGNMENT('1','Layer 1',(#63,#64));
#48=STYLED_ITEM('',(#50),#63);
#49=STYLED_ITEM('',(#51),#64);
#50=PRESENTATION_STYLE_ASSIGNMENT((#52));
#51=PRESENTATION_STYLE_ASSIGNMENT((#53));
#52=SURFACE_STYLE_USAGE(.BOTH.,#54);
#53=SURFACE_STYLE_USAGE(.BOTH.,#55);
#54=SURFACE_SIDE_STYLE('',(#56));
#55=SURFACE_SIDE_STYLE('',(#57));
#56=SURFACE_STYLE_FILL_AREA(#58);
#57=SURFACE_STYLE_FILL_AREA(#59);
#58=FILL_AREA_STYLE('',(#60));
#59=FILL_AREA_STYLE('',(#61));
#60=FILL_AREA_STYLE_COLOUR('',#62);
#61=FILL_AREA_STYLE_COLOUR('',#31);
#62=DRAUGHTING_PRE_DEFINED_COLOUR('yellow');
#63=MANIFOLD_SOLID_BREP('',#65);
#64=MANIFOLD_SOLID_BREP('',#66);
#65=CLOSED_SHELL('',(#67,#68));
#66=CLOSED_SHELL('',(#69,#70,#71,#72,#73,#74,#75,#76,#77,#78,#79));
#67=ADVANCED_FACE('',(#82,#83),#80,.F.);
#68=ADVANCED_FACE('',(#84,#85),#81,.F.);
#69=ADVANCED_FACE('',(#86,#87),#44,.T.);
#70=ADVANCED_FACE('',(#42),#39,.F.);
#71=ADVANCED_FACE('',(#43),#40,.F.);
#72=ADVANCED_FACE('',(#88,#89),#37,.T.);
#73=ADVANCED_FACE('',(#90,#91),#34,.T.);
#74=ADVANCED_FACE('',(#92,#93),#32,.T.);
#75=ADVANCED_FACE('',(#94,#95),#35,.T.);
#76=ADVANCED_FACE('',(#96,#97),#33,.T.);
#77=ADVANCED_FACE('',(#98,#99),#38,.F.);
#78=ADVANCED_FACE('',(#100,#101),#36,.T.);
#79=ADVANCED_FACE('',(#102,#103),#41,.F.);
#80=(
BOUNDED_SURFACE()
B_SPLINE_SURFACE(3,3,((#263,#264,#265,#266,#267,#268,#269),(#270,#271,#272,
#273,#274,#275,#276),(#277,#278,#279,#280,#281,#282,#283),(#284,#285,#286,
#287,#288,#289,#290),(#291,#292,#293,#294,#295,#296,#297),(#298,#299,#300,
#301,#302,#303,#304),(#305,#306,#307,#308,#309,#310,#311)),
 .UNSPECIFIED.,.T.,.F.,.F.)
B_SPLINE_SURFACE_WITH_KNOTS((1,3,3,3,1),(4,3,4),(-0.5,0.,0.5,1.,1.5),(0.,
0.5,1.),.UNSPECIFIED.)
GEOMETRIC_REPRESENTATION_ITEM()
RATIONAL_B_SPLINE_SURFACE(((1.,0.580733666886745,0.580733666886745,1.,0.580733666886745,
0.580733666886745,1.),(0.333333333333334,0.193577888962249,0.193577888962249,
0.333333333333334,0.193577888962249,0.193577888962249,0.333333333333334),
(0.333333333333334,0.193577888962249,0.193577888962249,0.333333333333334,
0.193577888962249,0.193577888962249,0.333333333333334),(1.,0.580733666886745,
0.580733666886745,1.,0.580733666886745,0.580733666886745,1.),(0.333333333333334,
0.193577888962249,0.193577888962249,0.333333333333334,0.193577888962249,
0.193577888962249,0.333333333333334),(0.333333333333334,0.193577888962249,
0.193577888962249,0.333333333333334,0.193577888962249,0.193577888962249,
0.333333333333334),(1.,0.580733666886745,0.580733666886745,1.,0.580733666886745,
0.580733666886745,1.)))
REPRESENTATION_ITEM('')
SURFACE()
);
#81=(
BOUNDED_SURFACE()
B_SPLINE_SURFACE(3,3,((#312,#313,#314,#315),(#316,#317,#318,#319),(#320,
#321,#322,#323),(#324,#325,#326,#327),(#328,#329,#330,#331),(#332,#333,
#334,#335),(#336,#337,#338,#339)),.UNSPECIFIED.,.T.,.F.,.F.)
B_SPLINE_SURFACE_WITH_KNOTS((1,3,3,3,1),(4,4),(-0.5,0.,0.5,1.,1.5),(0.,
1.),.UNSPECIFIED.)
GEOMETRIC_REPRESENTATION_ITEM()
RATIONAL_B_SPLINE_SURFACE(((1.,0.816379224872981,0.816379224872981,1.),
(0.333333333333334,0.272126408290993,0.272126408290993,0.333333333333334),
(0.333333333333334,0.272126408290993,0.272126408290993,0.333333333333334),
(1.,0.816379224872981,0.816379224872981,1.),(0.333333333333334,0.272126408290993,
0.272126408290993,0.333333333333334),(0.333333333333334,0.272126408290993,
0.272126408290993,0.333333333333334),(1.,0.816379224872981,0.816379224872981,
1.)))
REPRESENTATION_ITEM('')
SURFACE()
);
#82=FACE_BOUND('',#104,.T.);
#83=FACE_BOUND('',#105,.T.);
#84=FACE_BOUND('',#106,.T.);
#85=FACE_BOUND('',#107,.T.);
#86=FACE_BOUND('',#108,.T.);
#87=FACE_BOUND('',#109,.T.);
#88=FACE_BOUND('',#112,.T.);
#89=FACE_BOUND('',#113,.T.);
#90=FACE_BOUND('',#114,.T.);
#91=FACE_BOUND('',#115,.T.);
#92=FACE_BOUND('',#116,.T.);
#93=FACE_BOUND('',#117,.T.);
#94=FACE_BOUND('',#118,.T.);
#95=FACE_BOUND('',#119,.T.);
#96=FACE_BOUND('',#120,.T.);
#97=FACE_BOUND('',#121,.T.);
#98=FACE_BOUND('',#122,.T.);
#99=FACE_BOUND('',#123,.T.);
#100=FACE_BOUND('',#124,.T.);
#101=FACE_BOUND('',#125,.T.);
#102=FACE_BOUND('',#126,.T.);
#103=FACE_BOUND('',#127,.T.);
#104=EDGE_LOOP('',(#128));
#105=EDGE_LOOP('',(#129));
#106=EDGE_LOOP('',(#130));
#107=EDGE_LOOP('',(#131));
#108=EDGE_LOOP('',(#132));
#109=EDGE_LOOP('',(#133));
#110=EDGE_LOOP('',(#134));
#111=EDGE_LOOP('',(#135));
#112=EDGE_LOOP('',(#136));
#113=EDGE_LOOP('',(#137));
#114=EDGE_LOOP('',(#138));
#115=EDGE_LOOP('',(#139));
#116=EDGE_LOOP('',(#140));
#117=EDGE_LOOP('',(#141));
#118=EDGE_LOOP('',(#142));
#119=EDGE_LOOP('',(#143));
#120=EDGE_LOOP('',(#144));
#121=EDGE_LOOP('',(#145));
#122=EDGE_LOOP('',(#146));
#123=EDGE_LOOP('',(#147));
#124=EDGE_LOOP('',(#148));
#125=EDGE_LOOP('',(#149));
#126=EDGE_LOOP('',(#150));
#127=EDGE_LOOP('',(#151));
#128=ORIENTED_EDGE('',*,*,#164,.T.);
#129=ORIENTED_EDGE('',*,*,#165,.T.);
#130=ORIENTED_EDGE('',*,*,#165,.F.);
#131=ORIENTED_EDGE('',*,*,#164,.F.);
#132=ORIENTED_EDGE('',*,*,#166,.F.);
#133=ORIENTED_EDGE('',*,*,#167,.T.);
#134=ORIENTED_EDGE('',*,*,#166,.T.);
#135=ORIENTED_EDGE('',*,*,#168,.F.);
#136=ORIENTED_EDGE('',*,*,#169,.F.);
#137=ORIENTED_EDGE('',*,*,#168,.T.);
#138=ORIENTED_EDGE('',*,*,#170,.F.);
#139=ORIENTED_EDGE('',*,*,#169,.T.);
#140=ORIENTED_EDGE('',*,*,#171,.F.);
#141=ORIENTED_EDGE('',*,*,#170,.T.);
#142=ORIENTED_EDGE('',*,*,#172,.F.);
#143=ORIENTED_EDGE('',*,*,#171,.T.);
#144=ORIENTED_EDGE('',*,*,#173,.F.);
#145=ORIENTED_EDGE('',*,*,#172,.T.);
#146=ORIENTED_EDGE('',*,*,#174,.F.);
#147=ORIENTED_EDGE('',*,*,#173,.T.);
#148=ORIENTED_EDGE('',*,*,#175,.F.);
#149=ORIENTED_EDGE('',*,*,#174,.T.);
#150=ORIENTED_EDGE('',*,*,#167,.F.);
#151=ORIENTED_EDGE('',*,*,#175,.T.);
#152=VERTEX_POINT('',#260);
#153=VERTEX_POINT('',#262);
#154=VERTEX_POINT('',#341);
#155=VERTEX_POINT('',#343);
#156=VERTEX_POINT('',#407);
#157=VERTEX_POINT('',#410);
#158=VERTEX_POINT('',#413);
#159=VERTEX_POINT('',#416);
#160=VERTEX_POINT('',#419);
#161=VERTEX_POINT('',#422);
#162=VERTEX_POINT('',#425);
#163=VERTEX_POINT('',#428);
#164=EDGE_CURVE('',#152,#152,#176,.T.);
#165=EDGE_CURVE('',#153,#153,#177,.T.);
#166=EDGE_CURVE('',#154,#154,#178,.T.);
#167=EDGE_CURVE('',#155,#155,#179,.T.);
#168=EDGE_CURVE('',#156,#156,#180,.T.);
#169=EDGE_CURVE('',#157,#157,#181,.T.);
#170=EDGE_CURVE('',#158,#158,#182,.T.);
#171=EDGE_CURVE('',#159,#159,#183,.T.);
#172=EDGE_CURVE('',#160,#160,#184,.T.);
#173=EDGE_CURVE('',#161,#161,#185,.T.);
#174=EDGE_CURVE('',#162,#162,#186,.T.);
#175=EDGE_CURVE('',#163,#163,#187,.T.);
#176=CIRCLE('',#189,3.5);
#177=CIRCLE('',#190,3.5);
#178=CIRCLE('',#191,14.1186224710248);
#179=CIRCLE('',#192,14.1186039017183);
#180=CIRCLE('',#194,11.25);
#181=CIRCLE('',#196,12.25);
#182=CIRCLE('',#198,12.25);
#183=CIRCLE('',#200,12.5);
#184=CIRCLE('',#202,12.5);
#185=CIRCLE('',#204,10.4684610648167);
#186=CIRCLE('',#206,10.);
#187=CIRCLE('',#208,10.);
#188=AXIS2_PLACEMENT_3D('',#258,#211,#212);
#189=AXIS2_PLACEMENT_3D('',#259,#213,#214);
#190=AXIS2_PLACEMENT_3D('',#261,#215,#216);
#191=AXIS2_PLACEMENT_3D('',#340,#217,#218);
#192=AXIS2_PLACEMENT_3D('',#342,#219,#220);
#193=AXIS2_PLACEMENT_3D('',#405,#222,#223);
#194=AXIS2_PLACEMENT_3D('',#406,#224,#225);
#195=AXIS2_PLACEMENT_3D('',#408,#226,#227);
#196=AXIS2_PLACEMENT_3D('',#409,#228,#229);
#197=AXIS2_PLACEMENT_3D('',#411,#230,#231);
#198=AXIS2_PLACEMENT_3D('',#412,#232,#233);
#199=AXIS2_PLACEMENT_3D('',#414,#234,#235);
#200=AXIS2_PLACEMENT_3D('',#415,#236,#237);
#201=AXIS2_PLACEMENT_3D('',#417,#238,#239);
#202=AXIS2_PLACEMENT_3D('',#418,#240,#241);
#203=AXIS2_PLACEMENT_3D('',#420,#242,#243);
#204=AXIS2_PLACEMENT_3D('',#421,#244,#245);
#205=AXIS2_PLACEMENT_3D('',#423,#246,#247);
#206=AXIS2_PLACEMENT_3D('',#424,#248,#249);
#207=AXIS2_PLACEMENT_3D('',#426,#250,#251);
#208=AXIS2_PLACEMENT_3D('',#427,#252,#253);
#209=AXIS2_PLACEMENT_3D('',#429,#254,#255);
#210=AXIS2_PLACEMENT_3D('',#430,#256,#257);
#211=DIRECTION('',(0.,0.,1.));
#212=DIRECTION('',(1.,0.,0.));
#213=DIRECTION('',(0.,0.998749217771909,0.05));
#214=DIRECTION('',(1.,0.,0.));
#215=DIRECTION('',(0.,0.,-1.));
#216=DIRECTION('',(1.,0.,0.));
#217=DIRECTION('',(-1.,0.,0.));
#218=DIRECTION('',(0.,0.,1.));
#219=DIRECTION('',(-1.,0.,0.));
#220=DIRECTION('',(0.,0.,1.));
#221=DIRECTION('',(-1.,0.,0.));
#222=DIRECTION('',(1.,0.,0.));
#223=DIRECTION('',(0.,0.,-1.));
#224=DIRECTION('',(-1.,0.,0.));
#225=DIRECTION('',(0.,0.,1.));
#226=DIRECTION('',(-1.,0.,0.));
#227=DIRECTION('',(0.,0.,1.));
#228=DIRECTION('',(-1.,0.,0.));
#229=DIRECTION('',(0.,0.,1.));
#230=DIRECTION('',(-1.,0.,0.));
#231=DIRECTION('',(0.,0.,1.));
#232=DIRECTION('',(-1.,0.,0.));
#233=DIRECTION('',(0.,0.,1.));
#234=DIRECTION('',(-1.,0.,0.));
#235=DIRECTION('',(0.,0.,1.));
#236=DIRECTION('',(-1.,0.,0.));
#237=DIRECTION('',(0.,0.,1.));
#238=DIRECTION('',(-1.,0.,0.));
#239=DIRECTION('',(-1.47184324997431E-16,0.,1.));
#240=DIRECTION('',(-1.,0.,0.));
#241=DIRECTION('',(0.,0.,1.));
#242=DIRECTION('',(-1.,0.,0.));
#243=DIRECTION('',(0.,0.,1.));
#244=DIRECTION('',(-1.,0.,0.));
#245=DIRECTION('',(0.,0.,1.));
#246=DIRECTION('',(1.,0.,0.));
#247=DIRECTION('',(1.44920278231243E-16,0.,-1.));
#248=DIRECTION('',(-1.,0.,0.));
#249=DIRECTION('',(0.,0.,1.));
#250=DIRECTION('',(-1.,0.,0.));
#251=DIRECTION('',(0.,0.,1.));
#252=DIRECTION('',(-1.,0.,0.));
#253=DIRECTION('',(0.,0.,1.));
#254=DIRECTION('',(-1.,0.,0.));
#255=DIRECTION('',(0.,0.,1.));
#256=DIRECTION('',(-1.,0.,0.));
#257=DIRECTION('',(0.,0.,1.));
#258=CARTESIAN_POINT('',(0.,0.,0.));
#259=CARTESIAN_POINT('',(3.5,-0.200268175114044,14.0003536647952));
#260=CARTESIAN_POINT('',(7.,-0.200268175114044,14.0003536647952));
#261=CARTESIAN_POINT('',(3.5,-13.99285568,0.5));
#262=CARTESIAN_POINT('',(7.,-13.99285568,0.5));
#263=CARTESIAN_POINT('',(7.,-13.99285568,0.5));
#264=CARTESIAN_POINT('',(7.00000000000001,-14.5258554362567,-14.4163773335509));
#265=CARTESIAN_POINT('',(7.00000000000001,-0.87241268029453,-20.4467921125445));
#266=CARTESIAN_POINT('',(7.,9.79418595189458,-10.0061946623589));
#267=CARTESIAN_POINT('',(7.00000000000001,20.4607845840837,0.434402787826718));
#268=CARTESIAN_POINT('',(7.00000000000001,14.7241020065734,14.2138394418387));
#269=CARTESIAN_POINT('',(7.,-0.200268175114038,14.0003536647952));
#270=CARTESIAN_POINT('',(7.,-6.99285568,0.499999999999999));
#271=CARTESIAN_POINT('',(7.,-7.52585543625672,-6.95438074595683));
#272=CARTESIAN_POINT('',(7.,-0.801568303894462,-10.2156448578326));
#273=CARTESIAN_POINT('',(7.,4.72220409072828,-5.18177759912728));
#274=CARTESIAN_POINT('',(7.,10.245976485351,-0.147910340421981));
#275=CARTESIAN_POINT('',(7.,7.62143875169716,6.84949508805568));
#276=CARTESIAN_POINT('',(7.,0.149731824885958,7.00910914039185));
#277=CARTESIAN_POINT('',(1.72461449739155E-15,-6.99285568,0.499999999999999));
#278=CARTESIAN_POINT('',(1.72461449739155E-15,-7.52585543625672,-6.95438074595683));
#279=CARTESIAN_POINT('',(1.72461449739155E-15,-0.801568303894462,-10.2156448578326));
#280=CARTESIAN_POINT('',(1.72461449739155E-15,4.72220409072828,-5.18177759912728));
#281=CARTESIAN_POINT('',(1.72461449739155E-15,10.245976485351,-0.147910340421981));
#282=CARTESIAN_POINT('',(1.72461449739155E-15,7.62143875169716,6.84949508805568));
#283=CARTESIAN_POINT('',(1.72461449739155E-15,0.149731824885958,7.00910914039185));
#284=CARTESIAN_POINT('',(8.67361737988404E-16,-13.99285568,0.5));
#285=CARTESIAN_POINT('',(8.67361737988404E-16,-14.5258554362567,-14.4163773335509));
#286=CARTESIAN_POINT('',(8.67361737988404E-16,-0.87241268029453,-20.4467921125445));
#287=CARTESIAN_POINT('',(8.67361737988404E-16,9.79418595189458,-10.0061946623589));
#288=CARTESIAN_POINT('',(8.67361737988404E-16,20.4607845840837,0.434402787826718));
#289=CARTESIAN_POINT('',(8.67361737988404E-16,14.7241020065734,14.2138394418387));
#290=CARTESIAN_POINT('',(8.67361737988404E-16,-0.200268175114038,14.0003536647952));
#291=CARTESIAN_POINT('',(1.01089785852566E-17,-20.99285568,0.499999999999999));
#292=CARTESIAN_POINT('',(1.01089785852566E-17,-21.5258554362567,-21.8783739211449));
#293=CARTESIAN_POINT('',(1.01089785852566E-17,-0.943257056694602,-30.6779393672563));
#294=CARTESIAN_POINT('',(1.01089785852566E-17,14.8661678130609,-14.8306117255904));
#295=CARTESIAN_POINT('',(1.01089785852566E-17,30.6755926828164,1.01671591607541));
#296=CARTESIAN_POINT('',(1.01089785852566E-17,21.8267652614496,21.5781837956218));
#297=CARTESIAN_POINT('',(1.01089785852566E-17,-0.550268175114034,20.9915981891985));
#298=CARTESIAN_POINT('',(7.,-20.99285568,0.499999999999999));
#299=CARTESIAN_POINT('',(7.,-21.5258554362567,-21.8783739211449));
#300=CARTESIAN_POINT('',(7.,-0.943257056694602,-30.6779393672563));
#301=CARTESIAN_POINT('',(7.,14.8661678130609,-14.8306117255904));
#302=CARTESIAN_POINT('',(7.,30.6755926828164,1.01671591607541));
#303=CARTESIAN_POINT('',(7.,21.8267652614496,21.5781837956218));
#304=CARTESIAN_POINT('',(7.,-0.550268175114034,20.9915981891985));
#305=CARTESIAN_POINT('',(7.,-13.99285568,0.5));
#306=CARTESIAN_POINT('',(7.00000000000001,-14.5258554362567,-14.4163773335509));
#307=CARTESIAN_POINT('',(7.00000000000001,-0.87241268029453,-20.4467921125445));
#308=CARTESIAN_POINT('',(7.,9.79418595189458,-10.0061946623589));
#309=CARTESIAN_POINT('',(7.00000000000001,20.4607845840837,0.434402787826718));
#310=CARTESIAN_POINT('',(7.00000000000001,14.7241020065734,14.2138394418387));
#311=CARTESIAN_POINT('',(7.,-0.200268175114038,14.0003536647952));
#312=CARTESIAN_POINT('',(7.,-0.200268175114044,14.0003536647952));
#313=CARTESIAN_POINT('',(7.,-8.07983980809985,13.8876402670196));
#314=CARTESIAN_POINT('',(7.,-13.7114495162115,8.37535167471106));
#315=CARTESIAN_POINT('',(7.,-13.99285568,0.5));
#316=CARTESIAN_POINT('',(7.,0.149731824885955,7.00910914039185));
#317=CARTESIAN_POINT('',(7.,-3.79508120465982,7.09338005726828));
#318=CARTESIAN_POINT('',(7.,-6.71144951621146,4.43566538167145));
#319=CARTESIAN_POINT('',(7.,-6.99285568,0.500000000000001));
#320=CARTESIAN_POINT('',(1.72461449739155E-15,0.149731824885955,7.00910914039185));
#321=CARTESIAN_POINT('',(1.72461449739155E-15,-3.79508120465982,7.09338005726828));
#322=CARTESIAN_POINT('',(1.72461449739155E-15,-6.71144951621146,4.43566538167145));
#323=CARTESIAN_POINT('',(1.72461449739155E-15,-6.99285568,0.500000000000001));
#324=CARTESIAN_POINT('',(8.67361737988404E-16,-0.200268175114044,14.0003536647952));
#325=CARTESIAN_POINT('',(8.67361737988404E-16,-8.07983980809985,13.8876402670196));
#326=CARTESIAN_POINT('',(8.67361737988404E-16,-13.7114495162115,8.37535167471106));
#327=CARTESIAN_POINT('',(8.67361737988404E-16,-13.99285568,0.5));
#328=CARTESIAN_POINT('',(1.01089785852566E-17,-0.550268175114043,20.9915981891985));
#329=CARTESIAN_POINT('',(1.01089785852566E-17,-12.3645984115399,20.681900476771));
#330=CARTESIAN_POINT('',(1.01089785852566E-17,-20.7114495162115,12.3150379677507));
#331=CARTESIAN_POINT('',(1.01089785852566E-17,-20.99285568,0.500000000000002));
#332=CARTESIAN_POINT('',(7.,-0.550268175114043,20.9915981891985));
#333=CARTESIAN_POINT('',(7.,-12.3645984115399,20.681900476771));
#334=CARTESIAN_POINT('',(7.,-20.7114495162115,12.3150379677507));
#335=CARTESIAN_POINT('',(7.,-20.99285568,0.500000000000002));
#336=CARTESIAN_POINT('',(7.,-0.200268175114044,14.0003536647952));
#337=CARTESIAN_POINT('',(7.,-8.07983980809985,13.8876402670196));
#338=CARTESIAN_POINT('',(7.,-13.7114495162115,8.37535167471106));
#339=CARTESIAN_POINT('',(7.,-13.99285568,0.5));
#340=CARTESIAN_POINT('',(0.737719088123374,0.,0.));
#341=CARTESIAN_POINT('',(0.737719088123374,0.,14.1186224710248));
#342=CARTESIAN_POINT('',(6.26228089664768,0.,0.));
#343=CARTESIAN_POINT('',(6.26228089664768,0.,14.1186039017183));
#344=CARTESIAN_POINT('',(3.31837941281847,11.3868436976501,0.));
#345=CARTESIAN_POINT('',(3.86324117436304,11.3868436976501,0.));
#346=CARTESIAN_POINT('',(4.22428616761545,11.4584187927851,0.));
#347=CARTESIAN_POINT('',(4.72182462596933,11.6615304497484,0.));
#348=CARTESIAN_POINT('',(4.88276589889494,11.7461414182332,0.));
#349=CARTESIAN_POINT('',(5.1843397217497,11.9448886092347,0.));
#350=CARTESIAN_POINT('',(5.32359728269614,12.057680937734,0.));
#351=CARTESIAN_POINT('',(5.57928014381154,12.3098395124598,0.));
#352=CARTESIAN_POINT('',(5.69635731307497,12.4506724744943,0.));
#353=CARTESIAN_POINT('',(5.89737366916586,12.7481941625262,0.));
#354=CARTESIAN_POINT('',(5.9826437228852,12.9057978225562,0.));
#355=CARTESIAN_POINT('',(6.12202670285646,13.2390858945399,0.));
#356=CARTESIAN_POINT('',(6.17499031608168,13.4129908536377,0.));
#357=CARTESIAN_POINT('',(6.24499873738003,13.7642629590734,0.));
#358=CARTESIAN_POINT('',(6.26272507145966,13.9443185159974,0.));
#359=CARTESIAN_POINT('',(6.26181981368729,14.3064160527458,0.));
#360=CARTESIAN_POINT('',(6.24343114881954,14.4847374307057,0.));
#361=CARTESIAN_POINT('',(6.17192157760217,14.8360987307574,0.));
#362=CARTESIAN_POINT('',(6.11784688267273,15.0109386673215,0.));
#363=CARTESIAN_POINT('',(5.97804941820389,15.3422459678134,0.));
#364=CARTESIAN_POINT('',(5.89258148277268,15.4995796257903,0.));
#365=CARTESIAN_POINT('',(5.69051754745738,15.797612483813,0.));
#366=CARTESIAN_POINT('',(5.57353276746645,15.9379598822759,0.));
#367=CARTESIAN_POINT('',(5.19073822183099,16.3153006995448,0.));
#368=CARTESIAN_POINT('',(4.8825266815257,16.5183030976125,0.));
#369=CARTESIAN_POINT('',(4.38527460667261,16.7215839604868,0.));
#370=CARTESIAN_POINT('',(4.21111879265725,16.773823198132,0.));
#371=CARTESIAN_POINT('',(3.85671492842788,16.8432039072895,0.));
#372=CARTESIAN_POINT('',(3.67838364070898,16.8603467675173,0.));
#373=CARTESIAN_POINT('',(3.31950566906576,16.8602105111793,0.));
#374=CARTESIAN_POINT('',(3.13730237579897,16.8423627058617,0.));
#375=CARTESIAN_POINT('',(2.78489317919788,16.772702987888,0.));
#376=CARTESIAN_POINT('',(2.61333871502886,16.7212037234666,0.));
#377=CARTESIAN_POINT('',(2.27965589850964,16.5844152704768,0.));
#378=CARTESIAN_POINT('',(2.11858012409117,16.4990811475475,0.));
#379=CARTESIAN_POINT('',(1.81973189293324,16.3014222272299,0.));
#380=CARTESIAN_POINT('',(1.67994853100224,16.1882371627488,0.));
#381=CARTESIAN_POINT('',(1.42183666624912,15.9329777907892,0.));
#382=CARTESIAN_POINT('',(1.30733907282802,15.7947674182375,0.));
#383=CARTESIAN_POINT('',(1.10649078916847,15.4978901113343,0.));
#384=CARTESIAN_POINT('',(1.01944639640418,15.3372847792288,0.));
#385=CARTESIAN_POINT('',(0.880131404740034,15.0051418235455,0.));
#386=CARTESIAN_POINT('',(0.827449207010065,14.8339457475917,0.));
#387=CARTESIAN_POINT('',(0.756062578333837,14.4812961970529,0.));
#388=CARTESIAN_POINT('',(0.737813457097042,14.2992758776201,0.));
#389=CARTESIAN_POINT('',(0.73753143892197,13.7614682669367,0.));
#390=CARTESIAN_POINT('',(0.810397814801715,13.3994916092836,0.));
#391=CARTESIAN_POINT('',(1.01830511850968,12.9041268667061,0.));
#392=CARTESIAN_POINT('',(1.10497410178009,12.7440566008367,0.));
#393=CARTESIAN_POINT('',(1.30767494250491,12.4453882661508,0.));
#394=CARTESIAN_POINT('',(1.42244561873225,12.3079109251479,0.));
#395=CARTESIAN_POINT('',(1.67821213178306,12.0561262317069,0.));
#396=CARTESIAN_POINT('',(1.82074870907961,11.9411323931584,0.));
#397=CARTESIAN_POINT('',(2.12091723697168,11.7441288318513,0.));
#398=CARTESIAN_POINT('',(2.27943420429014,11.6608353274206,0.));
#399=CARTESIAN_POINT('',(2.61343608629886,11.5248498017573,0.));
#400=CARTESIAN_POINT('',(2.7881348358181,11.4729468042565,0.));
#401=CARTESIAN_POINT('',(3.1397286320542,11.4043374604039,0.));
#402=CARTESIAN_POINT('',(3.31837941281847,11.3868436976501,0.));
#403=CARTESIAN_POINT('',(3.86324117436304,11.3868436976501,0.));
#404=CARTESIAN_POINT('',(0.,0.,0.));
#405=CARTESIAN_POINT('',(0.737719088358026,14.1186224710248,0.));
#406=CARTESIAN_POINT('',(100.,0.,0.));
#407=CARTESIAN_POINT('',(100.,0.,11.25));
#408=CARTESIAN_POINT('',(100.,0.,0.));
#409=CARTESIAN_POINT('',(99.,0.,0.));
#410=CARTESIAN_POINT('',(99.,0.,12.25));
#411=CARTESIAN_POINT('',(99.,0.,0.));
#412=CARTESIAN_POINT('',(96.,0.,0.));
#413=CARTESIAN_POINT('',(96.,0.,12.25));
#414=CARTESIAN_POINT('',(0.,0.,0.));
#415=CARTESIAN_POINT('',(94.5821795450956,0.,0.));
#416=CARTESIAN_POINT('',(94.5821795450956,0.,12.5));
#417=CARTESIAN_POINT('',(96.,0.,0.));
#418=CARTESIAN_POINT('',(25.3612673012739,0.,0.));
#419=CARTESIAN_POINT('',(25.3612673012739,0.,12.5));
#420=CARTESIAN_POINT('',(0.,0.,0.));
#421=CARTESIAN_POINT('',(21.0046179954888,0.,0.));
#422=CARTESIAN_POINT('',(21.0046179954888,0.,10.4684610648167));
#423=CARTESIAN_POINT('',(25.3612673012739,0.,0.));
#424=CARTESIAN_POINT('',(18.8915266867853,0.,0.));
#425=CARTESIAN_POINT('',(18.8915266867853,0.,10.));
#426=CARTESIAN_POINT('',(18.8915266867853,0.,0.));
#427=CARTESIAN_POINT('',(6.26228089711698,0.,0.));
#428=CARTESIAN_POINT('',(6.26228089711698,0.,10.));
#429=CARTESIAN_POINT('',(0.,0.,0.));
#430=CARTESIAN_POINT('',(6.26228089688233,14.1186039017183,0.));
#431=MECHANICAL_DESIGN_GEOMETRIC_PRESENTATION_REPRESENTATION('',(#48,#49),
#432);
#432=(
GEOMETRIC_REPRESENTATION_CONTEXT(3)
GLOBAL_UNCERTAINTY_ASSIGNED_CONTEXT((#433))
GLOBAL_UNIT_ASSIGNED_CONTEXT((#439,#435,#434))
REPRESENTATION_CONTEXT('ATSMR-RD0702-D35-W25-L100-Z05',
'TOP_LEVEL_ASSEMBLY_PART')
);
#433=UNCERTAINTY_MEASURE_WITH_UNIT(LENGTH_MEASURE(2.E-5),#439,
'DISTANCE_ACCURACY_VALUE','Maximum Tolerance applied to model');
#434=(
NAMED_UNIT(*)
SI_UNIT($,.STERADIAN.)
SOLID_ANGLE_UNIT()
);
#435=(
CONVERSION_BASED_UNIT('DEGREE',#437)
NAMED_UNIT(#436)
PLANE_ANGLE_UNIT()
);
#436=DIMENSIONAL_EXPONENTS(0.,0.,0.,0.,0.,0.,0.);
#437=PLANE_ANGLE_MEASURE_WITH_UNIT(PLANE_ANGLE_MEASURE(0.0174532925),#438);
#438=(
NAMED_UNIT(*)
PLANE_ANGLE_UNIT()
SI_UNIT($,.RADIAN.)
);
#439=(
LENGTH_UNIT()
NAMED_UNIT(*)
SI_UNIT(.MILLI.,.METRE.)
);
ENDSEC;
END-ISO-10303-21;
