ISO-10303-21;
HEADER;
/* Generated by software containing ST-Developer
 * from STEP Tools, Inc. (www.steptools.com) 
 */
/* OPTION: using custom schema-name function */

FILE_DESCRIPTION(
/* description */ (''),
/* implementation_level */ '2;1');

FILE_NAME(
/* name */ 'ATSMR-RD1003-D21-W25-L100-Z02.stp',
/* time_stamp */ '2023-10-02T16:52:56+03:00',
/* author */ (''),
/* organization */ (''),
/* preprocessor_version */ 'ST-DEVELOPER v19.4',
/* originating_system */ 'SIEMENS PLM Software NX2306.5001',
/* authorisation */ '');

FILE_SCHEMA (('AUTOMOTIVE_DESIGN { 1 0 10303 214 3 1 1 1 }'));
ENDSEC;

DATA;
#10=PROPERTY_DEFINITION_REPRESENTATION(#14,#12);
#11=PROPERTY_DEFINITION_REPRESENTATION(#15,#13);
#12=REPRESENTATION('',(#16),#416);
#13=REPRESENTATION('',(#17),#416);
#14=PROPERTY_DEFINITION('pmi validation property','',#21);
#15=PROPERTY_DEFINITION('pmi validation property','',#21);
#16=VALUE_REPRESENTATION_ITEM('number of annotations',COUNT_MEASURE(0.));
#17=VALUE_REPRESENTATION_ITEM('number of views',COUNT_MEASURE(0.));
#18=SHAPE_REPRESENTATION_RELATIONSHIP('None',
'relationship between ATSMR-RD1003-D21-W25-L100-Z02-LIGHT_x_t_objects-
None and ATSMR-RD1003-D21-W25-L100-Z02-LIGHT_x_t_objects-None',#30,#19);
#19=ADVANCED_BREP_SHAPE_REPRESENTATION(
'ATSMR-RD1003-D21-W25-L100-Z02-LIGHT_x_t_objects-None',(#50,#51),#416);
#20=SHAPE_DEFINITION_REPRESENTATION(#21,#30);
#21=PRODUCT_DEFINITION_SHAPE('','',#22);
#22=PRODUCT_DEFINITION(' ','',#24,#23);
#23=PRODUCT_DEFINITION_CONTEXT('part definition',#29,'design');
#24=PRODUCT_DEFINITION_FORMATION_WITH_SPECIFIED_SOURCE(' ',' ',#26,
 .NOT_KNOWN.);
#25=PRODUCT_RELATED_PRODUCT_CATEGORY('part','',(#26));
#26=PRODUCT('ATSMR-RD1003-D21-W25-L100-Z02-LIGHT_x_t_objects',
'ATSMR-RD1003-D21-W25-L100-Z02-LIGHT_x_t_objects',' ',(#27));
#27=PRODUCT_CONTEXT(' ',#29,'mechanical');
#28=APPLICATION_PROTOCOL_DEFINITION('international standard',
'automotive_design',2010,#29);
#29=APPLICATION_CONTEXT(
'core data for automotive mechanical design processes');
#30=SHAPE_REPRESENTATION(
'ATSMR-RD1003-D21-W25-L100-Z02-LIGHT_x_t_objects-None',(#177),#416);
#31=DRAUGHTING_PRE_DEFINED_COLOUR('yellow');
#32=(
BOUNDED_SURFACE()
B_SPLINE_SURFACE(3,3,((#338,#339,#340,#341,#342,#343,#344),(#345,#346,#347,
#348,#349,#350,#351),(#352,#353,#354,#355,#356,#357,#358),(#359,#360,#361,
#362,#363,#364,#365),(#366,#367,#368,#369,#370,#371,#372),(#373,#374,#375,
#376,#377,#378,#379),(#380,#381,#382,#383,#384,#385,#386)),
 .UNSPECIFIED.,.T.,.F.,.F.)
B_SPLINE_SURFACE_WITH_KNOTS((1,3,3,3,1),(4,3,4),(-0.5,0.,0.5,1.,1.5),(0.,
0.5,1.),.UNSPECIFIED.)
GEOMETRIC_REPRESENTATION_ITEM()
RATIONAL_B_SPLINE_SURFACE(((1.,0.535270297685124,0.535270297685124,1.,0.535270297685124,
0.535270297685124,1.),(0.333333333333334,0.178423432561708,0.178423432561708,
0.333333333333334,0.178423432561708,0.178423432561708,0.333333333333334),
(0.333333333333334,0.178423432561708,0.178423432561708,0.333333333333334,
0.178423432561708,0.178423432561708,0.333333333333334),(1.,0.535270297685124,
0.535270297685124,1.,0.535270297685124,0.535270297685124,1.),(0.333333333333334,
0.178423432561708,0.178423432561708,0.333333333333334,0.178423432561708,
0.178423432561708,0.333333333333334),(0.333333333333334,0.178423432561708,
0.178423432561708,0.333333333333334,0.178423432561708,0.178423432561708,
0.333333333333334),(1.,0.535270297685124,0.535270297685124,1.,0.535270297685124,
0.535270297685124,1.)))
REPRESENTATION_ITEM('')
SURFACE()
);
#33=(
BOUNDED_SURFACE()
B_SPLINE_SURFACE(3,3,((#387,#388,#389,#390),(#391,#392,#393,#394),(#395,
#396,#397,#398),(#399,#400,#401,#402),(#403,#404,#405,#406),(#407,#408,
#409,#410),(#411,#412,#413,#414)),.UNSPECIFIED.,.T.,.F.,.F.)
B_SPLINE_SURFACE_WITH_KNOTS((1,3,3,3,1),(4,4),(-0.5,0.,0.5,1.,1.5),(0.,
1.),.UNSPECIFIED.)
GEOMETRIC_REPRESENTATION_ITEM()
RATIONAL_B_SPLINE_SURFACE(((1.,0.877664387285151,0.877664387285151,1.),
(0.333333333333334,0.292554795761717,0.292554795761717,0.333333333333334),
(0.333333333333334,0.292554795761717,0.292554795761717,0.333333333333334),
(1.,0.877664387285151,0.877664387285151,1.),(0.333333333333334,0.292554795761717,
0.292554795761717,0.333333333333334),(0.333333333333334,0.292554795761717,
0.292554795761717,0.333333333333334),(1.,0.877664387285151,0.877664387285151,
1.)))
REPRESENTATION_ITEM('')
SURFACE()
);
#34=PRESENTATION_LAYER_ASSIGNMENT('1','Layer 1',(#50,#51));
#35=STYLED_ITEM('',(#37),#50);
#36=STYLED_ITEM('',(#38),#51);
#37=PRESENTATION_STYLE_ASSIGNMENT((#39));
#38=PRESENTATION_STYLE_ASSIGNMENT((#40));
#39=SURFACE_STYLE_USAGE(.BOTH.,#41);
#40=SURFACE_STYLE_USAGE(.BOTH.,#42);
#41=SURFACE_SIDE_STYLE('',(#43));
#42=SURFACE_SIDE_STYLE('',(#44));
#43=SURFACE_STYLE_FILL_AREA(#45);
#44=SURFACE_STYLE_FILL_AREA(#46);
#45=FILL_AREA_STYLE('',(#47));
#46=FILL_AREA_STYLE('',(#48));
#47=FILL_AREA_STYLE_COLOUR('',#49);
#48=FILL_AREA_STYLE_COLOUR('',#31);
#49=COLOUR_RGB('silver gray',0.6,0.6,0.6);
#50=MANIFOLD_SOLID_BREP('',#52);
#51=MANIFOLD_SOLID_BREP('',#53);
#52=CLOSED_SHELL('',(#65,#66,#67,#68,#69,#70,#71,#72,#73,#74));
#53=CLOSED_SHELL('',(#75,#76));
#54=PLANE('',#188);
#55=PLANE('',#190);
#56=FACE_OUTER_BOUND('',#110,.T.);
#57=FACE_OUTER_BOUND('',#111,.T.);
#58=SURFACE_OF_REVOLUTION('',#60,#59);
#59=AXIS1_PLACEMENT('',#322,#220);
#60=B_SPLINE_CURVE_WITH_KNOTS('',3,(#258,#259,#260,#261,#262,#263,#264,
#265,#266,#267,#268,#269,#270,#271,#272,#273,#274,#275,#276,#277,#278,#279,
#280,#281,#282,#283,#284,#285,#286,#287,#288,#289,#290,#291,#292,#293,#294,
#295,#296,#297,#298,#299,#300,#301,#302,#303,#304,#305,#306,#307,#308,#309,
#310,#311,#312,#313,#314,#315,#316,#317,#318,#319,#320,#321),
 .UNSPECIFIED.,.T.,.F.,(2,2,2,2,2,2,2,2,2,2,2,2,2,2,2,2,2,2,2,2,2,2,2,2,
2,2,2,2,2,2,2,2,2,2),(-0.0625,0.,0.03125,0.0625,0.09375,0.125,0.15625,0.1875,
0.21875,0.25,0.28125,0.3125,0.34375,0.375,0.40625,0.4375,0.46875,0.5,0.53125,
0.5625,0.59375,0.625,0.65625,0.6875,0.71875,0.75,0.78125,0.8125,0.84375,
0.875,0.90625,0.9375,1.,1.03125),.UNSPECIFIED.);
#61=TOROIDAL_SURFACE('',#184,16.,10.);
#62=TOROIDAL_SURFACE('',#192,11.25,1.);
#63=CONICAL_SURFACE('',#182,12.5,25.0000000000001);
#64=CONICAL_SURFACE('',#195,12.25,9.99999999999987);
#65=ADVANCED_FACE('',(#80,#81),#77,.T.);
#66=ADVANCED_FACE('',(#82,#83),#63,.T.);
#67=ADVANCED_FACE('',(#84,#85),#61,.F.);
#68=ADVANCED_FACE('',(#86,#87),#78,.T.);
#69=ADVANCED_FACE('',(#88,#89),#58,.T.);
#70=ADVANCED_FACE('',(#56),#54,.F.);
#71=ADVANCED_FACE('',(#57),#55,.F.);
#72=ADVANCED_FACE('',(#90,#91),#62,.T.);
#73=ADVANCED_FACE('',(#92,#93),#79,.T.);
#74=ADVANCED_FACE('',(#94,#95),#64,.T.);
#75=ADVANCED_FACE('',(#96,#97),#32,.F.);
#76=ADVANCED_FACE('',(#98,#99),#33,.F.);
#77=CYLINDRICAL_SURFACE('',#180,12.5);
#78=CYLINDRICAL_SURFACE('',#186,5.99999999999778);
#79=CYLINDRICAL_SURFACE('',#194,12.25);
#80=FACE_BOUND('',#100,.T.);
#81=FACE_BOUND('',#101,.T.);
#82=FACE_BOUND('',#102,.T.);
#83=FACE_BOUND('',#103,.T.);
#84=FACE_BOUND('',#104,.T.);
#85=FACE_BOUND('',#105,.T.);
#86=FACE_BOUND('',#106,.T.);
#87=FACE_BOUND('',#107,.T.);
#88=FACE_BOUND('',#108,.T.);
#89=FACE_BOUND('',#109,.T.);
#90=FACE_BOUND('',#112,.T.);
#91=FACE_BOUND('',#113,.T.);
#92=FACE_BOUND('',#114,.T.);
#93=FACE_BOUND('',#115,.T.);
#94=FACE_BOUND('',#116,.T.);
#95=FACE_BOUND('',#117,.T.);
#96=FACE_BOUND('',#118,.T.);
#97=FACE_BOUND('',#119,.T.);
#98=FACE_BOUND('',#120,.T.);
#99=FACE_BOUND('',#121,.T.);
#100=EDGE_LOOP('',(#122));
#101=EDGE_LOOP('',(#123));
#102=EDGE_LOOP('',(#124));
#103=EDGE_LOOP('',(#125));
#104=EDGE_LOOP('',(#126));
#105=EDGE_LOOP('',(#127));
#106=EDGE_LOOP('',(#128));
#107=EDGE_LOOP('',(#129));
#108=EDGE_LOOP('',(#130));
#109=EDGE_LOOP('',(#131));
#110=EDGE_LOOP('',(#132));
#111=EDGE_LOOP('',(#133));
#112=EDGE_LOOP('',(#134));
#113=EDGE_LOOP('',(#135));
#114=EDGE_LOOP('',(#136));
#115=EDGE_LOOP('',(#137));
#116=EDGE_LOOP('',(#138));
#117=EDGE_LOOP('',(#139));
#118=EDGE_LOOP('',(#140));
#119=EDGE_LOOP('',(#141));
#120=EDGE_LOOP('',(#142));
#121=EDGE_LOOP('',(#143));
#122=ORIENTED_EDGE('',*,*,#155,.F.);
#123=ORIENTED_EDGE('',*,*,#156,.T.);
#124=ORIENTED_EDGE('',*,*,#157,.F.);
#125=ORIENTED_EDGE('',*,*,#155,.T.);
#126=ORIENTED_EDGE('',*,*,#158,.F.);
#127=ORIENTED_EDGE('',*,*,#157,.T.);
#128=ORIENTED_EDGE('',*,*,#159,.F.);
#129=ORIENTED_EDGE('',*,*,#158,.T.);
#130=ORIENTED_EDGE('',*,*,#160,.F.);
#131=ORIENTED_EDGE('',*,*,#159,.T.);
#132=ORIENTED_EDGE('',*,*,#160,.T.);
#133=ORIENTED_EDGE('',*,*,#161,.F.);
#134=ORIENTED_EDGE('',*,*,#162,.F.);
#135=ORIENTED_EDGE('',*,*,#161,.T.);
#136=ORIENTED_EDGE('',*,*,#163,.F.);
#137=ORIENTED_EDGE('',*,*,#162,.T.);
#138=ORIENTED_EDGE('',*,*,#156,.F.);
#139=ORIENTED_EDGE('',*,*,#163,.T.);
#140=ORIENTED_EDGE('',*,*,#164,.F.);
#141=ORIENTED_EDGE('',*,*,#165,.F.);
#142=ORIENTED_EDGE('',*,*,#165,.T.);
#143=ORIENTED_EDGE('',*,*,#164,.T.);
#144=VERTEX_POINT('',#243);
#145=VERTEX_POINT('',#245);
#146=VERTEX_POINT('',#248);
#147=VERTEX_POINT('',#251);
#148=VERTEX_POINT('',#254);
#149=VERTEX_POINT('',#257);
#150=VERTEX_POINT('',#325);
#151=VERTEX_POINT('',#328);
#152=VERTEX_POINT('',#331);
#153=VERTEX_POINT('',#335);
#154=VERTEX_POINT('',#337);
#155=EDGE_CURVE('',#144,#144,#166,.T.);
#156=EDGE_CURVE('',#145,#145,#167,.T.);
#157=EDGE_CURVE('',#146,#146,#168,.T.);
#158=EDGE_CURVE('',#147,#147,#169,.T.);
#159=EDGE_CURVE('',#148,#148,#170,.T.);
#160=EDGE_CURVE('',#149,#149,#171,.T.);
#161=EDGE_CURVE('',#150,#150,#172,.T.);
#162=EDGE_CURVE('',#151,#151,#173,.T.);
#163=EDGE_CURVE('',#152,#152,#174,.T.);
#164=EDGE_CURVE('',#153,#153,#175,.T.);
#165=EDGE_CURVE('',#154,#154,#176,.T.);
#166=CIRCLE('',#178,12.5);
#167=CIRCLE('',#179,12.5);
#168=CIRCLE('',#181,6.93692212963351);
#169=CIRCLE('',#183,6.);
#170=CIRCLE('',#185,5.99999999999556);
#171=CIRCLE('',#187,5.43674141192979);
#172=CIRCLE('',#189,11.25);
#173=CIRCLE('',#191,12.25);
#174=CIRCLE('',#193,12.25);
#175=CIRCLE('',#196,5.);
#176=CIRCLE('',#197,5.);
#177=AXIS2_PLACEMENT_3D('',#241,#198,#199);
#178=AXIS2_PLACEMENT_3D('',#242,#200,#201);
#179=AXIS2_PLACEMENT_3D('',#244,#202,#203);
#180=AXIS2_PLACEMENT_3D('',#246,#204,#205);
#181=AXIS2_PLACEMENT_3D('',#247,#206,#207);
#182=AXIS2_PLACEMENT_3D('',#249,#208,#209);
#183=AXIS2_PLACEMENT_3D('',#250,#210,#211);
#184=AXIS2_PLACEMENT_3D('',#252,#212,#213);
#185=AXIS2_PLACEMENT_3D('',#253,#214,#215);
#186=AXIS2_PLACEMENT_3D('',#255,#216,#217);
#187=AXIS2_PLACEMENT_3D('',#256,#218,#219);
#188=AXIS2_PLACEMENT_3D('',#323,#221,#222);
#189=AXIS2_PLACEMENT_3D('',#324,#223,#224);
#190=AXIS2_PLACEMENT_3D('',#326,#225,#226);
#191=AXIS2_PLACEMENT_3D('',#327,#227,#228);
#192=AXIS2_PLACEMENT_3D('',#329,#229,#230);
#193=AXIS2_PLACEMENT_3D('',#330,#231,#232);
#194=AXIS2_PLACEMENT_3D('',#332,#233,#234);
#195=AXIS2_PLACEMENT_3D('',#333,#235,#236);
#196=AXIS2_PLACEMENT_3D('',#334,#237,#238);
#197=AXIS2_PLACEMENT_3D('',#336,#239,#240);
#198=DIRECTION('',(0.,0.,1.));
#199=DIRECTION('',(1.,0.,0.));
#200=DIRECTION('',(-1.,0.,0.));
#201=DIRECTION('',(0.,0.,1.));
#202=DIRECTION('',(-1.,0.,0.));
#203=DIRECTION('',(0.,0.,1.));
#204=DIRECTION('',(-1.,0.,0.));
#205=DIRECTION('',(0.,0.,1.));
#206=DIRECTION('',(-1.,0.,0.));
#207=DIRECTION('',(0.,0.,1.));
#208=DIRECTION('',(1.,0.,0.));
#209=DIRECTION('',(2.31872445169988E-16,0.,-1.));
#210=DIRECTION('',(-1.,0.,0.));
#211=DIRECTION('',(0.,0.,1.));
#212=DIRECTION('',(-1.,0.,0.));
#213=DIRECTION('',(0.,0.,1.));
#214=DIRECTION('',(-1.,0.,0.));
#215=DIRECTION('',(0.,0.,1.));
#216=DIRECTION('',(-1.,0.,0.));
#217=DIRECTION('',(0.,0.,1.));
#218=DIRECTION('',(-1.,0.,0.));
#219=DIRECTION('',(0.,0.,1.));
#220=DIRECTION('',(-1.,0.,0.));
#221=DIRECTION('',(1.,0.,0.));
#222=DIRECTION('',(0.,0.,-1.));
#223=DIRECTION('',(-1.,0.,0.));
#224=DIRECTION('',(0.,0.,1.));
#225=DIRECTION('',(-1.,0.,0.));
#226=DIRECTION('',(0.,0.,1.));
#227=DIRECTION('',(-1.,0.,0.));
#228=DIRECTION('',(0.,0.,1.));
#229=DIRECTION('',(-1.,0.,0.));
#230=DIRECTION('',(0.,0.,1.));
#231=DIRECTION('',(-1.,0.,0.));
#232=DIRECTION('',(0.,0.,1.));
#233=DIRECTION('',(-1.,0.,0.));
#234=DIRECTION('',(0.,0.,1.));
#235=DIRECTION('',(-1.,0.,0.));
#236=DIRECTION('',(-1.47184324997432E-16,0.,1.));
#237=DIRECTION('',(0.,-0.942809041582063,-0.333333333333333));
#238=DIRECTION('',(1.,0.,0.));
#239=DIRECTION('',(0.,0.,1.));
#240=DIRECTION('',(1.,0.,0.));
#241=CARTESIAN_POINT('',(0.,0.,0.));
#242=CARTESIAN_POINT('',(33.9392949833121,0.,0.));
#243=CARTESIAN_POINT('',(33.9392949833121,0.,12.5));
#244=CARTESIAN_POINT('',(94.5821795450956,0.,0.));
#245=CARTESIAN_POINT('',(94.5821795450956,0.,12.5));
#246=CARTESIAN_POINT('',(0.,0.,0.));
#247=CARTESIAN_POINT('',(22.0092359909776,0.,0.));
#248=CARTESIAN_POINT('',(22.0092359909776,0.,6.93692212963351));
#249=CARTESIAN_POINT('',(33.9392949833121,0.,0.));
#250=CARTESIAN_POINT('',(17.7830533735706,0.,0.));
#251=CARTESIAN_POINT('',(17.7830533735706,0.,6.));
#252=CARTESIAN_POINT('',(17.7830533735706,0.,0.));
#253=CARTESIAN_POINT('',(9.00691315949233,0.,0.));
#254=CARTESIAN_POINT('',(9.00691315949233,0.,5.99999999999556));
#255=CARTESIAN_POINT('',(0.,0.,0.));
#256=CARTESIAN_POINT('',(0.952071992291888,0.,0.));
#257=CARTESIAN_POINT('',(0.952071992291888,0.,5.43674141192979));
#258=CARTESIAN_POINT('',(4.47782458948086,1.72615485630579,0.));
#259=CARTESIAN_POINT('',(5.26108770525957,1.72615485630579,0.));
#260=CARTESIAN_POINT('',(5.52162400757632,1.74428531244924,0.));
#261=CARTESIAN_POINT('',(6.03711890916812,1.82008328783974,0.));
#262=CARTESIAN_POINT('',(6.29387746142583,1.87852631614834,0.));
#263=CARTESIAN_POINT('',(6.78716208570196,2.04059848553819,0.));
#264=CARTESIAN_POINT('',(7.0258237737591,2.14463112469165,0.));
#265=CARTESIAN_POINT('',(7.48065528017516,2.4051847178289,0.));
#266=CARTESIAN_POINT('',(7.6900107049545,2.55765418437873,0.));
#267=CARTESIAN_POINT('',(8.07243469321733,2.90718269072852,0.));
#268=CARTESIAN_POINT('',(8.24677472922638,3.1068014936649,0.));
#269=CARTESIAN_POINT('',(8.54237594136876,3.53213108376847,0.));
#270=CARTESIAN_POINT('',(8.66596241697031,3.75916026874574,0.));
#271=CARTESIAN_POINT('',(8.8651570016844,4.24168053061505,0.));
#272=CARTESIAN_POINT('',(8.93854682625722,4.49314491695474,0.));
#273=CARTESIAN_POINT('',(9.03194287584639,5.00123174430671,0.));
#274=CARTESIAN_POINT('',(9.05276562959548,5.2622091101027,0.));
#275=CARTESIAN_POINT('',(9.04117112323853,5.78405403044174,0.));
#276=CARTESIAN_POINT('',(9.00931766964912,6.0406368118216,0.));
#277=CARTESIAN_POINT('',(8.89570784231717,6.54549100758557,0.));
#278=CARTESIAN_POINT('',(8.81251708733701,6.79625271939502,0.));
#279=CARTESIAN_POINT('',(8.60165661050655,7.27023803733668,0.));
#280=CARTESIAN_POINT('',(8.47421632842206,7.4949791222127,0.));
#281=CARTESIAN_POINT('',(8.1755031167465,7.92006247946038,0.));
#282=CARTESIAN_POINT('',(8.00358369391877,8.12003386176226,0.));
#283=CARTESIAN_POINT('',(7.63034050114468,8.47804741568626,0.));
#284=CARTESIAN_POINT('',(7.42745351179345,8.63860629865023,0.));
#285=CARTESIAN_POINT('',(6.98825885317435,8.92181897603825,0.));
#286=CARTESIAN_POINT('',(6.75628894027503,9.04132356098713,0.));
#287=CARTESIAN_POINT('',(6.2765940125788,9.23351936536625,0.));
#288=CARTESIAN_POINT('',(6.02583109718683,9.30734841020169,0.));
#289=CARTESIAN_POINT('',(5.51305584342242,9.40583597713726,0.));
#290=CARTESIAN_POINT('',(5.25550060065323,9.43001061773701,0.));
#291=CARTESIAN_POINT('',(4.73811936664995,9.42960609358147,0.));
#292=CARTESIAN_POINT('',(4.47552316770232,9.40428436418088,0.));
#293=CARTESIAN_POINT('',(3.96576176044094,9.30506621903229,0.));
#294=CARTESIAN_POINT('',(3.71793515408247,9.2317943104999,0.));
#295=CARTESIAN_POINT('',(3.23639384969829,9.0379123636861,0.));
#296=CARTESIAN_POINT('',(3.0021536830026,8.91627525852787,0.));
#297=CARTESIAN_POINT('',(2.56774929966869,8.63485264741137,0.));
#298=CARTESIAN_POINT('',(2.3648950332855,8.47423402074752,0.));
#299=CARTESIAN_POINT('',(1.98878405460651,8.11193103829843,0.));
#300=CARTESIAN_POINT('',(1.81902289384667,7.9131130517471,0.));
#301=CARTESIAN_POINT('',(1.52250557475166,7.48944876772167,0.));
#302=CARTESIAN_POINT('',(1.39362397924971,7.26144131410314,0.));
#303=CARTESIAN_POINT('',(1.18288735119874,6.78402904584395,0.));
#304=CARTESIAN_POINT('',(1.10209461777582,6.53813538545683,0.));
#305=CARTESIAN_POINT('',(0.989315001048296,6.03207400398309,0.));
#306=CARTESIAN_POINT('',(0.957676256601286,5.76966861698544,0.));
#307=CARTESIAN_POINT('',(0.947863483336341,5.25114626085155,0.));
#308=CARTESIAN_POINT('',(0.968785507040661,4.99292109528119,0.));
#309=CARTESIAN_POINT('',(1.06495316844757,4.47864975782332,0.));
#310=CARTESIAN_POINT('',(1.13936837200399,4.22855292799061,0.));
#311=CARTESIAN_POINT('',(1.33866448903309,3.75021997501321,0.));
#312=CARTESIAN_POINT('',(1.46584549436817,3.51824295623774,0.));
#313=CARTESIAN_POINT('',(1.76397598420742,3.09352706425702,0.));
#314=CARTESIAN_POINT('',(1.93476436326062,2.89936828256854,0.));
#315=CARTESIAN_POINT('',(2.32124018142434,2.54866616482479,0.));
#316=CARTESIAN_POINT('',(2.53427882442148,2.39548022108211,0.));
#317=CARTESIAN_POINT('',(2.98428152420718,2.14005749395439,0.));
#318=CARTESIAN_POINT('',(3.22601354723551,2.03534835578396,0.));
#319=CARTESIAN_POINT('',(3.96751450899781,1.79456535478692,0.));
#320=CARTESIAN_POINT('',(4.47782458948086,1.72615485630579,0.));
#321=CARTESIAN_POINT('',(5.26108770525957,1.72615485630579,0.));
#322=CARTESIAN_POINT('',(0.,0.,0.));
#323=CARTESIAN_POINT('',(0.952071992291888,5.43674141192979,0.));
#324=CARTESIAN_POINT('',(100.,0.,0.));
#325=CARTESIAN_POINT('',(100.,0.,11.25));
#326=CARTESIAN_POINT('',(100.,0.,0.));
#327=CARTESIAN_POINT('',(99.,0.,0.));
#328=CARTESIAN_POINT('',(99.,0.,12.25));
#329=CARTESIAN_POINT('',(99.,0.,0.));
#330=CARTESIAN_POINT('',(96.,0.,0.));
#331=CARTESIAN_POINT('',(96.,0.,12.25));
#332=CARTESIAN_POINT('',(0.,0.,0.));
#333=CARTESIAN_POINT('',(96.,0.,0.));
#334=CARTESIAN_POINT('',(5.,0.116362406497461,5.67087741316184));
#335=CARTESIAN_POINT('',(10.,0.116362406497461,5.67087741316184));
#336=CARTESIAN_POINT('',(5.,-5.30776703,2.));
#337=CARTESIAN_POINT('',(10.,-5.30776703,2.));
#338=CARTESIAN_POINT('',(10.,-5.30776703,2.));
#339=CARTESIAN_POINT('',(10.,-7.68169690678173,-4.300133365757));
#340=CARTESIAN_POINT('',(10.,-2.39661622842814,-8.47088218455383));
#341=CARTESIAN_POINT('',(10.,3.17907309397666,-4.69743388542177));
#342=CARTESIAN_POINT('',(10.,8.75476241638146,-0.923985586289721));
#343=CARTESIAN_POINT('',(10.,6.84749506583324,5.53275931650257));
#344=CARTESIAN_POINT('',(10.,0.116362406497461,5.67087741316184));
#345=CARTESIAN_POINT('',(10.,4.69223297000001,2.));
#346=CARTESIAN_POINT('',(10.,2.31830309321828,7.56951601815163));
#347=CARTESIAN_POINT('',(10.,-3.70863677071929,6.99414864611471));
#348=CARTESIAN_POINT('',(10.,-4.9858927153006,1.07606880647449));
#349=CARTESIAN_POINT('',(10.,-6.26314865988192,-4.84201103316574));
#350=CARTESIAN_POINT('',(10.,-1.00998436039145,-7.85188089395427));
#351=CARTESIAN_POINT('',(10.,3.44969573983079,-3.7572130026588));
#352=CARTESIAN_POINT('',(-5.10076676829453E-16,4.69223297000001,2.));
#353=CARTESIAN_POINT('',(-5.10076676829454E-16,2.31830309321828,7.56951601815163));
#354=CARTESIAN_POINT('',(-5.10076676829454E-16,-3.70863677071929,6.99414864611471));
#355=CARTESIAN_POINT('',(-5.10076676829453E-16,-4.9858927153006,1.07606880647449));
#356=CARTESIAN_POINT('',(-5.10076676829454E-16,-6.26314865988192,-4.84201103316574));
#357=CARTESIAN_POINT('',(-5.10076676829454E-16,-1.00998436039145,-7.85188089395427));
#358=CARTESIAN_POINT('',(-5.10076676829453E-16,3.4496957398308,-3.7572130026588));
#359=CARTESIAN_POINT('',(-1.7347234759768E-15,-5.30776703,2.));
#360=CARTESIAN_POINT('',(-1.73472347597681E-15,-7.68169690678173,-4.30013336575699));
#361=CARTESIAN_POINT('',(-1.73472347597681E-15,-2.39661622842814,-8.47088218455383));
#362=CARTESIAN_POINT('',(-1.7347234759768E-15,3.17907309397666,-4.69743388542177));
#363=CARTESIAN_POINT('',(-1.73472347597681E-15,8.75476241638146,-0.923985586289721));
#364=CARTESIAN_POINT('',(-1.73472347597681E-15,6.84749506583324,5.53275931650257));
#365=CARTESIAN_POINT('',(-1.7347234759768E-15,0.116362406497462,5.67087741316184));
#366=CARTESIAN_POINT('',(-2.95937027512416E-15,-15.30776703,2.));
#367=CARTESIAN_POINT('',(-2.95937027512416E-15,-17.6816969067817,-16.1697827496656));
#368=CARTESIAN_POINT('',(-2.95937027512416E-15,-1.084595686137,-23.9359130152224));
#369=CARTESIAN_POINT('',(-2.95937027512416E-15,11.3440389032539,-10.470936577318));
#370=CARTESIAN_POINT('',(-2.95937027512416E-15,23.7726734926448,2.9940398605863));
#371=CARTESIAN_POINT('',(-2.95937027512416E-15,14.7049744920579,18.9173995269594));
#372=CARTESIAN_POINT('',(-2.95937027512416E-15,-3.21697092683587,15.0989678289825));
#373=CARTESIAN_POINT('',(10.,-15.30776703,2.));
#374=CARTESIAN_POINT('',(10.,-17.6816969067817,-16.1697827496656));
#375=CARTESIAN_POINT('',(10.,-1.084595686137,-23.9359130152224));
#376=CARTESIAN_POINT('',(10.,11.3440389032539,-10.470936577318));
#377=CARTESIAN_POINT('',(10.,23.7726734926448,2.9940398605863));
#378=CARTESIAN_POINT('',(10.,14.7049744920579,18.9173995269594));
#379=CARTESIAN_POINT('',(10.,-3.21697092683587,15.0989678289825));
#380=CARTESIAN_POINT('',(10.,-5.30776703,2.));
#381=CARTESIAN_POINT('',(10.,-7.68169690678173,-4.300133365757));
#382=CARTESIAN_POINT('',(10.,-2.39661622842814,-8.47088218455383));
#383=CARTESIAN_POINT('',(10.,3.17907309397666,-4.69743388542177));
#384=CARTESIAN_POINT('',(10.,8.75476241638146,-0.923985586289721));
#385=CARTESIAN_POINT('',(10.,6.84749506583324,5.53275931650257));
#386=CARTESIAN_POINT('',(10.,0.116362406497461,5.67087741316184));
#387=CARTESIAN_POINT('',(10.,0.116362406497461,5.67087741316184));
#388=CARTESIAN_POINT('',(10.,-2.37060387086509,5.72190820783927));
#389=CARTESIAN_POINT('',(10.,-4.43066597625814,4.32772402751463));
#390=CARTESIAN_POINT('',(10.,-5.30776703,2.));
#391=CARTESIAN_POINT('',(10.,3.44969573983079,-3.75721300265879));
#392=CARTESIAN_POINT('',(10.,5.0974234817131,-2.24434711841161));
#393=CARTESIAN_POINT('',(10.,5.56933402374186,-0.0577812411946266));
#394=CARTESIAN_POINT('',(10.,4.69223297000001,2.));
#395=CARTESIAN_POINT('',(-5.10076676829453E-16,3.44969573983079,-3.7572130026588));
#396=CARTESIAN_POINT('',(-5.10076676829453E-16,5.0974234817131,-2.24434711841161));
#397=CARTESIAN_POINT('',(-5.10076676829453E-16,5.56933402374186,-0.057781241194627));
#398=CARTESIAN_POINT('',(-5.10076676829453E-16,4.69223297000001,2.));
#399=CARTESIAN_POINT('',(-1.7347234759768E-15,0.116362406497461,5.67087741316184));
#400=CARTESIAN_POINT('',(-1.7347234759768E-15,-2.37060387086509,5.72190820783927));
#401=CARTESIAN_POINT('',(-1.7347234759768E-15,-4.43066597625814,4.32772402751463));
#402=CARTESIAN_POINT('',(-1.7347234759768E-15,-5.30776703,2.));
#403=CARTESIAN_POINT('',(-2.95937027512416E-15,-3.21697092683587,15.0989678289825));
#404=CARTESIAN_POINT('',(-2.95937027512416E-15,-9.83863122344328,13.6881635340901));
#405=CARTESIAN_POINT('',(-2.95937027512416E-15,-14.4306659762581,8.71322929622388));
#406=CARTESIAN_POINT('',(-2.95937027512416E-15,-15.30776703,2.));
#407=CARTESIAN_POINT('',(10.,-3.21697092683587,15.0989678289825));
#408=CARTESIAN_POINT('',(10.,-9.83863122344328,13.6881635340901));
#409=CARTESIAN_POINT('',(10.,-14.4306659762581,8.71322929622388));
#410=CARTESIAN_POINT('',(10.,-15.30776703,2.));
#411=CARTESIAN_POINT('',(10.,0.116362406497461,5.67087741316184));
#412=CARTESIAN_POINT('',(10.,-2.37060387086509,5.72190820783927));
#413=CARTESIAN_POINT('',(10.,-4.43066597625814,4.32772402751463));
#414=CARTESIAN_POINT('',(10.,-5.30776703,2.));
#415=MECHANICAL_DESIGN_GEOMETRIC_PRESENTATION_REPRESENTATION('',(#35,#36),
#416);
#416=(
GEOMETRIC_REPRESENTATION_CONTEXT(3)
GLOBAL_UNCERTAINTY_ASSIGNED_CONTEXT((#417))
GLOBAL_UNIT_ASSIGNED_CONTEXT((#423,#419,#418))
REPRESENTATION_CONTEXT('ATSMR-RD1003-D21-W25-L100-Z02',
'TOP_LEVEL_ASSEMBLY_PART')
);
#417=UNCERTAINTY_MEASURE_WITH_UNIT(LENGTH_MEASURE(2.E-5),#423,
'DISTANCE_ACCURACY_VALUE','Maximum Tolerance applied to model');
#418=(
NAMED_UNIT(*)
SI_UNIT($,.STERADIAN.)
SOLID_ANGLE_UNIT()
);
#419=(
CONVERSION_BASED_UNIT('DEGREE',#421)
NAMED_UNIT(#420)
PLANE_ANGLE_UNIT()
);
#420=DIMENSIONAL_EXPONENTS(0.,0.,0.,0.,0.,0.,0.);
#421=PLANE_ANGLE_MEASURE_WITH_UNIT(PLANE_ANGLE_MEASURE(0.0174532925),#422);
#422=(
NAMED_UNIT(*)
PLANE_ANGLE_UNIT()
SI_UNIT($,.RADIAN.)
);
#423=(
LENGTH_UNIT()
NAMED_UNIT(*)
SI_UNIT(.MILLI.,.METRE.)
);
ENDSEC;
END-ISO-10303-21;
