ISO-10303-21;
HEADER;
/* Generated by software containing ST-Developer
 * from STEP Tools, Inc. (www.steptools.com) 
 */
/* OPTION: using custom schema-name function */

FILE_DESCRIPTION(
/* description */ (''),
/* implementation_level */ '2;1');

FILE_NAME(
/* name */ 'ATSMR-RD12T3-D25-W25-L100-Z02.stp',
/* time_stamp */ '2023-10-02T16:43:19+03:00',
/* author */ (''),
/* organization */ (''),
/* preprocessor_version */ 'ST-DEVELOPER v19.4',
/* originating_system */ 'SIEMENS PLM Software NX2306.5001',
/* authorisation */ '');

FILE_SCHEMA (('AUTOMOTIVE_DESIGN { 1 0 10303 214 3 1 1 1 }'));
ENDSEC;

DATA;
#10=PROPERTY_DEFINITION_REPRESENTATION(#14,#12);
#11=PROPERTY_DEFINITION_REPRESENTATION(#15,#13);
#12=REPRESENTATION('',(#16),#424);
#13=REPRESENTATION('',(#17),#424);
#14=PROPERTY_DEFINITION('pmi validation property','',#21);
#15=PROPERTY_DEFINITION('pmi validation property','',#21);
#16=VALUE_REPRESENTATION_ITEM('number of annotations',COUNT_MEASURE(0.));
#17=VALUE_REPRESENTATION_ITEM('number of views',COUNT_MEASURE(0.));
#18=SHAPE_REPRESENTATION_RELATIONSHIP('None',
'relationship between ATSMR-RD12T3-D25-W25-L100-Z02-LIGHT_x_t_objects-
None and ATSMR-RD12T3-D25-W25-L100-Z02-LIGHT_x_t_objects-None',#30,#19);
#19=ADVANCED_BREP_SHAPE_REPRESENTATION(
'ATSMR-RD12T3-D25-W25-L100-Z02-LIGHT_x_t_objects-None',(#62,#63),#424);
#20=SHAPE_DEFINITION_REPRESENTATION(#21,#30);
#21=PRODUCT_DEFINITION_SHAPE('','',#22);
#22=PRODUCT_DEFINITION(' ','',#24,#23);
#23=PRODUCT_DEFINITION_CONTEXT('part definition',#29,'design');
#24=PRODUCT_DEFINITION_FORMATION_WITH_SPECIFIED_SOURCE(' ',' ',#26,
 .NOT_KNOWN.);
#25=PRODUCT_RELATED_PRODUCT_CATEGORY('part','',(#26));
#26=PRODUCT('ATSMR-RD12T3-D25-W25-L100-Z02-LIGHT_x_t_objects',
'ATSMR-RD12T3-D25-W25-L100-Z02-LIGHT_x_t_objects',' ',(#27));
#27=PRODUCT_CONTEXT(' ',#29,'mechanical');
#28=APPLICATION_PROTOCOL_DEFINITION('international standard',
'automotive_design',2010,#29);
#29=APPLICATION_CONTEXT(
'core data for automotive mechanical design processes');
#30=SHAPE_REPRESENTATION(
'ATSMR-RD12T3-D25-W25-L100-Z02-LIGHT_x_t_objects-None',(#177),#424);
#31=COLOUR_RGB('silver gray',0.6,0.6,0.6);
#32=CONICAL_SURFACE('',#194,12.25,9.99999999999998);
#33=CONICAL_SURFACE('',#197,12.5,25.0000000000002);
#34=PLANE('',#186);
#35=PLANE('',#188);
#36=FACE_OUTER_BOUND('',#110,.T.);
#37=FACE_OUTER_BOUND('',#111,.T.);
#38=SURFACE_OF_REVOLUTION('',#40,#39);
#39=AXIS1_PLACEMENT('',#405,#216);
#40=B_SPLINE_CURVE_WITH_KNOTS('',3,(#333,#334,#335,#336,#337,#338,#339,
#340,#341,#342,#343,#344,#345,#346,#347,#348,#349,#350,#351,#352,#353,#354,
#355,#356,#357,#358,#359,#360,#361,#362,#363,#364,#365,#366,#367,#368,#369,
#370,#371,#372,#373,#374,#375,#376,#377,#378,#379,#380,#381,#382,#383,#384,
#385,#386,#387,#388,#389,#390,#391,#392,#393,#394,#395,#396,#397,#398,#399,
#400,#401,#402,#403,#404),.UNSPECIFIED.,.T.,.F.,(2,2,2,2,2,2,2,2,2,2,2,
2,2,2,2,2,2,2,2,2,2,2,2,2,2,2,2,2,2,2,2,2,2,2,2,2,2,2),(-0.03125,0.,0.03125,
0.0625,0.09375,0.125,0.140625,0.15625,0.1875,0.21875,0.25,0.28125,0.3125,
0.34375,0.375,0.40625,0.4375,0.46875,0.5,0.53125,0.5625,0.59375,0.625,0.65625,
0.6875,0.71875,0.75,0.78125,0.8125,0.828125,0.84375,0.875,0.890625,0.90625,
0.9375,0.96875,1.,1.03125),.UNSPECIFIED.);
#41=CYLINDRICAL_SURFACE('',#184,7.5);
#42=CYLINDRICAL_SURFACE('',#192,12.25);
#43=CYLINDRICAL_SURFACE('',#196,12.5);
#44=TOROIDAL_SURFACE('',#182,17.5,10.);
#45=TOROIDAL_SURFACE('',#190,11.25,1.);
#46=PRESENTATION_LAYER_ASSIGNMENT('1','Layer 1',(#62,#63));
#47=STYLED_ITEM('',(#49),#62);
#48=STYLED_ITEM('',(#50),#63);
#49=PRESENTATION_STYLE_ASSIGNMENT((#51));
#50=PRESENTATION_STYLE_ASSIGNMENT((#52));
#51=SURFACE_STYLE_USAGE(.BOTH.,#53);
#52=SURFACE_STYLE_USAGE(.BOTH.,#54);
#53=SURFACE_SIDE_STYLE('',(#55));
#54=SURFACE_SIDE_STYLE('',(#56));
#55=SURFACE_STYLE_FILL_AREA(#57);
#56=SURFACE_STYLE_FILL_AREA(#58);
#57=FILL_AREA_STYLE('',(#59));
#58=FILL_AREA_STYLE('',(#60));
#59=FILL_AREA_STYLE_COLOUR('',#61);
#60=FILL_AREA_STYLE_COLOUR('',#31);
#61=DRAUGHTING_PRE_DEFINED_COLOUR('yellow');
#62=MANIFOLD_SOLID_BREP('',#64);
#63=MANIFOLD_SOLID_BREP('',#65);
#64=CLOSED_SHELL('',(#66,#67));
#65=CLOSED_SHELL('',(#68,#69,#70,#71,#72,#73,#74,#75,#76,#77));
#66=ADVANCED_FACE('',(#80,#81),#78,.F.);
#67=ADVANCED_FACE('',(#82,#83),#79,.F.);
#68=ADVANCED_FACE('',(#84,#85),#44,.F.);
#69=ADVANCED_FACE('',(#86,#87),#41,.T.);
#70=ADVANCED_FACE('',(#88,#89),#38,.T.);
#71=ADVANCED_FACE('',(#36),#34,.F.);
#72=ADVANCED_FACE('',(#37),#35,.F.);
#73=ADVANCED_FACE('',(#90,#91),#45,.T.);
#74=ADVANCED_FACE('',(#92,#93),#42,.T.);
#75=ADVANCED_FACE('',(#94,#95),#32,.T.);
#76=ADVANCED_FACE('',(#96,#97),#43,.T.);
#77=ADVANCED_FACE('',(#98,#99),#33,.T.);
#78=(
BOUNDED_SURFACE()
B_SPLINE_SURFACE(3,3,((#246,#247,#248,#249,#250,#251,#252),(#253,#254,#255,
#256,#257,#258,#259),(#260,#261,#262,#263,#264,#265,#266),(#267,#268,#269,
#270,#271,#272,#273),(#274,#275,#276,#277,#278,#279,#280),(#281,#282,#283,
#284,#285,#286,#287),(#288,#289,#290,#291,#292,#293,#294)),
 .UNSPECIFIED.,.T.,.F.,.F.)
B_SPLINE_SURFACE_WITH_KNOTS((1,3,3,3,1),(4,3,4),(-0.5,0.,0.5,1.,1.5),(0.,
0.5,1.),.UNSPECIFIED.)
GEOMETRIC_REPRESENTATION_ITEM()
RATIONAL_B_SPLINE_SURFACE(((1.,0.546342239900265,0.546342239900265,1.,0.546342239900265,
0.546342239900265,1.),(0.333333333333334,0.182114079966755,0.182114079966755,
0.333333333333334,0.182114079966755,0.182114079966755,0.333333333333334),
(0.333333333333334,0.182114079966755,0.182114079966755,0.333333333333334,
0.182114079966755,0.182114079966755,0.333333333333334),(1.,0.546342239900265,
0.546342239900265,1.,0.546342239900265,0.546342239900265,1.),(0.333333333333334,
0.182114079966755,0.182114079966755,0.333333333333334,0.182114079966755,
0.182114079966755,0.333333333333334),(0.333333333333334,0.182114079966755,
0.182114079966755,0.333333333333334,0.182114079966755,0.182114079966755,
0.333333333333334),(1.,0.546342239900265,0.546342239900265,1.,0.546342239900265,
0.546342239900265,1.)))
REPRESENTATION_ITEM('')
SURFACE()
);
#79=(
BOUNDED_SURFACE()
B_SPLINE_SURFACE(3,3,((#295,#296,#297,#298),(#299,#300,#301,#302),(#303,
#304,#305,#306),(#307,#308,#309,#310),(#311,#312,#313,#314),(#315,#316,
#317,#318),(#319,#320,#321,#322)),.UNSPECIFIED.,.T.,.F.,.F.)
B_SPLINE_SURFACE_WITH_KNOTS((1,3,3,3,1),(4,4),(-0.5,0.,0.5,1.,1.5),(0.,
1.),.UNSPECIFIED.)
GEOMETRIC_REPRESENTATION_ITEM()
RATIONAL_B_SPLINE_SURFACE(((1.,0.863881617169481,0.863881617169481,1.),
(0.333333333333334,0.287960539056493,0.287960539056493,0.333333333333334),
(0.333333333333334,0.287960539056493,0.287960539056493,0.333333333333334),
(1.,0.863881617169481,0.863881617169481,1.),(0.333333333333334,0.287960539056493,
0.287960539056493,0.333333333333334),(0.333333333333334,0.287960539056493,
0.287960539056493,0.333333333333334),(1.,0.863881617169481,0.863881617169481,
1.)))
REPRESENTATION_ITEM('')
SURFACE()
);
#80=FACE_BOUND('',#100,.T.);
#81=FACE_BOUND('',#101,.T.);
#82=FACE_BOUND('',#102,.T.);
#83=FACE_BOUND('',#103,.T.);
#84=FACE_BOUND('',#104,.T.);
#85=FACE_BOUND('',#105,.T.);
#86=FACE_BOUND('',#106,.T.);
#87=FACE_BOUND('',#107,.T.);
#88=FACE_BOUND('',#108,.T.);
#89=FACE_BOUND('',#109,.T.);
#90=FACE_BOUND('',#112,.T.);
#91=FACE_BOUND('',#113,.T.);
#92=FACE_BOUND('',#114,.T.);
#93=FACE_BOUND('',#115,.T.);
#94=FACE_BOUND('',#116,.T.);
#95=FACE_BOUND('',#117,.T.);
#96=FACE_BOUND('',#118,.T.);
#97=FACE_BOUND('',#119,.T.);
#98=FACE_BOUND('',#120,.T.);
#99=FACE_BOUND('',#121,.T.);
#100=EDGE_LOOP('',(#122));
#101=EDGE_LOOP('',(#123));
#102=EDGE_LOOP('',(#124));
#103=EDGE_LOOP('',(#125));
#104=EDGE_LOOP('',(#126));
#105=EDGE_LOOP('',(#127));
#106=EDGE_LOOP('',(#128));
#107=EDGE_LOOP('',(#129));
#108=EDGE_LOOP('',(#130));
#109=EDGE_LOOP('',(#131));
#110=EDGE_LOOP('',(#132));
#111=EDGE_LOOP('',(#133));
#112=EDGE_LOOP('',(#134));
#113=EDGE_LOOP('',(#135));
#114=EDGE_LOOP('',(#136));
#115=EDGE_LOOP('',(#137));
#116=EDGE_LOOP('',(#138));
#117=EDGE_LOOP('',(#139));
#118=EDGE_LOOP('',(#140));
#119=EDGE_LOOP('',(#141));
#120=EDGE_LOOP('',(#142));
#121=EDGE_LOOP('',(#143));
#122=ORIENTED_EDGE('',*,*,#155,.F.);
#123=ORIENTED_EDGE('',*,*,#156,.F.);
#124=ORIENTED_EDGE('',*,*,#156,.T.);
#125=ORIENTED_EDGE('',*,*,#155,.T.);
#126=ORIENTED_EDGE('',*,*,#157,.F.);
#127=ORIENTED_EDGE('',*,*,#158,.T.);
#128=ORIENTED_EDGE('',*,*,#159,.F.);
#129=ORIENTED_EDGE('',*,*,#157,.T.);
#130=ORIENTED_EDGE('',*,*,#160,.F.);
#131=ORIENTED_EDGE('',*,*,#159,.T.);
#132=ORIENTED_EDGE('',*,*,#160,.T.);
#133=ORIENTED_EDGE('',*,*,#161,.F.);
#134=ORIENTED_EDGE('',*,*,#162,.F.);
#135=ORIENTED_EDGE('',*,*,#161,.T.);
#136=ORIENTED_EDGE('',*,*,#163,.F.);
#137=ORIENTED_EDGE('',*,*,#162,.T.);
#138=ORIENTED_EDGE('',*,*,#164,.F.);
#139=ORIENTED_EDGE('',*,*,#163,.T.);
#140=ORIENTED_EDGE('',*,*,#165,.F.);
#141=ORIENTED_EDGE('',*,*,#164,.T.);
#142=ORIENTED_EDGE('',*,*,#158,.F.);
#143=ORIENTED_EDGE('',*,*,#165,.T.);
#144=VERTEX_POINT('',#243);
#145=VERTEX_POINT('',#245);
#146=VERTEX_POINT('',#324);
#147=VERTEX_POINT('',#326);
#148=VERTEX_POINT('',#329);
#149=VERTEX_POINT('',#332);
#150=VERTEX_POINT('',#408);
#151=VERTEX_POINT('',#411);
#152=VERTEX_POINT('',#414);
#153=VERTEX_POINT('',#417);
#154=VERTEX_POINT('',#420);
#155=EDGE_CURVE('',#144,#144,#166,.T.);
#156=EDGE_CURVE('',#145,#145,#167,.T.);
#157=EDGE_CURVE('',#146,#146,#168,.T.);
#158=EDGE_CURVE('',#147,#147,#169,.T.);
#159=EDGE_CURVE('',#148,#148,#170,.T.);
#160=EDGE_CURVE('',#149,#149,#171,.T.);
#161=EDGE_CURVE('',#150,#150,#172,.T.);
#162=EDGE_CURVE('',#151,#151,#173,.T.);
#163=EDGE_CURVE('',#152,#152,#174,.T.);
#164=EDGE_CURVE('',#153,#153,#175,.T.);
#165=EDGE_CURVE('',#154,#154,#176,.T.);
#166=CIRCLE('',#178,6.);
#167=CIRCLE('',#179,6.);
#168=CIRCLE('',#180,7.5);
#169=CIRCLE('',#181,8.43692212963351);
#170=CIRCLE('',#183,7.5);
#171=CIRCLE('',#185,6.66055798522592);
#172=CIRCLE('',#187,11.25);
#173=CIRCLE('',#189,12.25);
#174=CIRCLE('',#191,12.25);
#175=CIRCLE('',#193,12.5);
#176=CIRCLE('',#195,12.5);
#177=AXIS2_PLACEMENT_3D('',#241,#198,#199);
#178=AXIS2_PLACEMENT_3D('',#242,#200,#201);
#179=AXIS2_PLACEMENT_3D('',#244,#202,#203);
#180=AXIS2_PLACEMENT_3D('',#323,#204,#205);
#181=AXIS2_PLACEMENT_3D('',#325,#206,#207);
#182=AXIS2_PLACEMENT_3D('',#327,#208,#209);
#183=AXIS2_PLACEMENT_3D('',#328,#210,#211);
#184=AXIS2_PLACEMENT_3D('',#330,#212,#213);
#185=AXIS2_PLACEMENT_3D('',#331,#214,#215);
#186=AXIS2_PLACEMENT_3D('',#406,#217,#218);
#187=AXIS2_PLACEMENT_3D('',#407,#219,#220);
#188=AXIS2_PLACEMENT_3D('',#409,#221,#222);
#189=AXIS2_PLACEMENT_3D('',#410,#223,#224);
#190=AXIS2_PLACEMENT_3D('',#412,#225,#226);
#191=AXIS2_PLACEMENT_3D('',#413,#227,#228);
#192=AXIS2_PLACEMENT_3D('',#415,#229,#230);
#193=AXIS2_PLACEMENT_3D('',#416,#231,#232);
#194=AXIS2_PLACEMENT_3D('',#418,#233,#234);
#195=AXIS2_PLACEMENT_3D('',#419,#235,#236);
#196=AXIS2_PLACEMENT_3D('',#421,#237,#238);
#197=AXIS2_PLACEMENT_3D('',#422,#239,#240);
#198=DIRECTION('',(0.,0.,1.));
#199=DIRECTION('',(1.,0.,0.));
#200=DIRECTION('',(0.,-0.963788819653397,-0.266666666666667));
#201=DIRECTION('',(1.,0.,0.));
#202=DIRECTION('',(0.,0.,1.));
#203=DIRECTION('',(1.,0.,0.));
#204=DIRECTION('',(-1.,0.,0.));
#205=DIRECTION('',(0.,0.,1.));
#206=DIRECTION('',(-1.,0.,0.));
#207=DIRECTION('',(0.,0.,1.));
#208=DIRECTION('',(-1.,0.,0.));
#209=DIRECTION('',(0.,0.,1.));
#210=DIRECTION('',(-1.,0.,0.));
#211=DIRECTION('',(0.,0.,1.));
#212=DIRECTION('',(-1.,0.,0.));
#213=DIRECTION('',(0.,0.,1.));
#214=DIRECTION('',(-1.,0.,0.));
#215=DIRECTION('',(0.,0.,1.));
#216=DIRECTION('',(-1.,0.,0.));
#217=DIRECTION('',(1.,0.,0.));
#218=DIRECTION('',(0.,0.,-1.));
#219=DIRECTION('',(-1.,0.,0.));
#220=DIRECTION('',(0.,0.,1.));
#221=DIRECTION('',(-1.,0.,0.));
#222=DIRECTION('',(0.,0.,1.));
#223=DIRECTION('',(-1.,0.,0.));
#224=DIRECTION('',(0.,0.,1.));
#225=DIRECTION('',(-1.,0.,0.));
#226=DIRECTION('',(0.,0.,1.));
#227=DIRECTION('',(-1.,0.,0.));
#228=DIRECTION('',(0.,0.,1.));
#229=DIRECTION('',(-1.,0.,0.));
#230=DIRECTION('',(0.,0.,1.));
#231=DIRECTION('',(-1.,0.,0.));
#232=DIRECTION('',(0.,0.,1.));
#233=DIRECTION('',(-1.,0.,0.));
#234=DIRECTION('',(-1.47184324997431E-16,0.,1.));
#235=DIRECTION('',(-1.,0.,0.));
#236=DIRECTION('',(0.,0.,1.));
#237=DIRECTION('',(-1.,0.,0.));
#238=DIRECTION('',(0.,0.,1.));
#239=DIRECTION('',(1.,0.,0.));
#240=DIRECTION('',(1.44920278231242E-17,0.,-1.));
#241=CARTESIAN_POINT('',(0.,0.,0.));
#242=CARTESIAN_POINT('',(6.,0.230608108640127,6.66653431189211));
#243=CARTESIAN_POINT('',(12.,0.230608108640127,6.66653431189211));
#244=CARTESIAN_POINT('',(6.,-6.36363574,2.));
#245=CARTESIAN_POINT('',(12.,-6.36363574,2.));
#246=CARTESIAN_POINT('',(12.,-6.36363574,2.));
#247=CARTESIAN_POINT('',(12.,-8.67618320414339,-5.35810484663464));
#248=CARTESIAN_POINT('',(12.,-2.44266699188227,-9.90044547008661));
#249=CARTESIAN_POINT('',(12.,3.85326388958406,-5.44501765182013));
#250=CARTESIAN_POINT('',(12.,10.1491947710504,-0.98958983355366));
#251=CARTESIAN_POINT('',(12.,7.93894661743564,6.39988821346879));
#252=CARTESIAN_POINT('',(12.,0.230608108640126,6.66653431189211));
#253=CARTESIAN_POINT('',(12.,5.63636426000001,2.));
#254=CARTESIAN_POINT('',(12.,3.32381679585661,8.51717993822575));
#255=CARTESIAN_POINT('',(12.,-3.59063392251572,8.40817817526561));
#256=CARTESIAN_POINT('',(12.,-5.69660521946659,1.82134319801385));
#257=CARTESIAN_POINT('',(12.,-7.80257651641747,-4.76549177923791));
#258=CARTESIAN_POINT('',(12.,-2.23389772771968,-8.86565356500142));
#259=CARTESIAN_POINT('',(12.,3.43060810864013,-4.89893152394866));
#260=CARTESIAN_POINT('',(6.02214420988422E-16,5.63636426000001,2.));
#261=CARTESIAN_POINT('',(6.02214420988421E-16,3.32381679585661,8.51717993822575));
#262=CARTESIAN_POINT('',(6.0221442098842E-16,-3.59063392251572,8.40817817526561));
#263=CARTESIAN_POINT('',(6.02214420988422E-16,-5.69660521946659,1.82134319801385));
#264=CARTESIAN_POINT('',(6.0221442098842E-16,-7.80257651641747,-4.7654917792379));
#265=CARTESIAN_POINT('',(6.0221442098842E-16,-2.23389772771969,-8.86565356500142));
#266=CARTESIAN_POINT('',(6.0221442098842E-16,3.43060810864013,-4.89893152394866));
#267=CARTESIAN_POINT('',(-8.67361737988404E-16,-6.36363574,2.));
#268=CARTESIAN_POINT('',(-8.67361737988403E-16,-8.67618320414339,-5.35810484663464));
#269=CARTESIAN_POINT('',(-8.67361737988403E-16,-2.44266699188227,-9.90044547008661));
#270=CARTESIAN_POINT('',(-8.67361737988403E-16,3.85326388958406,-5.44501765182013));
#271=CARTESIAN_POINT('',(-8.67361737988403E-16,10.1491947710504,-0.98958983355366));
#272=CARTESIAN_POINT('',(-8.67361737988403E-16,7.93894661743564,6.39988821346879));
#273=CARTESIAN_POINT('',(-8.67361737988403E-16,0.230608108640126,6.66653431189211));
#274=CARTESIAN_POINT('',(-2.33693789696523E-15,-18.36363574,2.));
#275=CARTESIAN_POINT('',(-2.33693789696523E-15,-20.6761832041434,-19.233389631495));
#276=CARTESIAN_POINT('',(-2.33693789696523E-15,-1.29470006124882,-28.2090691154388));
#277=CARTESIAN_POINT('',(-2.33693789696523E-15,13.4031329986347,-12.7113785016541));
#278=CARTESIAN_POINT('',(-2.33693789696523E-15,28.1009660585182,2.78631211213058));
#279=CARTESIAN_POINT('',(-2.33693789696523E-15,18.111790962591,21.665429991939));
#280=CARTESIAN_POINT('',(-2.33693789696523E-15,-2.96939189135988,18.2320001477329));
#281=CARTESIAN_POINT('',(12.,-18.36363574,2.));
#282=CARTESIAN_POINT('',(12.,-20.6761832041434,-19.233389631495));
#283=CARTESIAN_POINT('',(12.,-1.29470006124882,-28.2090691154388));
#284=CARTESIAN_POINT('',(12.,13.4031329986347,-12.7113785016541));
#285=CARTESIAN_POINT('',(12.,28.1009660585182,2.78631211213058));
#286=CARTESIAN_POINT('',(12.,18.111790962591,21.665429991939));
#287=CARTESIAN_POINT('',(12.,-2.96939189135988,18.2320001477329));
#288=CARTESIAN_POINT('',(12.,-6.36363574,2.));
#289=CARTESIAN_POINT('',(12.,-8.67618320414339,-5.35810484663464));
#290=CARTESIAN_POINT('',(12.,-2.44266699188227,-9.90044547008661));
#291=CARTESIAN_POINT('',(12.,3.85326388958406,-5.44501765182013));
#292=CARTESIAN_POINT('',(12.,10.1491947710504,-0.98958983355366));
#293=CARTESIAN_POINT('',(12.,7.93894661743564,6.39988821346879));
#294=CARTESIAN_POINT('',(12.,0.230608108640126,6.66653431189211));
#295=CARTESIAN_POINT('',(12.,0.230608108640127,6.66653431189211));
#296=CARTESIAN_POINT('',(12.,-2.88462351088604,6.77429610207346));
#297=CARTESIAN_POINT('',(12.,-5.42904769956375,4.97368892814837));
#298=CARTESIAN_POINT('',(12.,-6.36363574,2.));
#299=CARTESIAN_POINT('',(12.,3.43060810864013,-4.89893152394866));
#300=CARTESIAN_POINT('',(12.,5.71984951523943,-3.29582886906931));
#301=CARTESIAN_POINT('',(12.,6.57095230043627,-0.633839314469182));
#302=CARTESIAN_POINT('',(12.,5.63636426000001,2.));
#303=CARTESIAN_POINT('',(6.02214420988422E-16,3.43060810864013,-4.89893152394866));
#304=CARTESIAN_POINT('',(6.02214420988422E-16,5.71984951523943,-3.29582886906931));
#305=CARTESIAN_POINT('',(6.02214420988422E-16,6.57095230043627,-0.633839314469184));
#306=CARTESIAN_POINT('',(6.02214420988422E-16,5.63636426000001,2.));
#307=CARTESIAN_POINT('',(-8.67361737988404E-16,0.230608108640127,6.66653431189211));
#308=CARTESIAN_POINT('',(-8.67361737988404E-16,-2.88462351088604,6.77429610207346));
#309=CARTESIAN_POINT('',(-8.67361737988404E-16,-5.42904769956375,4.97368892814837));
#310=CARTESIAN_POINT('',(-8.67361737988404E-16,-6.36363574,2.));
#311=CARTESIAN_POINT('',(-2.33693789696523E-15,-2.96939189135988,18.2320001477329));
#312=CARTESIAN_POINT('',(-2.33693789696523E-15,-11.4890965370115,16.8444210732162));
#313=CARTESIAN_POINT('',(-2.33693789696523E-15,-17.4290476995638,10.5812171707659));
#314=CARTESIAN_POINT('',(-2.33693789696523E-15,-18.36363574,2.));
#315=CARTESIAN_POINT('',(12.,-2.96939189135988,18.2320001477329));
#316=CARTESIAN_POINT('',(12.,-11.4890965370115,16.8444210732162));
#317=CARTESIAN_POINT('',(12.,-17.4290476995638,10.5812171707659));
#318=CARTESIAN_POINT('',(12.,-18.36363574,2.));
#319=CARTESIAN_POINT('',(12.,0.230608108640127,6.66653431189211));
#320=CARTESIAN_POINT('',(12.,-2.88462351088604,6.77429610207346));
#321=CARTESIAN_POINT('',(12.,-5.42904769956375,4.97368892814837));
#322=CARTESIAN_POINT('',(12.,-6.36363574,2.));
#323=CARTESIAN_POINT('',(21.7830533735706,0.,0.));
#324=CARTESIAN_POINT('',(21.7830533735706,0.,7.5));
#325=CARTESIAN_POINT('',(26.0092359909776,0.,0.));
#326=CARTESIAN_POINT('',(26.0092359909776,0.,8.43692212963351));
#327=CARTESIAN_POINT('',(21.7830533735706,0.,0.));
#328=CARTESIAN_POINT('',(10.7567885360632,0.,0.));
#329=CARTESIAN_POINT('',(10.7567885360632,0.,7.5));
#330=CARTESIAN_POINT('',(0.,0.,0.));
#331=CARTESIAN_POINT('',(1.16373655710934,0.,0.));
#332=CARTESIAN_POINT('',(1.16373655710934,0.,6.66055798522592));
#333=CARTESIAN_POINT('',(5.69285834363555,2.49275601191749,0.));
#334=CARTESIAN_POINT('',(6.30714165636445,2.49275601191749,0.));
#335=CARTESIAN_POINT('',(6.61345279881408,2.510306230719,0.));
#336=CARTESIAN_POINT('',(7.21984972962557,2.58452034938547,0.));
#337=CARTESIAN_POINT('',(7.52115112926558,2.64137218047059,0.));
#338=CARTESIAN_POINT('',(8.1148764228439,2.80775384099348,0.));
#339=CARTESIAN_POINT('',(8.4011848093665,2.91577704087779,0.));
#340=CARTESIAN_POINT('',(8.94778688951884,3.19303156449647,0.));
#341=CARTESIAN_POINT('',(9.20823050864906,3.36369991755293,0.));
#342=CARTESIAN_POINT('',(9.55758706890324,3.6583724274991,0.));
#343=CARTESIAN_POINT('',(9.66802876652944,3.76339920081059,0.));
#344=CARTESIAN_POINT('',(9.87664561990878,3.98733588021167,0.));
#345=CARTESIAN_POINT('',(9.97545221784424,4.10719011569619,0.));
#346=CARTESIAN_POINT('',(10.2465536841812,4.47968338027047,0.));
#347=CARTESIAN_POINT('',(10.3948200420738,4.74515727293373,0.));
#348=CARTESIAN_POINT('',(10.6306522114334,5.30815863059614,0.));
#349=CARTESIAN_POINT('',(10.7176063584304,5.60765400109299,0.));
#350=CARTESIAN_POINT('',(10.8234890056274,6.20708684014703,0.));
#351=CARTESIAN_POINT('',(10.8443546737165,6.51073377031457,0.));
#352=CARTESIAN_POINT('',(10.8225766901285,7.12580998312702,0.));
#353=CARTESIAN_POINT('',(10.77978049745,7.43001673513318,0.));
#354=CARTESIAN_POINT('',(10.6361989235824,8.02080431452736,0.));
#355=CARTESIAN_POINT('',(10.5342304526536,8.31154062308422,0.));
#356=CARTESIAN_POINT('',(10.2747626265775,8.8684448054454,0.));
#357=CARTESIAN_POINT('',(10.1198015194012,9.13038678975686,0.));
#358=CARTESIAN_POINT('',(9.76157829096352,9.62265983486382,0.));
#359=CARTESIAN_POINT('',(9.5556404800691,9.85513925926716,0.));
#360=CARTESIAN_POINT('',(9.10851837425236,10.2719538705835,0.));
#361=CARTESIAN_POINT('',(8.8674894702011,10.4573377421839,0.));
#362=CARTESIAN_POINT('',(8.35090674974782,10.782600057364,0.));
#363=CARTESIAN_POINT('',(8.0733956398427,10.9226399972597,0.));
#364=CARTESIAN_POINT('',(7.50597157676594,11.1450330654844,0.));
#365=CARTESIAN_POINT('',(7.21363983773544,11.2292978557714,0.));
#366=CARTESIAN_POINT('',(6.61149898291005,11.3432204518064,0.));
#367=CARTESIAN_POINT('',(6.30345972676112,11.3718638862023,0.));
#368=CARTESIAN_POINT('',(5.69492957099383,11.3717640833618,0.));
#369=CARTESIAN_POINT('',(5.39142852604917,11.3436902040062,0.));
#370=CARTESIAN_POINT('',(4.78601389249957,11.2293161056069,0.));
#371=CARTESIAN_POINT('',(4.49200084880152,11.1443490614368,0.));
#372=CARTESIAN_POINT('',(3.92553868317793,10.9221110433958,0.));
#373=CARTESIAN_POINT('',(3.65014866194739,10.7833023313209,0.));
#374=CARTESIAN_POINT('',(3.13059750731417,10.4560954178758,0.));
#375=CARTESIAN_POINT('',(2.88938519234614,10.2701678390041,0.));
#376=CARTESIAN_POINT('',(2.44359455032547,9.85425676017953,0.));
#377=CARTESIAN_POINT('',(2.23746948763323,9.62161891329226,0.));
#378=CARTESIAN_POINT('',(1.87824426534203,9.12743149094449,0.));
#379=CARTESIAN_POINT('',(1.72346684341137,8.86512122381209,0.));
#380=CARTESIAN_POINT('',(1.46492442512919,8.30924530342216,0.));
#381=CARTESIAN_POINT('',(1.36256262332609,8.01703671132407,0.));
#382=CARTESIAN_POINT('',(1.21921514314778,7.42453505615371,0.));
#383=CARTESIAN_POINT('',(1.17674073793609,7.11897594364195,0.));
#384=CARTESIAN_POINT('',(1.1558820263603,6.50471185095994,0.));
#385=CARTESIAN_POINT('',(1.17707685211673,6.20033973268087,0.));
#386=CARTESIAN_POINT('',(1.28486594362904,5.59730308256056,0.));
#387=CARTESIAN_POINT('',(1.37235855103174,5.29917410113205,0.));
#388=CARTESIAN_POINT('',(1.55013466081883,4.87750702434083,0.));
#389=CARTESIAN_POINT('',(1.6173259194776,4.74033584423611,0.));
#390=CARTESIAN_POINT('',(1.76830108917067,4.47307292197684,0.));
#391=CARTESIAN_POINT('',(1.85251244128762,4.34260178005932,0.));
#392=CARTESIAN_POINT('',(2.12407294669286,3.97252139207741,0.));
#393=CARTESIAN_POINT('',(2.33186564071519,3.75056944989931,0.));
#394=CARTESIAN_POINT('',(2.68403556378774,3.45512022661774,0.));
#395=CARTESIAN_POINT('',(2.80886516505679,3.3626304572232,0.));
#396=CARTESIAN_POINT('',(3.06533734685253,3.19485285496732,0.));
#397=CARTESIAN_POINT('',(3.19764042399322,3.11890767247725,0.));
#398=CARTESIAN_POINT('',(3.60577478181412,2.91299698974726,0.));
#399=CARTESIAN_POINT('',(3.89563947956874,2.80427040774662,0.));
#400=CARTESIAN_POINT('',(4.4858546095883,2.63996164359819,0.));
#401=CARTESIAN_POINT('',(4.78477174675313,2.58381446365842,0.));
#402=CARTESIAN_POINT('',(5.38827722056887,2.5102362706806,0.));
#403=CARTESIAN_POINT('',(5.69285834363555,2.49275601191749,0.));
#404=CARTESIAN_POINT('',(6.30714165636445,2.49275601191749,0.));
#405=CARTESIAN_POINT('',(0.,0.,0.));
#406=CARTESIAN_POINT('',(1.16373598640567,6.66055798522658,0.));
#407=CARTESIAN_POINT('',(100.,0.,0.));
#408=CARTESIAN_POINT('',(100.,0.,11.25));
#409=CARTESIAN_POINT('',(100.,0.,0.));
#410=CARTESIAN_POINT('',(99.,0.,0.));
#411=CARTESIAN_POINT('',(99.,0.,12.25));
#412=CARTESIAN_POINT('',(99.,0.,0.));
#413=CARTESIAN_POINT('',(96.,0.,0.));
#414=CARTESIAN_POINT('',(96.,0.,12.25));
#415=CARTESIAN_POINT('',(0.,0.,0.));
#416=CARTESIAN_POINT('',(94.5821795450956,0.,0.));
#417=CARTESIAN_POINT('',(94.5821795450956,0.,12.5));
#418=CARTESIAN_POINT('',(96.,0.,0.));
#419=CARTESIAN_POINT('',(34.7225346025477,0.,0.));
#420=CARTESIAN_POINT('',(34.7225346025477,0.,12.5));
#421=CARTESIAN_POINT('',(0.,0.,0.));
#422=CARTESIAN_POINT('',(34.7225346025477,0.,0.));
#423=MECHANICAL_DESIGN_GEOMETRIC_PRESENTATION_REPRESENTATION('',(#47,#48),
#424);
#424=(
GEOMETRIC_REPRESENTATION_CONTEXT(3)
GLOBAL_UNCERTAINTY_ASSIGNED_CONTEXT((#425))
GLOBAL_UNIT_ASSIGNED_CONTEXT((#431,#427,#426))
REPRESENTATION_CONTEXT('ATSMR-RD12T3-D25-W25-L100-Z02',
'TOP_LEVEL_ASSEMBLY_PART')
);
#425=UNCERTAINTY_MEASURE_WITH_UNIT(LENGTH_MEASURE(2.E-5),#431,
'DISTANCE_ACCURACY_VALUE','Maximum Tolerance applied to model');
#426=(
NAMED_UNIT(*)
SI_UNIT($,.STERADIAN.)
SOLID_ANGLE_UNIT()
);
#427=(
CONVERSION_BASED_UNIT('DEGREE',#429)
NAMED_UNIT(#428)
PLANE_ANGLE_UNIT()
);
#428=DIMENSIONAL_EXPONENTS(0.,0.,0.,0.,0.,0.,0.);
#429=PLANE_ANGLE_MEASURE_WITH_UNIT(PLANE_ANGLE_MEASURE(0.0174532925),#430);
#430=(
NAMED_UNIT(*)
PLANE_ANGLE_UNIT()
SI_UNIT($,.RADIAN.)
);
#431=(
LENGTH_UNIT()
NAMED_UNIT(*)
SI_UNIT(.MILLI.,.METRE.)
);
ENDSEC;
END-ISO-10303-21;
