ISO-10303-21;
HEADER;
/* Generated by software containing ST-Developer
 * from STEP Tools, Inc. (www.steptools.com) 
 */
/* OPTION: using custom schema-name function */

FILE_DESCRIPTION(
/* description */ (''),
/* implementation_level */ '2;1');

FILE_NAME(
/* name */ 'ATTB-D25-255-7D-H.stp',
/* time_stamp */ '2023-11-09T12:14:39+03:00',
/* author */ (''),
/* organization */ (''),
/* preprocessor_version */ 'ST-DEVELOPER v19.4',
/* originating_system */ 'SIEMENS PLM Software NX2306.3001',
/* authorisation */ '');

FILE_SCHEMA (('AP203_CONFIGURATION_CONTROLLED_3D_DESIGN_OF_MECHANICAL_PARTS_AND_ASSEMBLIES_MIM_LF { 1 0 10303 403 2 1 2}'));
ENDSEC;

DATA;
#10=SHAPE_REPRESENTATION_RELATIONSHIP('None',
'relationship between model1-None and model1-None',#76,#11);
#11=ADVANCED_BREP_SHAPE_REPRESENTATION('model1-None',(#86),#258);
#12=APPLIED_APPROVAL_ASSIGNMENT(#24,(#66));
#13=APPLIED_APPROVAL_ASSIGNMENT(#25,(#68));
#14=APPLIED_APPROVAL_ASSIGNMENT(#26,(#38));
#15=APPROVAL_PERSON_ORGANIZATION(#30,#24,#18);
#16=APPROVAL_PERSON_ORGANIZATION(#31,#25,#19);
#17=APPROVAL_PERSON_ORGANIZATION(#32,#26,#20);
#18=APPROVAL_ROLE('approver');
#19=APPROVAL_ROLE('approver');
#20=APPROVAL_ROLE('approver');
#21=APPROVAL_DATE_TIME(#46,#24);
#22=APPROVAL_DATE_TIME(#47,#25);
#23=APPROVAL_DATE_TIME(#48,#26);
#24=APPROVAL(#27,' ');
#25=APPROVAL(#28,' ');
#26=APPROVAL(#29,' ');
#27=APPROVAL_STATUS('not_yet_approved');
#28=APPROVAL_STATUS('not_yet_approved');
#29=APPROVAL_STATUS('not_yet_approved');
#30=PERSON_AND_ORGANIZATION(#36,#33);
#31=PERSON_AND_ORGANIZATION(#36,#34);
#32=PERSON_AND_ORGANIZATION(#36,#35);
#33=ORGANIZATION(' ',' ',' ');
#34=ORGANIZATION(' ',' ',' ');
#35=ORGANIZATION(' ',' ',' ');
#36=PERSON(' ',' ',' ',(' '),$,$);
#37=APPLIED_SECURITY_CLASSIFICATION_ASSIGNMENT(#38,(#68));
#38=SECURITY_CLASSIFICATION(' ',' ',#39);
#39=SECURITY_CLASSIFICATION_LEVEL('confidential');
#40=APPLIED_DATE_AND_TIME_ASSIGNMENT(#44,#42,(#66));
#41=APPLIED_DATE_AND_TIME_ASSIGNMENT(#45,#43,(#38));
#42=DATE_TIME_ROLE('creation_date');
#43=DATE_TIME_ROLE('classification_date');
#44=DATE_AND_TIME(#59,#49);
#45=DATE_AND_TIME(#60,#50);
#46=DATE_AND_TIME(#61,#51);
#47=DATE_AND_TIME(#62,#52);
#48=DATE_AND_TIME(#63,#53);
#49=LOCAL_TIME(0,0,0.,#54);
#50=LOCAL_TIME(0,0,0.,#55);
#51=LOCAL_TIME(0,0,0.,#56);
#52=LOCAL_TIME(0,0,0.,#57);
#53=LOCAL_TIME(0,0,0.,#58);
#54=COORDINATED_UNIVERSAL_TIME_OFFSET(0,0,.BEHIND.);
#55=COORDINATED_UNIVERSAL_TIME_OFFSET(0,0,.BEHIND.);
#56=COORDINATED_UNIVERSAL_TIME_OFFSET(0,0,.BEHIND.);
#57=COORDINATED_UNIVERSAL_TIME_OFFSET(0,0,.BEHIND.);
#58=COORDINATED_UNIVERSAL_TIME_OFFSET(0,0,.BEHIND.);
#59=CALENDAR_DATE(0,1,1);
#60=CALENDAR_DATE(0,1,1);
#61=CALENDAR_DATE(0,1,1);
#62=CALENDAR_DATE(0,1,1);
#63=CALENDAR_DATE(0,1,1);
#64=SHAPE_DEFINITION_REPRESENTATION(#65,#76);
#65=PRODUCT_DEFINITION_SHAPE('','',#66);
#66=PRODUCT_DEFINITION(' ','',#68,#67);
#67=PRODUCT_DEFINITION_CONTEXT('part definition',#75,'design');
#68=PRODUCT_DEFINITION_FORMATION_WITH_SPECIFIED_SOURCE(' ',' ',#70,
 .NOT_KNOWN.);
#69=PRODUCT_RELATED_PRODUCT_CATEGORY('detail','',(#70));
#70=PRODUCT('model1','model1',' ',(#73));
#71=PRODUCT_CATEGORY('part',' ');
#72=PRODUCT_CATEGORY(' ','');
#73=PRODUCT_CONTEXT(' ',#75,'mechanical');
#74=APPLICATION_PROTOCOL_DEFINITION('international standard',
'config_control_design',2010,#75);
#75=APPLICATION_CONTEXT(
'configuration controlled 3D designs of mechanical parts and assemblie
s');
#76=SHAPE_REPRESENTATION('model1-None',(#178),#258);
#77=PRESENTATION_LAYER_ASSIGNMENT('1','Layer 1',(#86));
#78=STYLED_ITEM('',(#79),#86);
#79=PRESENTATION_STYLE_ASSIGNMENT((#80));
#80=SURFACE_STYLE_USAGE(.BOTH.,#81);
#81=SURFACE_SIDE_STYLE('',(#82));
#82=SURFACE_STYLE_FILL_AREA(#83);
#83=FILL_AREA_STYLE('',(#84));
#84=FILL_AREA_STYLE_COLOUR('',#85);
#85=COLOUR_RGB('medium steel',0.611764705882353,0.658823529411765,0.670588235294118);
#86=MANIFOLD_SOLID_BREP('',#87);
#87=CLOSED_SHELL('',(#109,#110,#111,#112,#113,#114,#115,#116,#117));
#88=CYLINDRICAL_SURFACE('',#186,12.5);
#89=CYLINDRICAL_SURFACE('',#193,12.5000000000019);
#90=CONICAL_SURFACE('',#184,12.4823673019292,10.0000000000692);
#91=CONICAL_SURFACE('',#194,12.5000000000019,45.);
#92=TOROIDAL_SURFACE('',#182,11.0051556724112,1.5);
#93=TOROIDAL_SURFACE('',#188,12.1,0.4);
#94=TOROIDAL_SURFACE('',#195,12.1000000000019,0.4);
#95=FACE_BOUND('',#123,.T.);
#96=FACE_BOUND('',#124,.T.);
#97=FACE_BOUND('',#125,.T.);
#98=FACE_BOUND('',#126,.T.);
#99=FACE_BOUND('',#127,.T.);
#100=FACE_BOUND('',#128,.T.);
#101=FACE_BOUND('',#129,.T.);
#102=FACE_BOUND('',#130,.T.);
#103=FACE_BOUND('',#132,.T.);
#104=FACE_BOUND('',#133,.T.);
#105=FACE_BOUND('',#134,.T.);
#106=FACE_BOUND('',#135,.T.);
#107=FACE_BOUND('',#136,.T.);
#108=FACE_BOUND('',#137,.T.);
#109=ADVANCED_FACE('',(#120),#118,.F.);
#110=ADVANCED_FACE('',(#95,#96),#92,.T.);
#111=ADVANCED_FACE('',(#97,#98),#90,.T.);
#112=ADVANCED_FACE('',(#99,#100),#88,.T.);
#113=ADVANCED_FACE('',(#101,#102),#93,.T.);
#114=ADVANCED_FACE('',(#121),#119,.T.);
#115=ADVANCED_FACE('',(#103,#104),#89,.T.);
#116=ADVANCED_FACE('',(#105,#106),#91,.T.);
#117=ADVANCED_FACE('',(#107,#108),#94,.T.);
#118=PLANE('',#180);
#119=PLANE('',#190);
#120=FACE_OUTER_BOUND('',#122,.T.);
#121=FACE_OUTER_BOUND('',#131,.T.);
#122=EDGE_LOOP('',(#138));
#123=EDGE_LOOP('',(#139));
#124=EDGE_LOOP('',(#140));
#125=EDGE_LOOP('',(#141));
#126=EDGE_LOOP('',(#142));
#127=EDGE_LOOP('',(#143));
#128=EDGE_LOOP('',(#144));
#129=EDGE_LOOP('',(#145));
#130=EDGE_LOOP('',(#146));
#131=EDGE_LOOP('',(#147));
#132=EDGE_LOOP('',(#148));
#133=EDGE_LOOP('',(#149));
#134=EDGE_LOOP('',(#150));
#135=EDGE_LOOP('',(#151));
#136=EDGE_LOOP('',(#152));
#137=EDGE_LOOP('',(#153));
#138=ORIENTED_EDGE('',*,*,#162,.F.);
#139=ORIENTED_EDGE('',*,*,#163,.F.);
#140=ORIENTED_EDGE('',*,*,#162,.T.);
#141=ORIENTED_EDGE('',*,*,#164,.F.);
#142=ORIENTED_EDGE('',*,*,#163,.T.);
#143=ORIENTED_EDGE('',*,*,#165,.F.);
#144=ORIENTED_EDGE('',*,*,#164,.T.);
#145=ORIENTED_EDGE('',*,*,#166,.F.);
#146=ORIENTED_EDGE('',*,*,#165,.T.);
#147=ORIENTED_EDGE('',*,*,#167,.T.);
#148=ORIENTED_EDGE('',*,*,#168,.T.);
#149=ORIENTED_EDGE('',*,*,#169,.T.);
#150=ORIENTED_EDGE('',*,*,#167,.F.);
#151=ORIENTED_EDGE('',*,*,#169,.F.);
#152=ORIENTED_EDGE('',*,*,#168,.F.);
#153=ORIENTED_EDGE('',*,*,#166,.T.);
#154=VERTEX_POINT('',#234);
#155=VERTEX_POINT('',#237);
#156=VERTEX_POINT('',#240);
#157=VERTEX_POINT('',#243);
#158=VERTEX_POINT('',#246);
#159=VERTEX_POINT('',#249);
#160=VERTEX_POINT('',#252);
#161=VERTEX_POINT('',#254);
#162=EDGE_CURVE('',#154,#154,#170,.T.);
#163=EDGE_CURVE('',#155,#155,#171,.T.);
#164=EDGE_CURVE('',#156,#156,#172,.T.);
#165=EDGE_CURVE('',#157,#157,#173,.T.);
#166=EDGE_CURVE('',#158,#158,#174,.T.);
#167=EDGE_CURVE('',#159,#159,#175,.T.);
#168=EDGE_CURVE('',#160,#160,#176,.T.);
#169=EDGE_CURVE('',#161,#161,#177,.T.);
#170=CIRCLE('',#179,11.0051556724112);
#171=CIRCLE('',#181,12.4823673019292);
#172=CIRCLE('',#183,12.5000000000002);
#173=CIRCLE('',#185,12.5);
#174=CIRCLE('',#187,12.1);
#175=CIRCLE('',#189,11.8000000000019);
#176=CIRCLE('',#191,12.5000000000019);
#177=CIRCLE('',#192,12.5000000000019);
#178=AXIS2_PLACEMENT_3D('',#232,#196,#197);
#179=AXIS2_PLACEMENT_3D('',#233,#198,#199);
#180=AXIS2_PLACEMENT_3D('',#235,#200,#201);
#181=AXIS2_PLACEMENT_3D('',#236,#202,#203);
#182=AXIS2_PLACEMENT_3D('',#238,#204,#205);
#183=AXIS2_PLACEMENT_3D('',#239,#206,#207);
#184=AXIS2_PLACEMENT_3D('',#241,#208,#209);
#185=AXIS2_PLACEMENT_3D('',#242,#210,#211);
#186=AXIS2_PLACEMENT_3D('',#244,#212,#213);
#187=AXIS2_PLACEMENT_3D('',#245,#214,#215);
#188=AXIS2_PLACEMENT_3D('',#247,#216,#217);
#189=AXIS2_PLACEMENT_3D('',#248,#218,#219);
#190=AXIS2_PLACEMENT_3D('',#250,#220,#221);
#191=AXIS2_PLACEMENT_3D('',#251,#222,#223);
#192=AXIS2_PLACEMENT_3D('',#253,#224,#225);
#193=AXIS2_PLACEMENT_3D('',#255,#226,#227);
#194=AXIS2_PLACEMENT_3D('',#256,#228,#229);
#195=AXIS2_PLACEMENT_3D('',#257,#230,#231);
#196=DIRECTION('',(0.,0.,1.));
#197=DIRECTION('',(1.,0.,0.));
#198=DIRECTION('',(-1.,0.,0.));
#199=DIRECTION('',(0.,0.,1.));
#200=DIRECTION('',(-1.,0.,0.));
#201=DIRECTION('',(0.,0.,1.));
#202=DIRECTION('',(-1.,0.,0.));
#203=DIRECTION('',(0.,0.,1.));
#204=DIRECTION('',(-1.,0.,0.));
#205=DIRECTION('',(0.,0.,1.));
#206=DIRECTION('',(-1.,0.,0.));
#207=DIRECTION('',(0.,0.,1.));
#208=DIRECTION('',(-1.,0.,0.));
#209=DIRECTION('',(-2.94006371060799E-16,0.,1.));
#210=DIRECTION('',(-1.,0.,0.));
#211=DIRECTION('',(0.,0.,1.));
#212=DIRECTION('',(-1.,0.,0.));
#213=DIRECTION('',(0.,0.,1.));
#214=DIRECTION('',(-1.,0.,0.));
#215=DIRECTION('',(0.,0.,1.));
#216=DIRECTION('',(-1.,0.,0.));
#217=DIRECTION('',(0.,0.,1.));
#218=DIRECTION('',(-1.,0.,0.));
#219=DIRECTION('',(0.,0.,1.));
#220=DIRECTION('',(-1.,0.,0.));
#221=DIRECTION('',(0.,0.,1.));
#222=DIRECTION('',(-1.,0.,0.));
#223=DIRECTION('',(0.,0.,-1.));
#224=DIRECTION('',(1.,0.,0.));
#225=DIRECTION('',(0.,0.,1.));
#226=DIRECTION('',(-1.,0.,0.));
#227=DIRECTION('',(0.,0.,1.));
#228=DIRECTION('',(1.,0.,0.));
#229=DIRECTION('',(3.38378159511525E-17,0.,-1.));
#230=DIRECTION('',(1.,0.,0.));
#231=DIRECTION('',(0.,0.,-1.));
#232=CARTESIAN_POINT('',(0.,0.,0.));
#233=CARTESIAN_POINT('',(252.7,0.,0.));
#234=CARTESIAN_POINT('',(252.7,0.,11.0051556724112));
#235=CARTESIAN_POINT('',(252.7,6.5,0.));
#236=CARTESIAN_POINT('',(251.460472266502,0.,0.));
#237=CARTESIAN_POINT('',(251.460472266502,0.,12.4823673019292));
#238=CARTESIAN_POINT('',(251.2,0.,0.));
#239=CARTESIAN_POINT('',(251.360472266502,0.,0.));
#240=CARTESIAN_POINT('',(251.360472266502,0.,12.5000000000002));
#241=CARTESIAN_POINT('',(251.460472266502,0.,0.));
#242=CARTESIAN_POINT('',(0.400000000000012,0.,0.));
#243=CARTESIAN_POINT('',(0.400000000000012,0.,12.5));
#244=CARTESIAN_POINT('',(0.,0.,0.));
#245=CARTESIAN_POINT('',(-1.31006316906096E-15,0.,0.));
#246=CARTESIAN_POINT('',(-1.31006316906096E-15,0.,12.1));
#247=CARTESIAN_POINT('',(0.4,0.,0.));
#248=CARTESIAN_POINT('',(-2.29999999999997,1.26589719073155E-15,-1.42012442937746E-16));
#249=CARTESIAN_POINT('',(-2.29999999999997,1.26589719073155E-15,11.8000000000019));
#250=CARTESIAN_POINT('',(-2.29999999999997,4.5,-1.42012442937746E-16));
#251=CARTESIAN_POINT('',(-0.39999999999996,1.26589719073155E-15,-1.42012442937746E-16));
#252=CARTESIAN_POINT('',(-0.39999999999996,1.26589719073155E-15,-12.5000000000019));
#253=CARTESIAN_POINT('',(-1.59999999999997,1.26589719073155E-15,-1.42012442937746E-16));
#254=CARTESIAN_POINT('',(-1.59999999999997,1.26589719073155E-15,12.5000000000019));
#255=CARTESIAN_POINT('',(-2.29999999999996,1.26589719073155E-15,-1.42012442937746E-16));
#256=CARTESIAN_POINT('',(-1.59999999999997,1.26589719073155E-15,-1.42012442937746E-16));
#257=CARTESIAN_POINT('',(-0.39999999999996,1.26589719073155E-15,-1.42012442937746E-16));
#258=(
GEOMETRIC_REPRESENTATION_CONTEXT(3)
GLOBAL_UNCERTAINTY_ASSIGNED_CONTEXT((#259))
GLOBAL_UNIT_ASSIGNED_CONTEXT((#265,#261,#260))
REPRESENTATION_CONTEXT('ATTB-D25-255-7D-H','TOP_LEVEL_ASSEMBLY_PART')
);
#259=UNCERTAINTY_MEASURE_WITH_UNIT(LENGTH_MEASURE(2.E-5),#265,
'DISTANCE_ACCURACY_VALUE','Maximum Tolerance applied to model');
#260=(
NAMED_UNIT(*)
SI_UNIT($,.STERADIAN.)
SOLID_ANGLE_UNIT()
);
#261=(
CONVERSION_BASED_UNIT('DEGREE',#263)
NAMED_UNIT(#262)
PLANE_ANGLE_UNIT()
);
#262=DIMENSIONAL_EXPONENTS(0.,0.,0.,0.,0.,0.,0.);
#263=PLANE_ANGLE_MEASURE_WITH_UNIT(PLANE_ANGLE_MEASURE(0.0174532925),#264);
#264=(
NAMED_UNIT(*)
PLANE_ANGLE_UNIT()
SI_UNIT($,.RADIAN.)
);
#265=(
LENGTH_UNIT()
NAMED_UNIT(*)
SI_UNIT(.MILLI.,.METRE.)
);
ENDSEC;
END-ISO-10303-21;
