ISO-10303-21;
HEADER;
/* Generated by software containing ST-Developer
 * from STEP Tools, Inc. (www.steptools.com) 
 */
/* OPTION: using custom schema-name function */

FILE_DESCRIPTION(
/* description */ (''),
/* implementation_level */ '2;1');

FILE_NAME(
/* name */ 'ATTB-D32-416-10D-H.stp',
/* time_stamp */ '2023-11-09T16:07:42+03:00',
/* author */ (''),
/* organization */ (''),
/* preprocessor_version */ 'ST-DEVELOPER v19.4',
/* originating_system */ 'SIEMENS PLM Software NX2306.3001',
/* authorisation */ '');

FILE_SCHEMA (('AP203_CONFIGURATION_CONTROLLED_3D_DESIGN_OF_MECHANICAL_PARTS_AND_ASSEMBLIES_MIM_LF { 1 0 10303 403 2 1 2}'));
ENDSEC;

DATA;
#10=SHAPE_REPRESENTATION_RELATIONSHIP('None',
'relationship between model1-None and model1-None',#76,#11);
#11=ADVANCED_BREP_SHAPE_REPRESENTATION('model1-None',(#86),#278);
#12=APPLIED_APPROVAL_ASSIGNMENT(#24,(#66));
#13=APPLIED_APPROVAL_ASSIGNMENT(#25,(#68));
#14=APPLIED_APPROVAL_ASSIGNMENT(#26,(#38));
#15=APPROVAL_PERSON_ORGANIZATION(#30,#24,#18);
#16=APPROVAL_PERSON_ORGANIZATION(#31,#25,#19);
#17=APPROVAL_PERSON_ORGANIZATION(#32,#26,#20);
#18=APPROVAL_ROLE('approver');
#19=APPROVAL_ROLE('approver');
#20=APPROVAL_ROLE('approver');
#21=APPROVAL_DATE_TIME(#46,#24);
#22=APPROVAL_DATE_TIME(#47,#25);
#23=APPROVAL_DATE_TIME(#48,#26);
#24=APPROVAL(#27,' ');
#25=APPROVAL(#28,' ');
#26=APPROVAL(#29,' ');
#27=APPROVAL_STATUS('not_yet_approved');
#28=APPROVAL_STATUS('not_yet_approved');
#29=APPROVAL_STATUS('not_yet_approved');
#30=PERSON_AND_ORGANIZATION(#36,#33);
#31=PERSON_AND_ORGANIZATION(#36,#34);
#32=PERSON_AND_ORGANIZATION(#36,#35);
#33=ORGANIZATION(' ',' ',' ');
#34=ORGANIZATION(' ',' ',' ');
#35=ORGANIZATION(' ',' ',' ');
#36=PERSON(' ',' ',' ',(' '),$,$);
#37=APPLIED_SECURITY_CLASSIFICATION_ASSIGNMENT(#38,(#68));
#38=SECURITY_CLASSIFICATION(' ',' ',#39);
#39=SECURITY_CLASSIFICATION_LEVEL('confidential');
#40=APPLIED_DATE_AND_TIME_ASSIGNMENT(#44,#42,(#66));
#41=APPLIED_DATE_AND_TIME_ASSIGNMENT(#45,#43,(#38));
#42=DATE_TIME_ROLE('creation_date');
#43=DATE_TIME_ROLE('classification_date');
#44=DATE_AND_TIME(#59,#49);
#45=DATE_AND_TIME(#60,#50);
#46=DATE_AND_TIME(#61,#51);
#47=DATE_AND_TIME(#62,#52);
#48=DATE_AND_TIME(#63,#53);
#49=LOCAL_TIME(0,0,0.,#54);
#50=LOCAL_TIME(0,0,0.,#55);
#51=LOCAL_TIME(0,0,0.,#56);
#52=LOCAL_TIME(0,0,0.,#57);
#53=LOCAL_TIME(0,0,0.,#58);
#54=COORDINATED_UNIVERSAL_TIME_OFFSET(0,0,.BEHIND.);
#55=COORDINATED_UNIVERSAL_TIME_OFFSET(0,0,.BEHIND.);
#56=COORDINATED_UNIVERSAL_TIME_OFFSET(0,0,.BEHIND.);
#57=COORDINATED_UNIVERSAL_TIME_OFFSET(0,0,.BEHIND.);
#58=COORDINATED_UNIVERSAL_TIME_OFFSET(0,0,.BEHIND.);
#59=CALENDAR_DATE(0,1,1);
#60=CALENDAR_DATE(0,1,1);
#61=CALENDAR_DATE(0,1,1);
#62=CALENDAR_DATE(0,1,1);
#63=CALENDAR_DATE(0,1,1);
#64=SHAPE_DEFINITION_REPRESENTATION(#65,#76);
#65=PRODUCT_DEFINITION_SHAPE('','',#66);
#66=PRODUCT_DEFINITION(' ','',#68,#67);
#67=PRODUCT_DEFINITION_CONTEXT('part definition',#75,'design');
#68=PRODUCT_DEFINITION_FORMATION_WITH_SPECIFIED_SOURCE(' ',' ',#70,
 .NOT_KNOWN.);
#69=PRODUCT_RELATED_PRODUCT_CATEGORY('detail','',(#70));
#70=PRODUCT('model1','model1',' ',(#73));
#71=PRODUCT_CATEGORY('part',' ');
#72=PRODUCT_CATEGORY(' ','');
#73=PRODUCT_CONTEXT(' ',#75,'mechanical');
#74=APPLICATION_PROTOCOL_DEFINITION('international standard',
'config_control_design',2010,#75);
#75=APPLICATION_CONTEXT(
'configuration controlled 3D designs of mechanical parts and assemblie
s');
#76=SHAPE_REPRESENTATION('model1-None',(#189),#278);
#77=PRESENTATION_LAYER_ASSIGNMENT('1','Layer 1',(#86));
#78=STYLED_ITEM('',(#79),#86);
#79=PRESENTATION_STYLE_ASSIGNMENT((#80));
#80=SURFACE_STYLE_USAGE(.BOTH.,#81);
#81=SURFACE_SIDE_STYLE('',(#82));
#82=SURFACE_STYLE_FILL_AREA(#83);
#83=FILL_AREA_STYLE('',(#84));
#84=FILL_AREA_STYLE_COLOUR('',#85);
#85=COLOUR_RGB('medium steel',0.611764705882353,0.658823529411765,0.670588235294118);
#86=MANIFOLD_SOLID_BREP('',#87);
#87=CLOSED_SHELL('',(#111,#112,#113,#114,#115,#116,#117,#118,#119,#120));
#88=CYLINDRICAL_SURFACE('',#197,15.9999999999994);
#89=CYLINDRICAL_SURFACE('',#204,16.);
#90=CONICAL_SURFACE('',#195,15.982367301928,10.0000000000035);
#91=CONICAL_SURFACE('',#207,16.,45.);
#92=TOROIDAL_SURFACE('',#193,14.209713346506,1.80000000000007);
#93=TOROIDAL_SURFACE('',#199,15.,1.);
#94=TOROIDAL_SURFACE('',#208,15.6,0.4);
#95=FACE_BOUND('',#127,.T.);
#96=FACE_BOUND('',#128,.T.);
#97=FACE_BOUND('',#129,.T.);
#98=FACE_BOUND('',#130,.T.);
#99=FACE_BOUND('',#131,.T.);
#100=FACE_BOUND('',#132,.T.);
#101=FACE_BOUND('',#133,.T.);
#102=FACE_BOUND('',#134,.T.);
#103=FACE_BOUND('',#136,.T.);
#104=FACE_BOUND('',#137,.T.);
#105=FACE_BOUND('',#138,.T.);
#106=FACE_BOUND('',#139,.T.);
#107=FACE_BOUND('',#140,.T.);
#108=FACE_BOUND('',#141,.T.);
#109=FACE_BOUND('',#142,.T.);
#110=FACE_BOUND('',#143,.T.);
#111=ADVANCED_FACE('',(#124),#121,.F.);
#112=ADVANCED_FACE('',(#95,#96),#92,.T.);
#113=ADVANCED_FACE('',(#97,#98),#90,.T.);
#114=ADVANCED_FACE('',(#99,#100),#88,.T.);
#115=ADVANCED_FACE('',(#101,#102),#93,.T.);
#116=ADVANCED_FACE('',(#125),#122,.T.);
#117=ADVANCED_FACE('',(#103,#104),#89,.T.);
#118=ADVANCED_FACE('',(#105,#106),#123,.T.);
#119=ADVANCED_FACE('',(#107,#108),#91,.T.);
#120=ADVANCED_FACE('',(#109,#110),#94,.T.);
#121=PLANE('',#191);
#122=PLANE('',#201);
#123=PLANE('',#206);
#124=FACE_OUTER_BOUND('',#126,.T.);
#125=FACE_OUTER_BOUND('',#135,.T.);
#126=EDGE_LOOP('',(#144));
#127=EDGE_LOOP('',(#145));
#128=EDGE_LOOP('',(#146));
#129=EDGE_LOOP('',(#147));
#130=EDGE_LOOP('',(#148));
#131=EDGE_LOOP('',(#149));
#132=EDGE_LOOP('',(#150));
#133=EDGE_LOOP('',(#151));
#134=EDGE_LOOP('',(#152));
#135=EDGE_LOOP('',(#153));
#136=EDGE_LOOP('',(#154));
#137=EDGE_LOOP('',(#155));
#138=EDGE_LOOP('',(#156));
#139=EDGE_LOOP('',(#157));
#140=EDGE_LOOP('',(#158));
#141=EDGE_LOOP('',(#159));
#142=EDGE_LOOP('',(#160));
#143=EDGE_LOOP('',(#161));
#144=ORIENTED_EDGE('',*,*,#171,.F.);
#145=ORIENTED_EDGE('',*,*,#172,.F.);
#146=ORIENTED_EDGE('',*,*,#171,.T.);
#147=ORIENTED_EDGE('',*,*,#173,.F.);
#148=ORIENTED_EDGE('',*,*,#172,.T.);
#149=ORIENTED_EDGE('',*,*,#174,.F.);
#150=ORIENTED_EDGE('',*,*,#173,.T.);
#151=ORIENTED_EDGE('',*,*,#175,.F.);
#152=ORIENTED_EDGE('',*,*,#174,.T.);
#153=ORIENTED_EDGE('',*,*,#176,.T.);
#154=ORIENTED_EDGE('',*,*,#177,.T.);
#155=ORIENTED_EDGE('',*,*,#178,.T.);
#156=ORIENTED_EDGE('',*,*,#175,.T.);
#157=ORIENTED_EDGE('',*,*,#179,.T.);
#158=ORIENTED_EDGE('',*,*,#176,.F.);
#159=ORIENTED_EDGE('',*,*,#178,.F.);
#160=ORIENTED_EDGE('',*,*,#177,.F.);
#161=ORIENTED_EDGE('',*,*,#179,.F.);
#162=VERTEX_POINT('',#251);
#163=VERTEX_POINT('',#254);
#164=VERTEX_POINT('',#257);
#165=VERTEX_POINT('',#260);
#166=VERTEX_POINT('',#263);
#167=VERTEX_POINT('',#266);
#168=VERTEX_POINT('',#269);
#169=VERTEX_POINT('',#271);
#170=VERTEX_POINT('',#274);
#171=EDGE_CURVE('',#162,#162,#180,.T.);
#172=EDGE_CURVE('',#163,#163,#181,.T.);
#173=EDGE_CURVE('',#164,#164,#182,.T.);
#174=EDGE_CURVE('',#165,#165,#183,.T.);
#175=EDGE_CURVE('',#166,#166,#184,.T.);
#176=EDGE_CURVE('',#167,#167,#185,.T.);
#177=EDGE_CURVE('',#168,#168,#186,.T.);
#178=EDGE_CURVE('',#169,#169,#187,.T.);
#179=EDGE_CURVE('',#170,#170,#188,.T.);
#180=CIRCLE('',#190,14.209713346506);
#181=CIRCLE('',#192,15.982367301928);
#182=CIRCLE('',#194,15.9999999999989);
#183=CIRCLE('',#196,16.);
#184=CIRCLE('',#198,15.);
#185=CIRCLE('',#200,15.3);
#186=CIRCLE('',#202,16.);
#187=CIRCLE('',#203,16.);
#188=CIRCLE('',#205,15.6);
#189=AXIS2_PLACEMENT_3D('',#249,#209,#210);
#190=AXIS2_PLACEMENT_3D('',#250,#211,#212);
#191=AXIS2_PLACEMENT_3D('',#252,#213,#214);
#192=AXIS2_PLACEMENT_3D('',#253,#215,#216);
#193=AXIS2_PLACEMENT_3D('',#255,#217,#218);
#194=AXIS2_PLACEMENT_3D('',#256,#219,#220);
#195=AXIS2_PLACEMENT_3D('',#258,#221,#222);
#196=AXIS2_PLACEMENT_3D('',#259,#223,#224);
#197=AXIS2_PLACEMENT_3D('',#261,#225,#226);
#198=AXIS2_PLACEMENT_3D('',#262,#227,#228);
#199=AXIS2_PLACEMENT_3D('',#264,#229,#230);
#200=AXIS2_PLACEMENT_3D('',#265,#231,#232);
#201=AXIS2_PLACEMENT_3D('',#267,#233,#234);
#202=AXIS2_PLACEMENT_3D('',#268,#235,#236);
#203=AXIS2_PLACEMENT_3D('',#270,#237,#238);
#204=AXIS2_PLACEMENT_3D('',#272,#239,#240);
#205=AXIS2_PLACEMENT_3D('',#273,#241,#242);
#206=AXIS2_PLACEMENT_3D('',#275,#243,#244);
#207=AXIS2_PLACEMENT_3D('',#276,#245,#246);
#208=AXIS2_PLACEMENT_3D('',#277,#247,#248);
#209=DIRECTION('',(0.,0.,1.));
#210=DIRECTION('',(1.,0.,0.));
#211=DIRECTION('',(-1.,0.,0.));
#212=DIRECTION('',(0.,0.,1.));
#213=DIRECTION('',(-1.,0.,0.));
#214=DIRECTION('',(0.,0.,1.));
#215=DIRECTION('',(-1.,0.,0.));
#216=DIRECTION('',(0.,0.,1.));
#217=DIRECTION('',(-1.,0.,0.));
#218=DIRECTION('',(0.,0.,1.));
#219=DIRECTION('',(-1.,0.,0.));
#220=DIRECTION('',(0.,0.,1.));
#221=DIRECTION('',(-1.,0.,0.));
#222=DIRECTION('',(-2.88655501178444E-16,0.,1.));
#223=DIRECTION('',(-1.,0.,0.));
#224=DIRECTION('',(0.,0.,1.));
#225=DIRECTION('',(-1.,0.,0.));
#226=DIRECTION('',(0.,0.,1.));
#227=DIRECTION('',(-1.,0.,0.));
#228=DIRECTION('',(0.,0.,1.));
#229=DIRECTION('',(-1.,0.,0.));
#230=DIRECTION('',(0.,0.,1.));
#231=DIRECTION('',(-1.,0.,0.));
#232=DIRECTION('',(0.,0.,1.));
#233=DIRECTION('',(-1.,0.,0.));
#234=DIRECTION('',(0.,0.,1.));
#235=DIRECTION('',(-1.,0.,0.));
#236=DIRECTION('',(0.,0.,-1.));
#237=DIRECTION('',(1.,0.,0.));
#238=DIRECTION('',(0.,0.,1.));
#239=DIRECTION('',(-1.,0.,0.));
#240=DIRECTION('',(0.,0.,1.));
#241=DIRECTION('',(1.,0.,0.));
#242=DIRECTION('',(0.,0.,-1.));
#243=DIRECTION('',(1.,0.,0.));
#244=DIRECTION('',(0.,0.,-1.));
#245=DIRECTION('',(1.,0.,0.));
#246=DIRECTION('',(-3.32943974227833E-17,0.,-1.));
#247=DIRECTION('',(1.,0.,0.));
#248=DIRECTION('',(0.,0.,-1.));
#249=CARTESIAN_POINT('',(0.,0.,0.));
#250=CARTESIAN_POINT('',(413.7,0.,0.));
#251=CARTESIAN_POINT('',(413.7,0.,14.209713346506));
#252=CARTESIAN_POINT('',(413.7,8.75,0.));
#253=CARTESIAN_POINT('',(412.212566719801,0.,0.));
#254=CARTESIAN_POINT('',(412.212566719801,0.,15.982367301928));
#255=CARTESIAN_POINT('',(411.9,0.,0.));
#256=CARTESIAN_POINT('',(412.1125667198,0.,0.));
#257=CARTESIAN_POINT('',(412.1125667198,0.,15.9999999999989));
#258=CARTESIAN_POINT('',(412.212566719801,0.,0.));
#259=CARTESIAN_POINT('',(1.,0.,0.));
#260=CARTESIAN_POINT('',(1.,0.,16.));
#261=CARTESIAN_POINT('',(0.,0.,0.));
#262=CARTESIAN_POINT('',(2.22044604925027E-16,0.,0.));
#263=CARTESIAN_POINT('',(2.22044604925027E-16,0.,15.));
#264=CARTESIAN_POINT('',(1.,0.,0.));
#265=CARTESIAN_POINT('',(-2.30000000000001,1.65327317884892E-15,0.));
#266=CARTESIAN_POINT('',(-2.30000000000001,1.65327317884892E-15,15.3));
#267=CARTESIAN_POINT('',(-2.30000000000001,4.5,0.));
#268=CARTESIAN_POINT('',(-0.4,1.65327317884892E-15,0.));
#269=CARTESIAN_POINT('',(-0.4,1.65327317884892E-15,-16.));
#270=CARTESIAN_POINT('',(-1.60000000000001,1.65327317884892E-15,0.));
#271=CARTESIAN_POINT('',(-1.60000000000001,1.65327317884892E-15,16.));
#272=CARTESIAN_POINT('',(-2.3,1.65327317884892E-15,0.));
#273=CARTESIAN_POINT('',(0.,1.65327317884892E-15,0.));
#274=CARTESIAN_POINT('',(0.,1.65327317884892E-15,-15.6));
#275=CARTESIAN_POINT('',(0.,16.,0.));
#276=CARTESIAN_POINT('',(-1.60000000000001,1.65327317884892E-15,0.));
#277=CARTESIAN_POINT('',(-0.4,1.65327317884892E-15,0.));
#278=(
GEOMETRIC_REPRESENTATION_CONTEXT(3)
GLOBAL_UNCERTAINTY_ASSIGNED_CONTEXT((#279))
GLOBAL_UNIT_ASSIGNED_CONTEXT((#285,#281,#280))
REPRESENTATION_CONTEXT('ATTB-D32-416-10D-H','TOP_LEVEL_ASSEMBLY_PART')
);
#279=UNCERTAINTY_MEASURE_WITH_UNIT(LENGTH_MEASURE(2.E-5),#285,
'DISTANCE_ACCURACY_VALUE','Maximum Tolerance applied to model');
#280=(
NAMED_UNIT(*)
SI_UNIT($,.STERADIAN.)
SOLID_ANGLE_UNIT()
);
#281=(
CONVERSION_BASED_UNIT('DEGREE',#283)
NAMED_UNIT(#282)
PLANE_ANGLE_UNIT()
);
#282=DIMENSIONAL_EXPONENTS(0.,0.,0.,0.,0.,0.,0.);
#283=PLANE_ANGLE_MEASURE_WITH_UNIT(PLANE_ANGLE_MEASURE(0.0174532925),#284);
#284=(
NAMED_UNIT(*)
PLANE_ANGLE_UNIT()
SI_UNIT($,.RADIAN.)
);
#285=(
LENGTH_UNIT()
NAMED_UNIT(*)
SI_UNIT(.MILLI.,.METRE.)
);
ENDSEC;
END-ISO-10303-21;
