ISO-10303-21;
HEADER;
/* Generated by software containing ST-Developer
 * from STEP Tools, Inc. (www.steptools.com) 
 */
/* OPTION: using custom schema-name function */

FILE_DESCRIPTION(
/* description */ (''),
/* implementation_level */ '2;1');

FILE_NAME(
/* name */ 'ATTB-D40-528-10D-H.stp',
/* time_stamp */ '2023-11-10T09:30:15+03:00',
/* author */ (''),
/* organization */ (''),
/* preprocessor_version */ 'ST-DEVELOPER v19.4',
/* originating_system */ 'SIEMENS PLM Software NX2306.3001',
/* authorisation */ '');

FILE_SCHEMA (('AP203_CONFIGURATION_CONTROLLED_3D_DESIGN_OF_MECHANICAL_PARTS_AND_ASSEMBLIES_MIM_LF { 1 0 10303 403 2 1 2}'));
ENDSEC;

DATA;
#10=SHAPE_REPRESENTATION_RELATIONSHIP('None',
'relationship between model1-None and model1-None',#76,#11);
#11=ADVANCED_BREP_SHAPE_REPRESENTATION('model1-None',(#136),#390);
#12=APPLIED_APPROVAL_ASSIGNMENT(#24,(#66));
#13=APPLIED_APPROVAL_ASSIGNMENT(#25,(#68));
#14=APPLIED_APPROVAL_ASSIGNMENT(#26,(#38));
#15=APPROVAL_PERSON_ORGANIZATION(#30,#24,#18);
#16=APPROVAL_PERSON_ORGANIZATION(#31,#25,#19);
#17=APPROVAL_PERSON_ORGANIZATION(#32,#26,#20);
#18=APPROVAL_ROLE('approver');
#19=APPROVAL_ROLE('approver');
#20=APPROVAL_ROLE('approver');
#21=APPROVAL_DATE_TIME(#46,#24);
#22=APPROVAL_DATE_TIME(#47,#25);
#23=APPROVAL_DATE_TIME(#48,#26);
#24=APPROVAL(#27,' ');
#25=APPROVAL(#28,' ');
#26=APPROVAL(#29,' ');
#27=APPROVAL_STATUS('not_yet_approved');
#28=APPROVAL_STATUS('not_yet_approved');
#29=APPROVAL_STATUS('not_yet_approved');
#30=PERSON_AND_ORGANIZATION(#36,#33);
#31=PERSON_AND_ORGANIZATION(#36,#34);
#32=PERSON_AND_ORGANIZATION(#36,#35);
#33=ORGANIZATION(' ',' ',' ');
#34=ORGANIZATION(' ',' ',' ');
#35=ORGANIZATION(' ',' ',' ');
#36=PERSON(' ',' ',' ',(' '),$,$);
#37=APPLIED_SECURITY_CLASSIFICATION_ASSIGNMENT(#38,(#68));
#38=SECURITY_CLASSIFICATION(' ',' ',#39);
#39=SECURITY_CLASSIFICATION_LEVEL('confidential');
#40=APPLIED_DATE_AND_TIME_ASSIGNMENT(#44,#42,(#66));
#41=APPLIED_DATE_AND_TIME_ASSIGNMENT(#45,#43,(#38));
#42=DATE_TIME_ROLE('creation_date');
#43=DATE_TIME_ROLE('classification_date');
#44=DATE_AND_TIME(#59,#49);
#45=DATE_AND_TIME(#60,#50);
#46=DATE_AND_TIME(#61,#51);
#47=DATE_AND_TIME(#62,#52);
#48=DATE_AND_TIME(#63,#53);
#49=LOCAL_TIME(0,0,0.,#54);
#50=LOCAL_TIME(0,0,0.,#55);
#51=LOCAL_TIME(0,0,0.,#56);
#52=LOCAL_TIME(0,0,0.,#57);
#53=LOCAL_TIME(0,0,0.,#58);
#54=COORDINATED_UNIVERSAL_TIME_OFFSET(0,0,.BEHIND.);
#55=COORDINATED_UNIVERSAL_TIME_OFFSET(0,0,.BEHIND.);
#56=COORDINATED_UNIVERSAL_TIME_OFFSET(0,0,.BEHIND.);
#57=COORDINATED_UNIVERSAL_TIME_OFFSET(0,0,.BEHIND.);
#58=COORDINATED_UNIVERSAL_TIME_OFFSET(0,0,.BEHIND.);
#59=CALENDAR_DATE(0,1,1);
#60=CALENDAR_DATE(0,1,1);
#61=CALENDAR_DATE(0,1,1);
#62=CALENDAR_DATE(0,1,1);
#63=CALENDAR_DATE(0,1,1);
#64=SHAPE_DEFINITION_REPRESENTATION(#65,#76);
#65=PRODUCT_DEFINITION_SHAPE('','',#66);
#66=PRODUCT_DEFINITION(' ','',#68,#67);
#67=PRODUCT_DEFINITION_CONTEXT('part definition',#75,'design');
#68=PRODUCT_DEFINITION_FORMATION_WITH_SPECIFIED_SOURCE(' ',' ',#70,
 .NOT_KNOWN.);
#69=PRODUCT_RELATED_PRODUCT_CATEGORY('detail','',(#70));
#70=PRODUCT('model1','model1',' ',(#73));
#71=PRODUCT_CATEGORY('part',' ');
#72=PRODUCT_CATEGORY(' ','');
#73=PRODUCT_CONTEXT(' ',#75,'mechanical');
#74=APPLICATION_PROTOCOL_DEFINITION('international standard',
'config_control_design',2010,#75);
#75=APPLICATION_CONTEXT(
'configuration controlled 3D designs of mechanical parts and assemblie
s');
#76=SHAPE_REPRESENTATION('model1-None',(#274),#390);
#77=OVER_RIDING_STYLED_ITEM('',(#87),#176,#85);
#78=OVER_RIDING_STYLED_ITEM('',(#88),#177,#85);
#79=OVER_RIDING_STYLED_ITEM('',(#89),#178,#85);
#80=OVER_RIDING_STYLED_ITEM('',(#90),#179,#85);
#81=OVER_RIDING_STYLED_ITEM('',(#91),#180,#85);
#82=OVER_RIDING_STYLED_ITEM('',(#92),#182,#85);
#83=OVER_RIDING_STYLED_ITEM('',(#93),#183,#85);
#84=PRESENTATION_LAYER_ASSIGNMENT('1','Layer 1',(#136));
#85=STYLED_ITEM('',(#86),#136);
#86=PRESENTATION_STYLE_ASSIGNMENT((#94));
#87=PRESENTATION_STYLE_ASSIGNMENT((#95));
#88=PRESENTATION_STYLE_ASSIGNMENT((#96));
#89=PRESENTATION_STYLE_ASSIGNMENT((#97));
#90=PRESENTATION_STYLE_ASSIGNMENT((#98));
#91=PRESENTATION_STYLE_ASSIGNMENT((#99));
#92=PRESENTATION_STYLE_ASSIGNMENT((#100));
#93=PRESENTATION_STYLE_ASSIGNMENT((#101));
#94=SURFACE_STYLE_USAGE(.BOTH.,#102);
#95=SURFACE_STYLE_USAGE(.BOTH.,#103);
#96=SURFACE_STYLE_USAGE(.BOTH.,#104);
#97=SURFACE_STYLE_USAGE(.BOTH.,#105);
#98=SURFACE_STYLE_USAGE(.BOTH.,#106);
#99=SURFACE_STYLE_USAGE(.BOTH.,#107);
#100=SURFACE_STYLE_USAGE(.BOTH.,#108);
#101=SURFACE_STYLE_USAGE(.BOTH.,#109);
#102=SURFACE_SIDE_STYLE('',(#110));
#103=SURFACE_SIDE_STYLE('',(#111));
#104=SURFACE_SIDE_STYLE('',(#112));
#105=SURFACE_SIDE_STYLE('',(#113));
#106=SURFACE_SIDE_STYLE('',(#114));
#107=SURFACE_SIDE_STYLE('',(#115));
#108=SURFACE_SIDE_STYLE('',(#116));
#109=SURFACE_SIDE_STYLE('',(#117));
#110=SURFACE_STYLE_FILL_AREA(#118);
#111=SURFACE_STYLE_FILL_AREA(#119);
#112=SURFACE_STYLE_FILL_AREA(#120);
#113=SURFACE_STYLE_FILL_AREA(#121);
#114=SURFACE_STYLE_FILL_AREA(#122);
#115=SURFACE_STYLE_FILL_AREA(#123);
#116=SURFACE_STYLE_FILL_AREA(#124);
#117=SURFACE_STYLE_FILL_AREA(#125);
#118=FILL_AREA_STYLE('',(#126));
#119=FILL_AREA_STYLE('',(#127));
#120=FILL_AREA_STYLE('',(#128));
#121=FILL_AREA_STYLE('',(#129));
#122=FILL_AREA_STYLE('',(#130));
#123=FILL_AREA_STYLE('',(#131));
#124=FILL_AREA_STYLE('',(#132));
#125=FILL_AREA_STYLE('',(#133));
#126=FILL_AREA_STYLE_COLOUR('',#134);
#127=FILL_AREA_STYLE_COLOUR('',#135);
#128=FILL_AREA_STYLE_COLOUR('',#135);
#129=FILL_AREA_STYLE_COLOUR('',#135);
#130=FILL_AREA_STYLE_COLOUR('',#135);
#131=FILL_AREA_STYLE_COLOUR('',#135);
#132=FILL_AREA_STYLE_COLOUR('',#135);
#133=FILL_AREA_STYLE_COLOUR('',#135);
#134=COLOUR_RGB('medium steel',0.611764705882353,0.658823529411765,0.670588235294118);
#135=COLOUR_RGB('smoke gray',0.694117647058824,0.694117647058824,0.694117647058824);
#136=BREP_WITH_VOIDS('',#138,(#137));
#137=ORIENTED_CLOSED_SHELL('',*,#139,.F.);
#138=CLOSED_SHELL('',(#171,#172,#173,#174,#175,#176,#177,#178,#179,#180));
#139=CLOSED_SHELL('',(#181,#182,#183));
#140=CYLINDRICAL_SURFACE('',#282,20.);
#141=CYLINDRICAL_SURFACE('',#290,20.);
#142=CONICAL_SURFACE('',#280,19.9823673019294,10.0000000000743);
#143=CONICAL_SURFACE('',#288,20.,45.);
#144=CONICAL_SURFACE('',#299,17.9317649001909,84.9999999999943);
#145=TOROIDAL_SURFACE('',#278,17.0279440428932,2.99999999999994);
#146=TOROIDAL_SURFACE('',#284,19.,1.);
#147=TOROIDAL_SURFACE('',#292,19.6,0.4);
#148=TOROIDAL_SURFACE('',#298,17.8,0.400000000000007);
#149=FACE_BOUND('',#191,.T.);
#150=FACE_BOUND('',#192,.T.);
#151=FACE_BOUND('',#193,.T.);
#152=FACE_BOUND('',#194,.T.);
#153=FACE_BOUND('',#195,.T.);
#154=FACE_BOUND('',#196,.T.);
#155=FACE_BOUND('',#197,.T.);
#156=FACE_BOUND('',#198,.T.);
#157=FACE_BOUND('',#200,.T.);
#158=FACE_BOUND('',#201,.T.);
#159=FACE_BOUND('',#202,.T.);
#160=FACE_BOUND('',#203,.T.);
#161=FACE_BOUND('',#204,.T.);
#162=FACE_BOUND('',#205,.T.);
#163=FACE_BOUND('',#206,.T.);
#164=FACE_BOUND('',#207,.T.);
#165=FACE_BOUND('',#208,.F.);
#166=FACE_BOUND('',#209,.F.);
#167=FACE_BOUND('',#210,.F.);
#168=FACE_BOUND('',#211,.F.);
#169=FACE_BOUND('',#212,.F.);
#170=FACE_BOUND('',#213,.F.);
#171=ADVANCED_FACE('',(#188),#184,.F.);
#172=ADVANCED_FACE('',(#149,#150),#145,.T.);
#173=ADVANCED_FACE('',(#151,#152),#142,.T.);
#174=ADVANCED_FACE('',(#153,#154),#140,.T.);
#175=ADVANCED_FACE('',(#155,#156),#146,.T.);
#176=ADVANCED_FACE('',(#189),#185,.T.);
#177=ADVANCED_FACE('',(#157,#158),#143,.T.);
#178=ADVANCED_FACE('',(#159,#160),#141,.T.);
#179=ADVANCED_FACE('',(#161,#162),#147,.T.);
#180=ADVANCED_FACE('',(#163,#164),#186,.T.);
#181=ADVANCED_FACE('',(#165,#166),#187,.T.);
#182=ADVANCED_FACE('',(#167,#168),#148,.T.);
#183=ADVANCED_FACE('',(#169,#170),#144,.T.);
#184=PLANE('',#276);
#185=PLANE('',#286);
#186=PLANE('',#293);
#187=PLANE('',#296);
#188=FACE_OUTER_BOUND('',#190,.T.);
#189=FACE_OUTER_BOUND('',#199,.T.);
#190=EDGE_LOOP('',(#214));
#191=EDGE_LOOP('',(#215));
#192=EDGE_LOOP('',(#216));
#193=EDGE_LOOP('',(#217));
#194=EDGE_LOOP('',(#218));
#195=EDGE_LOOP('',(#219));
#196=EDGE_LOOP('',(#220));
#197=EDGE_LOOP('',(#221));
#198=EDGE_LOOP('',(#222));
#199=EDGE_LOOP('',(#223));
#200=EDGE_LOOP('',(#224));
#201=EDGE_LOOP('',(#225));
#202=EDGE_LOOP('',(#226));
#203=EDGE_LOOP('',(#227));
#204=EDGE_LOOP('',(#228));
#205=EDGE_LOOP('',(#229));
#206=EDGE_LOOP('',(#230));
#207=EDGE_LOOP('',(#231));
#208=EDGE_LOOP('',(#232));
#209=EDGE_LOOP('',(#233));
#210=EDGE_LOOP('',(#234));
#211=EDGE_LOOP('',(#235));
#212=EDGE_LOOP('',(#236));
#213=EDGE_LOOP('',(#237));
#214=ORIENTED_EDGE('',*,*,#250,.F.);
#215=ORIENTED_EDGE('',*,*,#251,.F.);
#216=ORIENTED_EDGE('',*,*,#250,.T.);
#217=ORIENTED_EDGE('',*,*,#252,.F.);
#218=ORIENTED_EDGE('',*,*,#251,.T.);
#219=ORIENTED_EDGE('',*,*,#253,.F.);
#220=ORIENTED_EDGE('',*,*,#252,.T.);
#221=ORIENTED_EDGE('',*,*,#254,.F.);
#222=ORIENTED_EDGE('',*,*,#253,.T.);
#223=ORIENTED_EDGE('',*,*,#255,.T.);
#224=ORIENTED_EDGE('',*,*,#255,.F.);
#225=ORIENTED_EDGE('',*,*,#256,.F.);
#226=ORIENTED_EDGE('',*,*,#257,.T.);
#227=ORIENTED_EDGE('',*,*,#256,.T.);
#228=ORIENTED_EDGE('',*,*,#257,.F.);
#229=ORIENTED_EDGE('',*,*,#258,.F.);
#230=ORIENTED_EDGE('',*,*,#254,.T.);
#231=ORIENTED_EDGE('',*,*,#258,.T.);
#232=ORIENTED_EDGE('',*,*,#259,.T.);
#233=ORIENTED_EDGE('',*,*,#260,.T.);
#234=ORIENTED_EDGE('',*,*,#261,.F.);
#235=ORIENTED_EDGE('',*,*,#260,.F.);
#236=ORIENTED_EDGE('',*,*,#261,.T.);
#237=ORIENTED_EDGE('',*,*,#259,.F.);
#238=VERTEX_POINT('',#354);
#239=VERTEX_POINT('',#357);
#240=VERTEX_POINT('',#360);
#241=VERTEX_POINT('',#363);
#242=VERTEX_POINT('',#366);
#243=VERTEX_POINT('',#369);
#244=VERTEX_POINT('',#372);
#245=VERTEX_POINT('',#375);
#246=VERTEX_POINT('',#378);
#247=VERTEX_POINT('',#382);
#248=VERTEX_POINT('',#384);
#249=VERTEX_POINT('',#387);
#250=EDGE_CURVE('',#238,#238,#262,.T.);
#251=EDGE_CURVE('',#239,#239,#263,.T.);
#252=EDGE_CURVE('',#240,#240,#264,.T.);
#253=EDGE_CURVE('',#241,#241,#265,.T.);
#254=EDGE_CURVE('',#242,#242,#266,.T.);
#255=EDGE_CURVE('',#243,#243,#267,.T.);
#256=EDGE_CURVE('',#244,#244,#268,.T.);
#257=EDGE_CURVE('',#245,#245,#269,.T.);
#258=EDGE_CURVE('',#246,#246,#270,.T.);
#259=EDGE_CURVE('',#247,#247,#271,.T.);
#260=EDGE_CURVE('',#248,#248,#272,.T.);
#261=EDGE_CURVE('',#249,#249,#273,.T.);
#262=CIRCLE('',#275,17.0279440428932);
#263=CIRCLE('',#277,19.9823673019294);
#264=CIRCLE('',#279,20.);
#265=CIRCLE('',#281,20.);
#266=CIRCLE('',#283,19.);
#267=CIRCLE('',#285,19.3);
#268=CIRCLE('',#287,20.);
#269=CIRCLE('',#289,20.);
#270=CIRCLE('',#291,19.6);
#271=CIRCLE('',#294,17.9317649001909);
#272=CIRCLE('',#295,17.7111180558268);
#273=CIRCLE('',#297,17.8348622970991);
#274=AXIS2_PLACEMENT_3D('',#352,#300,#301);
#275=AXIS2_PLACEMENT_3D('',#353,#302,#303);
#276=AXIS2_PLACEMENT_3D('',#355,#304,#305);
#277=AXIS2_PLACEMENT_3D('',#356,#306,#307);
#278=AXIS2_PLACEMENT_3D('',#358,#308,#309);
#279=AXIS2_PLACEMENT_3D('',#359,#310,#311);
#280=AXIS2_PLACEMENT_3D('',#361,#312,#313);
#281=AXIS2_PLACEMENT_3D('',#362,#314,#315);
#282=AXIS2_PLACEMENT_3D('',#364,#316,#317);
#283=AXIS2_PLACEMENT_3D('',#365,#318,#319);
#284=AXIS2_PLACEMENT_3D('',#367,#320,#321);
#285=AXIS2_PLACEMENT_3D('',#368,#322,#323);
#286=AXIS2_PLACEMENT_3D('',#370,#324,#325);
#287=AXIS2_PLACEMENT_3D('',#371,#326,#327);
#288=AXIS2_PLACEMENT_3D('',#373,#328,#329);
#289=AXIS2_PLACEMENT_3D('',#374,#330,#331);
#290=AXIS2_PLACEMENT_3D('',#376,#332,#333);
#291=AXIS2_PLACEMENT_3D('',#377,#334,#335);
#292=AXIS2_PLACEMENT_3D('',#379,#336,#337);
#293=AXIS2_PLACEMENT_3D('',#380,#338,#339);
#294=AXIS2_PLACEMENT_3D('',#381,#340,#341);
#295=AXIS2_PLACEMENT_3D('',#383,#342,#343);
#296=AXIS2_PLACEMENT_3D('',#385,#344,#345);
#297=AXIS2_PLACEMENT_3D('',#386,#346,#347);
#298=AXIS2_PLACEMENT_3D('',#388,#348,#349);
#299=AXIS2_PLACEMENT_3D('',#389,#350,#351);
#300=DIRECTION('',(0.,0.,1.));
#301=DIRECTION('',(1.,0.,0.));
#302=DIRECTION('',(-1.,0.,0.));
#303=DIRECTION('',(0.,0.,1.));
#304=DIRECTION('',(-1.,0.,0.));
#305=DIRECTION('',(0.,0.,1.));
#306=DIRECTION('',(-1.,0.,0.));
#307=DIRECTION('',(0.,0.,1.));
#308=DIRECTION('',(-1.,0.,0.));
#309=DIRECTION('',(0.,0.,1.));
#310=DIRECTION('',(-1.,0.,0.));
#311=DIRECTION('',(0.,0.,1.));
#312=DIRECTION('',(-1.,0.,0.));
#313=DIRECTION('',(0.,0.,1.));
#314=DIRECTION('',(-1.,0.,0.));
#315=DIRECTION('',(0.,0.,1.));
#316=DIRECTION('',(-1.,0.,0.));
#317=DIRECTION('',(0.,0.,1.));
#318=DIRECTION('',(-1.,0.,0.));
#319=DIRECTION('',(0.,0.,1.));
#320=DIRECTION('',(-1.,0.,0.));
#321=DIRECTION('',(0.,0.,1.));
#322=DIRECTION('',(-1.,0.,0.));
#323=DIRECTION('',(0.,0.,1.));
#324=DIRECTION('',(-1.,0.,0.));
#325=DIRECTION('',(0.,0.,1.));
#326=DIRECTION('',(1.,0.,0.));
#327=DIRECTION('',(0.,0.,1.));
#328=DIRECTION('',(1.,0.,0.));
#329=DIRECTION('',(-4.50687961895936E-17,0.,-1.));
#330=DIRECTION('',(-1.,0.,0.));
#331=DIRECTION('',(0.,0.,-1.));
#332=DIRECTION('',(-1.,0.,0.));
#333=DIRECTION('',(0.,0.,1.));
#334=DIRECTION('',(1.,0.,0.));
#335=DIRECTION('',(0.,0.,-1.));
#336=DIRECTION('',(1.,0.,0.));
#337=DIRECTION('',(0.,0.,-1.));
#338=DIRECTION('',(1.,0.,0.));
#339=DIRECTION('',(0.,0.,-1.));
#340=DIRECTION('',(-1.,0.,0.));
#341=DIRECTION('',(0.,0.,1.));
#342=DIRECTION('',(1.,0.,0.));
#343=DIRECTION('',(0.,0.,1.));
#344=DIRECTION('',(1.,0.,0.));
#345=DIRECTION('',(0.,0.,-1.));
#346=DIRECTION('',(-1.,0.,0.));
#347=DIRECTION('',(0.,0.,1.));
#348=DIRECTION('',(-1.,0.,0.));
#349=DIRECTION('',(0.,0.,1.));
#350=DIRECTION('',(1.,0.,0.));
#351=DIRECTION('',(0.,0.,-1.));
#352=CARTESIAN_POINT('',(0.,0.,0.));
#353=CARTESIAN_POINT('',(525.7,0.,0.));
#354=CARTESIAN_POINT('',(525.7,0.,17.0279440428932));
#355=CARTESIAN_POINT('',(525.7,7.5,0.));
#356=CARTESIAN_POINT('',(523.220944533003,0.,0.));
#357=CARTESIAN_POINT('',(523.220944533003,0.,19.9823673019294));
#358=CARTESIAN_POINT('',(522.7,0.,0.));
#359=CARTESIAN_POINT('',(523.120944533004,0.,0.));
#360=CARTESIAN_POINT('',(523.120944533004,0.,20.));
#361=CARTESIAN_POINT('',(523.220944533003,0.,0.));
#362=CARTESIAN_POINT('',(1.00000000000011,0.,0.));
#363=CARTESIAN_POINT('',(1.00000000000011,0.,20.));
#364=CARTESIAN_POINT('',(0.,0.,0.));
#365=CARTESIAN_POINT('',(2.22044604925026E-16,0.,0.));
#366=CARTESIAN_POINT('',(2.22044604925026E-16,0.,19.));
#367=CARTESIAN_POINT('',(1.00000000000006,0.,0.));
#368=CARTESIAN_POINT('',(-2.3,-2.15105711021123E-15,4.77630626208033E-30));
#369=CARTESIAN_POINT('',(-2.3,-2.15105711021123E-15,19.3));
#370=CARTESIAN_POINT('',(-2.3,4.5,4.77630626208033E-30));
#371=CARTESIAN_POINT('',(-1.6,-2.15105711021123E-15,4.77630626208033E-30));
#372=CARTESIAN_POINT('',(-1.6,-2.15105711021123E-15,20.));
#373=CARTESIAN_POINT('',(-1.6,-2.15105711021123E-15,4.77630626208033E-30));
#374=CARTESIAN_POINT('',(-0.4,-2.15105711021123E-15,4.77630626208033E-30));
#375=CARTESIAN_POINT('',(-0.4,-2.15105711021123E-15,-20.));
#376=CARTESIAN_POINT('',(-2.3,-2.15105711021123E-15,4.77630626208033E-30));
#377=CARTESIAN_POINT('',(0.,-2.15105711021123E-15,4.77630626208033E-30));
#378=CARTESIAN_POINT('',(0.,-2.15105711021123E-15,-19.6));
#379=CARTESIAN_POINT('',(-0.4,-2.15105711021123E-15,4.77630626208033E-30));
#380=CARTESIAN_POINT('',(0.,20.,4.77630626208033E-30));
#381=CARTESIAN_POINT('',(0.,-2.15105711021123E-15,4.77630626208033E-30));
#382=CARTESIAN_POINT('',(0.,-2.15105711021123E-15,17.9317649001909));
#383=CARTESIAN_POINT('',(1.0842021724855E-16,-2.15105711021123E-15,4.77630626208033E-30));
#384=CARTESIAN_POINT('',(1.0842021724855E-16,-2.15105711021123E-15,17.7111180558268));
#385=CARTESIAN_POINT('',(1.11022302462582E-16,19.,0.));
#386=CARTESIAN_POINT('',(-0.00847787923670537,-2.15105711021123E-15,4.77630626208033E-30));
#387=CARTESIAN_POINT('',(-0.00847787923670537,-2.15105711021123E-15,17.8348622970991));
#388=CARTESIAN_POINT('',(0.39,-2.15105711021123E-15,4.77630626208033E-30));
#389=CARTESIAN_POINT('',(0.,-2.15105711021123E-15,4.77630626208033E-30));
#390=(
GEOMETRIC_REPRESENTATION_CONTEXT(3)
GLOBAL_UNCERTAINTY_ASSIGNED_CONTEXT((#391))
GLOBAL_UNIT_ASSIGNED_CONTEXT((#397,#393,#392))
REPRESENTATION_CONTEXT('ATTB-D40-528-10D-H','TOP_LEVEL_ASSEMBLY_PART')
);
#391=UNCERTAINTY_MEASURE_WITH_UNIT(LENGTH_MEASURE(2.E-5),#397,
'DISTANCE_ACCURACY_VALUE','Maximum Tolerance applied to model');
#392=(
NAMED_UNIT(*)
SI_UNIT($,.STERADIAN.)
SOLID_ANGLE_UNIT()
);
#393=(
CONVERSION_BASED_UNIT('DEGREE',#395)
NAMED_UNIT(#394)
PLANE_ANGLE_UNIT()
);
#394=DIMENSIONAL_EXPONENTS(0.,0.,0.,0.,0.,0.,0.);
#395=PLANE_ANGLE_MEASURE_WITH_UNIT(PLANE_ANGLE_MEASURE(0.0174532925),#396);
#396=(
NAMED_UNIT(*)
PLANE_ANGLE_UNIT()
SI_UNIT($,.RADIAN.)
);
#397=(
LENGTH_UNIT()
NAMED_UNIT(*)
SI_UNIT(.MILLI.,.METRE.)
);
ENDSEC;
END-ISO-10303-21;
