ISO-10303-21;
HEADER;
/* Generated by software containing ST-Developer
 * from STEP Tools, Inc. (www.steptools.com) 
 */
/* OPTION: using custom schema-name function */

FILE_DESCRIPTION(
/* description */ (''),
/* implementation_level */ '2;1');

FILE_NAME(
/* name */ 'ATTB-D50-669-10D-H.stp',
/* time_stamp */ '2023-11-13T12:24:11+03:00',
/* author */ (''),
/* organization */ (''),
/* preprocessor_version */ 'ST-DEVELOPER v19.4',
/* originating_system */ 'SIEMENS PLM Software NX2306.3001',
/* authorisation */ '');

FILE_SCHEMA (('AP203_CONFIGURATION_CONTROLLED_3D_DESIGN_OF_MECHANICAL_PARTS_AND_ASSEMBLIES_MIM_LF { 1 0 10303 403 2 1 2}'));
ENDSEC;

DATA;
#10=SHAPE_REPRESENTATION_RELATIONSHIP('None',
'relationship between model1-None and model1-None',#76,#11);
#11=ADVANCED_BREP_SHAPE_REPRESENTATION('model1-None',(#86),#619);
#12=APPLIED_APPROVAL_ASSIGNMENT(#24,(#66));
#13=APPLIED_APPROVAL_ASSIGNMENT(#25,(#68));
#14=APPLIED_APPROVAL_ASSIGNMENT(#26,(#38));
#15=APPROVAL_PERSON_ORGANIZATION(#30,#24,#18);
#16=APPROVAL_PERSON_ORGANIZATION(#31,#25,#19);
#17=APPROVAL_PERSON_ORGANIZATION(#32,#26,#20);
#18=APPROVAL_ROLE('approver');
#19=APPROVAL_ROLE('approver');
#20=APPROVAL_ROLE('approver');
#21=APPROVAL_DATE_TIME(#46,#24);
#22=APPROVAL_DATE_TIME(#47,#25);
#23=APPROVAL_DATE_TIME(#48,#26);
#24=APPROVAL(#27,' ');
#25=APPROVAL(#28,' ');
#26=APPROVAL(#29,' ');
#27=APPROVAL_STATUS('not_yet_approved');
#28=APPROVAL_STATUS('not_yet_approved');
#29=APPROVAL_STATUS('not_yet_approved');
#30=PERSON_AND_ORGANIZATION(#36,#33);
#31=PERSON_AND_ORGANIZATION(#36,#34);
#32=PERSON_AND_ORGANIZATION(#36,#35);
#33=ORGANIZATION(' ',' ',' ');
#34=ORGANIZATION(' ',' ',' ');
#35=ORGANIZATION(' ',' ',' ');
#36=PERSON(' ',' ',' ',(' '),$,$);
#37=APPLIED_SECURITY_CLASSIFICATION_ASSIGNMENT(#38,(#68));
#38=SECURITY_CLASSIFICATION(' ',' ',#39);
#39=SECURITY_CLASSIFICATION_LEVEL('confidential');
#40=APPLIED_DATE_AND_TIME_ASSIGNMENT(#44,#42,(#66));
#41=APPLIED_DATE_AND_TIME_ASSIGNMENT(#45,#43,(#38));
#42=DATE_TIME_ROLE('creation_date');
#43=DATE_TIME_ROLE('classification_date');
#44=DATE_AND_TIME(#59,#49);
#45=DATE_AND_TIME(#60,#50);
#46=DATE_AND_TIME(#61,#51);
#47=DATE_AND_TIME(#62,#52);
#48=DATE_AND_TIME(#63,#53);
#49=LOCAL_TIME(0,0,0.,#54);
#50=LOCAL_TIME(0,0,0.,#55);
#51=LOCAL_TIME(0,0,0.,#56);
#52=LOCAL_TIME(0,0,0.,#57);
#53=LOCAL_TIME(0,0,0.,#58);
#54=COORDINATED_UNIVERSAL_TIME_OFFSET(0,0,.BEHIND.);
#55=COORDINATED_UNIVERSAL_TIME_OFFSET(0,0,.BEHIND.);
#56=COORDINATED_UNIVERSAL_TIME_OFFSET(0,0,.BEHIND.);
#57=COORDINATED_UNIVERSAL_TIME_OFFSET(0,0,.BEHIND.);
#58=COORDINATED_UNIVERSAL_TIME_OFFSET(0,0,.BEHIND.);
#59=CALENDAR_DATE(0,1,1);
#60=CALENDAR_DATE(0,1,1);
#61=CALENDAR_DATE(0,1,1);
#62=CALENDAR_DATE(0,1,1);
#63=CALENDAR_DATE(0,1,1);
#64=SHAPE_DEFINITION_REPRESENTATION(#65,#76);
#65=PRODUCT_DEFINITION_SHAPE('','',#66);
#66=PRODUCT_DEFINITION(' ','',#68,#67);
#67=PRODUCT_DEFINITION_CONTEXT('part definition',#75,'design');
#68=PRODUCT_DEFINITION_FORMATION_WITH_SPECIFIED_SOURCE(' ',' ',#70,
 .NOT_KNOWN.);
#69=PRODUCT_RELATED_PRODUCT_CATEGORY('detail','',(#70));
#70=PRODUCT('model1','model1',' ',(#73));
#71=PRODUCT_CATEGORY('part',' ');
#72=PRODUCT_CATEGORY(' ','');
#73=PRODUCT_CONTEXT(' ',#75,'mechanical');
#74=APPLICATION_PROTOCOL_DEFINITION('international standard',
'config_control_design',2010,#75);
#75=APPLICATION_CONTEXT(
'configuration controlled 3D designs of mechanical parts and assemblie
s');
#76=SHAPE_REPRESENTATION('model1-None',(#360),#619);
#77=PRESENTATION_LAYER_ASSIGNMENT('1','Layer 1',(#86));
#78=STYLED_ITEM('',(#79),#86);
#79=PRESENTATION_STYLE_ASSIGNMENT((#80));
#80=SURFACE_STYLE_USAGE(.BOTH.,#81);
#81=SURFACE_SIDE_STYLE('',(#82));
#82=SURFACE_STYLE_FILL_AREA(#83);
#83=FILL_AREA_STYLE('',(#84));
#84=FILL_AREA_STYLE_COLOUR('',#85);
#85=COLOUR_RGB('medium steel',0.611764705882353,0.658823529411765,0.670588235294118);
#86=MANIFOLD_SOLID_BREP('',#87);
#87=CLOSED_SHELL('',(#129,#130,#131,#132,#133,#134,#135,#136,#137,#138,
#139,#140,#141,#142,#143,#144,#145,#146,#147,#148,#149));
#88=TOROIDAL_SURFACE('',#377,20.4,0.4);
#89=TOROIDAL_SURFACE('',#380,24.6,0.4);
#90=TOROIDAL_SURFACE('',#385,24.,1.);
#91=TOROIDAL_SURFACE('',#391,22.0279440428925,2.99999999999955);
#92=B_SPLINE_SURFACE_WITH_KNOTS('',1,3,((#551,#552,#553,#554),(#555,#556,
#557,#558)),.UNSPECIFIED.,.F.,.F.,.F.,(2,2),(4,4),(0.,1.),(0.,1.),
 .UNSPECIFIED.);
#93=B_SPLINE_SURFACE_WITH_KNOTS('',1,3,((#580,#581,#582,#583),(#584,#585,
#586,#587)),.UNSPECIFIED.,.F.,.F.,.F.,(2,2),(4,4),(0.,1.),(0.,1.),
 .UNSPECIFIED.);
#94=CONICAL_SURFACE('',#370,8.67361737988404E-16,45.0000000000001);
#95=CONICAL_SURFACE('',#371,8.67361737988404E-16,45.0000000000001);
#96=CONICAL_SURFACE('',#374,25.,44.9999999999998);
#97=CONICAL_SURFACE('',#389,24.9823673019287,10.0000000002703);
#98=B_SPLINE_CURVE_WITH_KNOTS('',3,(#508,#509,#510,#511),.UNSPECIFIED.,
 .F.,.F.,(4,4),(0.,1.),.UNSPECIFIED.);
#99=B_SPLINE_CURVE_WITH_KNOTS('',3,(#512,#513,#514,#515),.UNSPECIFIED.,
 .F.,.F.,(4,4),(0.,1.),.UNSPECIFIED.);
#100=B_SPLINE_CURVE_WITH_KNOTS('',3,(#517,#518,#519,#520),.UNSPECIFIED.,
 .F.,.F.,(4,4),(0.,1.),.UNSPECIFIED.);
#101=B_SPLINE_CURVE_WITH_KNOTS('',3,(#521,#522,#523,#524),.UNSPECIFIED.,
 .F.,.F.,(4,4),(0.,1.),.UNSPECIFIED.);
#102=B_SPLINE_CURVE_WITH_KNOTS('',3,(#526,#527,#528,#529,#530,#531,#532,
#533,#534,#535,#536,#537,#538,#539,#540),.UNSPECIFIED.,.F.,.F.,(4,2,2,2,
1,2,2,4),(0.,0.249999999999999,0.374999999999998,0.437499999999998,0.468749999999998,
0.484374999999998,0.499999999999997,1.),.UNSPECIFIED.);
#103=B_SPLINE_CURVE_WITH_KNOTS('',3,(#542,#543,#544,#545,#546,#547),
 .UNSPECIFIED.,.F.,.F.,(4,2,4),(0.,0.5,1.),.UNSPECIFIED.);
#104=B_SPLINE_CURVE_WITH_KNOTS('',1,(#549,#550),.UNSPECIFIED.,.F.,.F.,(2,
2),(0.,1.),.UNSPECIFIED.);
#105=B_SPLINE_CURVE_WITH_KNOTS('',3,(#559,#560,#561,#562),.UNSPECIFIED.,
 .F.,.F.,(4,4),(0.,1.),.UNSPECIFIED.);
#106=B_SPLINE_CURVE_WITH_KNOTS('',3,(#568,#569,#570,#571,#572,#573),
 .UNSPECIFIED.,.F.,.F.,(4,2,4),(0.,0.5,1.),.UNSPECIFIED.);
#107=B_SPLINE_CURVE_WITH_KNOTS('',3,(#574,#575,#576,#577,#578,#579),
 .UNSPECIFIED.,.F.,.F.,(4,2,4),(0.,0.5,1.),.UNSPECIFIED.);
#108=PLANE('',#369);
#109=PLANE('',#376);
#110=PLANE('',#383);
#111=PLANE('',#392);
#112=PLANE('',#393);
#113=PLANE('',#394);
#114=PLANE('',#395);
#115=PLANE('',#396);
#116=FACE_OUTER_BOUND('',#187,.T.);
#117=FACE_OUTER_BOUND('',#188,.T.);
#118=FACE_OUTER_BOUND('',#189,.T.);
#119=FACE_OUTER_BOUND('',#190,.T.);
#120=FACE_OUTER_BOUND('',#191,.T.);
#121=FACE_OUTER_BOUND('',#192,.T.);
#122=FACE_OUTER_BOUND('',#193,.T.);
#123=FACE_OUTER_BOUND('',#194,.T.);
#124=FACE_OUTER_BOUND('',#209,.T.);
#125=FACE_OUTER_BOUND('',#210,.T.);
#126=FACE_OUTER_BOUND('',#211,.T.);
#127=FACE_OUTER_BOUND('',#212,.T.);
#128=FACE_OUTER_BOUND('',#213,.T.);
#129=ADVANCED_FACE('',(#169,#170),#150,.T.);
#130=ADVANCED_FACE('',(#116),#108,.F.);
#131=ADVANCED_FACE('',(#117),#94,.T.);
#132=ADVANCED_FACE('',(#118),#95,.T.);
#133=ADVANCED_FACE('',(#119),#92,.T.);
#134=ADVANCED_FACE('',(#120),#96,.T.);
#135=ADVANCED_FACE('',(#121),#93,.T.);
#136=ADVANCED_FACE('',(#122),#109,.F.);
#137=ADVANCED_FACE('',(#123),#88,.F.);
#138=ADVANCED_FACE('',(#171,#172),#89,.T.);
#139=ADVANCED_FACE('',(#173,#174),#151,.T.);
#140=ADVANCED_FACE('',(#175,#176),#110,.F.);
#141=ADVANCED_FACE('',(#177,#178),#90,.T.);
#142=ADVANCED_FACE('',(#179,#180),#152,.T.);
#143=ADVANCED_FACE('',(#181,#182),#97,.T.);
#144=ADVANCED_FACE('',(#183,#184),#91,.T.);
#145=ADVANCED_FACE('',(#124),#111,.F.);
#146=ADVANCED_FACE('',(#125),#112,.T.);
#147=ADVANCED_FACE('',(#126),#113,.T.);
#148=ADVANCED_FACE('',(#127),#114,.T.);
#149=ADVANCED_FACE('',(#128),#115,.T.);
#150=CYLINDRICAL_SURFACE('',#366,20.);
#151=CYLINDRICAL_SURFACE('',#381,25.);
#152=CYLINDRICAL_SURFACE('',#387,25.);
#153=LINE('',#485,#161);
#154=LINE('',#489,#162);
#155=LINE('',#493,#163);
#156=LINE('',#497,#164);
#157=LINE('',#499,#165);
#158=LINE('',#504,#166);
#159=LINE('',#613,#167);
#160=LINE('',#616,#168);
#161=VECTOR('',#403,1.);
#162=VECTOR('',#406,1.);
#163=VECTOR('',#409,1.);
#164=VECTOR('',#412,1.);
#165=VECTOR('',#415,1.);
#166=VECTOR('',#418,1.);
#167=VECTOR('',#469,1.);
#168=VECTOR('',#474,1.);
#169=FACE_BOUND('',#185,.T.);
#170=FACE_BOUND('',#186,.T.);
#171=FACE_BOUND('',#195,.T.);
#172=FACE_BOUND('',#196,.T.);
#173=FACE_BOUND('',#197,.T.);
#174=FACE_BOUND('',#198,.T.);
#175=FACE_BOUND('',#199,.T.);
#176=FACE_BOUND('',#200,.T.);
#177=FACE_BOUND('',#201,.T.);
#178=FACE_BOUND('',#202,.T.);
#179=FACE_BOUND('',#203,.T.);
#180=FACE_BOUND('',#204,.T.);
#181=FACE_BOUND('',#205,.T.);
#182=FACE_BOUND('',#206,.T.);
#183=FACE_BOUND('',#207,.T.);
#184=FACE_BOUND('',#208,.T.);
#185=EDGE_LOOP('',(#214));
#186=EDGE_LOOP('',(#215,#216,#217,#218,#219,#220,#221,#222));
#187=EDGE_LOOP('',(#223,#224,#225,#226));
#188=EDGE_LOOP('',(#227,#228,#229,#230));
#189=EDGE_LOOP('',(#231,#232,#233,#234));
#190=EDGE_LOOP('',(#235,#236,#237));
#191=EDGE_LOOP('',(#238,#239,#240,#241));
#192=EDGE_LOOP('',(#242,#243,#244));
#193=EDGE_LOOP('',(#245,#246));
#194=EDGE_LOOP('',(#247,#248,#249,#250));
#195=EDGE_LOOP('',(#251));
#196=EDGE_LOOP('',(#252));
#197=EDGE_LOOP('',(#253));
#198=EDGE_LOOP('',(#254,#255,#256));
#199=EDGE_LOOP('',(#257));
#200=EDGE_LOOP('',(#258));
#201=EDGE_LOOP('',(#259));
#202=EDGE_LOOP('',(#260));
#203=EDGE_LOOP('',(#261));
#204=EDGE_LOOP('',(#262));
#205=EDGE_LOOP('',(#263));
#206=EDGE_LOOP('',(#264));
#207=EDGE_LOOP('',(#265));
#208=EDGE_LOOP('',(#266));
#209=EDGE_LOOP('',(#267));
#210=EDGE_LOOP('',(#268,#269,#270,#271,#272,#273));
#211=EDGE_LOOP('',(#274,#275));
#212=EDGE_LOOP('',(#276,#277,#278,#279,#280,#281));
#213=EDGE_LOOP('',(#282,#283));
#214=ORIENTED_EDGE('',*,*,#308,.T.);
#215=ORIENTED_EDGE('',*,*,#309,.T.);
#216=ORIENTED_EDGE('',*,*,#310,.T.);
#217=ORIENTED_EDGE('',*,*,#311,.F.);
#218=ORIENTED_EDGE('',*,*,#312,.T.);
#219=ORIENTED_EDGE('',*,*,#313,.T.);
#220=ORIENTED_EDGE('',*,*,#314,.T.);
#221=ORIENTED_EDGE('',*,*,#315,.F.);
#222=ORIENTED_EDGE('',*,*,#316,.T.);
#223=ORIENTED_EDGE('',*,*,#317,.F.);
#224=ORIENTED_EDGE('',*,*,#318,.T.);
#225=ORIENTED_EDGE('',*,*,#319,.F.);
#226=ORIENTED_EDGE('',*,*,#320,.T.);
#227=ORIENTED_EDGE('',*,*,#311,.T.);
#228=ORIENTED_EDGE('',*,*,#321,.T.);
#229=ORIENTED_EDGE('',*,*,#320,.F.);
#230=ORIENTED_EDGE('',*,*,#322,.T.);
#231=ORIENTED_EDGE('',*,*,#318,.F.);
#232=ORIENTED_EDGE('',*,*,#323,.T.);
#233=ORIENTED_EDGE('',*,*,#315,.T.);
#234=ORIENTED_EDGE('',*,*,#324,.T.);
#235=ORIENTED_EDGE('',*,*,#325,.F.);
#236=ORIENTED_EDGE('',*,*,#326,.F.);
#237=ORIENTED_EDGE('',*,*,#327,.T.);
#238=ORIENTED_EDGE('',*,*,#328,.T.);
#239=ORIENTED_EDGE('',*,*,#329,.F.);
#240=ORIENTED_EDGE('',*,*,#327,.F.);
#241=ORIENTED_EDGE('',*,*,#330,.F.);
#242=ORIENTED_EDGE('',*,*,#331,.F.);
#243=ORIENTED_EDGE('',*,*,#332,.F.);
#244=ORIENTED_EDGE('',*,*,#328,.F.);
#245=ORIENTED_EDGE('',*,*,#333,.F.);
#246=ORIENTED_EDGE('',*,*,#330,.T.);
#247=ORIENTED_EDGE('',*,*,#333,.T.);
#248=ORIENTED_EDGE('',*,*,#326,.T.);
#249=ORIENTED_EDGE('',*,*,#308,.F.);
#250=ORIENTED_EDGE('',*,*,#331,.T.);
#251=ORIENTED_EDGE('',*,*,#334,.F.);
#252=ORIENTED_EDGE('',*,*,#335,.F.);
#253=ORIENTED_EDGE('',*,*,#335,.T.);
#254=ORIENTED_EDGE('',*,*,#332,.T.);
#255=ORIENTED_EDGE('',*,*,#325,.T.);
#256=ORIENTED_EDGE('',*,*,#329,.T.);
#257=ORIENTED_EDGE('',*,*,#334,.T.);
#258=ORIENTED_EDGE('',*,*,#336,.T.);
#259=ORIENTED_EDGE('',*,*,#337,.T.);
#260=ORIENTED_EDGE('',*,*,#336,.F.);
#261=ORIENTED_EDGE('',*,*,#338,.T.);
#262=ORIENTED_EDGE('',*,*,#337,.F.);
#263=ORIENTED_EDGE('',*,*,#339,.T.);
#264=ORIENTED_EDGE('',*,*,#338,.F.);
#265=ORIENTED_EDGE('',*,*,#340,.T.);
#266=ORIENTED_EDGE('',*,*,#339,.F.);
#267=ORIENTED_EDGE('',*,*,#340,.F.);
#268=ORIENTED_EDGE('',*,*,#341,.F.);
#269=ORIENTED_EDGE('',*,*,#312,.F.);
#270=ORIENTED_EDGE('',*,*,#322,.F.);
#271=ORIENTED_EDGE('',*,*,#319,.T.);
#272=ORIENTED_EDGE('',*,*,#324,.F.);
#273=ORIENTED_EDGE('',*,*,#314,.F.);
#274=ORIENTED_EDGE('',*,*,#341,.T.);
#275=ORIENTED_EDGE('',*,*,#313,.F.);
#276=ORIENTED_EDGE('',*,*,#342,.T.);
#277=ORIENTED_EDGE('',*,*,#316,.F.);
#278=ORIENTED_EDGE('',*,*,#323,.F.);
#279=ORIENTED_EDGE('',*,*,#317,.T.);
#280=ORIENTED_EDGE('',*,*,#321,.F.);
#281=ORIENTED_EDGE('',*,*,#310,.F.);
#282=ORIENTED_EDGE('',*,*,#342,.F.);
#283=ORIENTED_EDGE('',*,*,#309,.F.);
#284=VERTEX_POINT('',#481);
#285=VERTEX_POINT('',#483);
#286=VERTEX_POINT('',#484);
#287=VERTEX_POINT('',#486);
#288=VERTEX_POINT('',#488);
#289=VERTEX_POINT('',#490);
#290=VERTEX_POINT('',#492);
#291=VERTEX_POINT('',#494);
#292=VERTEX_POINT('',#496);
#293=VERTEX_POINT('',#500);
#294=VERTEX_POINT('',#501);
#295=VERTEX_POINT('',#503);
#296=VERTEX_POINT('',#505);
#297=VERTEX_POINT('',#541);
#298=VERTEX_POINT('',#548);
#299=VERTEX_POINT('',#563);
#300=VERTEX_POINT('',#564);
#301=VERTEX_POINT('',#592);
#302=VERTEX_POINT('',#594);
#303=VERTEX_POINT('',#598);
#304=VERTEX_POINT('',#601);
#305=VERTEX_POINT('',#604);
#306=VERTEX_POINT('',#607);
#307=VERTEX_POINT('',#610);
#308=EDGE_CURVE('',#284,#284,#343,.T.);
#309=EDGE_CURVE('',#285,#286,#344,.T.);
#310=EDGE_CURVE('',#286,#287,#153,.T.);
#311=EDGE_CURVE('',#288,#287,#345,.T.);
#312=EDGE_CURVE('',#288,#289,#154,.T.);
#313=EDGE_CURVE('',#289,#290,#346,.T.);
#314=EDGE_CURVE('',#290,#291,#155,.T.);
#315=EDGE_CURVE('',#292,#291,#347,.T.);
#316=EDGE_CURVE('',#292,#285,#156,.T.);
#317=EDGE_CURVE('',#293,#294,#157,.T.);
#318=EDGE_CURVE('',#293,#295,#348,.T.);
#319=EDGE_CURVE('',#296,#295,#158,.T.);
#320=EDGE_CURVE('',#296,#294,#349,.T.);
#321=EDGE_CURVE('',#287,#294,#98,.T.);
#322=EDGE_CURVE('',#296,#288,#99,.T.);
#323=EDGE_CURVE('',#293,#292,#100,.T.);
#324=EDGE_CURVE('',#291,#295,#101,.T.);
#325=EDGE_CURVE('',#284,#297,#102,.T.);
#326=EDGE_CURVE('',#298,#284,#103,.T.);
#327=EDGE_CURVE('',#298,#297,#104,.T.);
#328=EDGE_CURVE('',#299,#300,#105,.T.);
#329=EDGE_CURVE('',#297,#300,#350,.T.);
#330=EDGE_CURVE('',#299,#298,#351,.T.);
#331=EDGE_CURVE('',#284,#299,#106,.T.);
#332=EDGE_CURVE('',#300,#284,#107,.T.);
#333=EDGE_CURVE('',#299,#298,#352,.T.);
#334=EDGE_CURVE('',#301,#301,#353,.T.);
#335=EDGE_CURVE('',#302,#302,#354,.T.);
#336=EDGE_CURVE('',#303,#303,#355,.T.);
#337=EDGE_CURVE('',#304,#304,#356,.T.);
#338=EDGE_CURVE('',#305,#305,#357,.T.);
#339=EDGE_CURVE('',#306,#306,#358,.T.);
#340=EDGE_CURVE('',#307,#307,#359,.T.);
#341=EDGE_CURVE('',#289,#290,#159,.T.);
#342=EDGE_CURVE('',#286,#285,#160,.T.);
#343=CIRCLE('',#361,20.);
#344=CIRCLE('',#362,20.);
#345=CIRCLE('',#363,20.);
#346=CIRCLE('',#364,20.);
#347=CIRCLE('',#365,20.);
#348=CIRCLE('',#367,19.3);
#349=CIRCLE('',#368,19.3);
#350=CIRCLE('',#372,25.);
#351=CIRCLE('',#373,24.7);
#352=CIRCLE('',#375,20.4);
#353=CIRCLE('',#378,24.6);
#354=CIRCLE('',#379,25.);
#355=CIRCLE('',#382,24.);
#356=CIRCLE('',#384,25.);
#357=CIRCLE('',#386,25.);
#358=CIRCLE('',#388,24.9823673019287);
#359=CIRCLE('',#390,22.0279440428925);
#360=AXIS2_PLACEMENT_3D('',#479,#397,#398);
#361=AXIS2_PLACEMENT_3D('',#480,#399,#400);
#362=AXIS2_PLACEMENT_3D('',#482,#401,#402);
#363=AXIS2_PLACEMENT_3D('',#487,#404,#405);
#364=AXIS2_PLACEMENT_3D('',#491,#407,#408);
#365=AXIS2_PLACEMENT_3D('',#495,#410,#411);
#366=AXIS2_PLACEMENT_3D('',#498,#413,#414);
#367=AXIS2_PLACEMENT_3D('',#502,#416,#417);
#368=AXIS2_PLACEMENT_3D('',#506,#419,#420);
#369=AXIS2_PLACEMENT_3D('',#507,#421,#422);
#370=AXIS2_PLACEMENT_3D('',#516,#423,#424);
#371=AXIS2_PLACEMENT_3D('',#525,#425,#426);
#372=AXIS2_PLACEMENT_3D('',#565,#427,#428);
#373=AXIS2_PLACEMENT_3D('',#566,#429,#430);
#374=AXIS2_PLACEMENT_3D('',#567,#431,#432);
#375=AXIS2_PLACEMENT_3D('',#588,#433,#434);
#376=AXIS2_PLACEMENT_3D('',#589,#435,#436);
#377=AXIS2_PLACEMENT_3D('',#590,#437,#438);
#378=AXIS2_PLACEMENT_3D('',#591,#439,#440);
#379=AXIS2_PLACEMENT_3D('',#593,#441,#442);
#380=AXIS2_PLACEMENT_3D('',#595,#443,#444);
#381=AXIS2_PLACEMENT_3D('',#596,#445,#446);
#382=AXIS2_PLACEMENT_3D('',#597,#447,#448);
#383=AXIS2_PLACEMENT_3D('',#599,#449,#450);
#384=AXIS2_PLACEMENT_3D('',#600,#451,#452);
#385=AXIS2_PLACEMENT_3D('',#602,#453,#454);
#386=AXIS2_PLACEMENT_3D('',#603,#455,#456);
#387=AXIS2_PLACEMENT_3D('',#605,#457,#458);
#388=AXIS2_PLACEMENT_3D('',#606,#459,#460);
#389=AXIS2_PLACEMENT_3D('',#608,#461,#462);
#390=AXIS2_PLACEMENT_3D('',#609,#463,#464);
#391=AXIS2_PLACEMENT_3D('',#611,#465,#466);
#392=AXIS2_PLACEMENT_3D('',#612,#467,#468);
#393=AXIS2_PLACEMENT_3D('',#614,#470,#471);
#394=AXIS2_PLACEMENT_3D('',#615,#472,#473);
#395=AXIS2_PLACEMENT_3D('',#617,#475,#476);
#396=AXIS2_PLACEMENT_3D('',#618,#477,#478);
#397=DIRECTION('',(0.,0.,1.));
#398=DIRECTION('',(1.,0.,0.));
#399=DIRECTION('',(-1.,0.,0.));
#400=DIRECTION('',(0.,0.,-1.));
#401=DIRECTION('',(1.,0.,0.));
#402=DIRECTION('',(0.,0.,1.));
#403=DIRECTION('',(-1.,0.,0.));
#404=DIRECTION('',(-1.,0.,0.));
#405=DIRECTION('',(0.,0.,-1.));
#406=DIRECTION('',(1.,0.,0.));
#407=DIRECTION('',(1.,0.,0.));
#408=DIRECTION('',(0.,0.,1.));
#409=DIRECTION('',(-1.,0.,0.));
#410=DIRECTION('',(-1.,0.,0.));
#411=DIRECTION('',(0.,0.,-1.));
#412=DIRECTION('',(1.,0.,0.));
#413=DIRECTION('',(1.,0.,0.));
#414=DIRECTION('',(0.,0.,-1.));
#415=DIRECTION('',(0.,1.,2.34291072916505E-15));
#416=DIRECTION('',(-1.,0.,0.));
#417=DIRECTION('',(0.,0.,-1.));
#418=DIRECTION('',(0.,-1.,0.));
#419=DIRECTION('',(-1.,0.,0.));
#420=DIRECTION('',(0.,0.,-1.));
#421=DIRECTION('',(1.,0.,0.));
#422=DIRECTION('',(0.,0.,-1.));
#423=DIRECTION('',(1.,0.,0.));
#424=DIRECTION('',(1.38777878078144E-17,0.,-1.));
#425=DIRECTION('',(1.,0.,0.));
#426=DIRECTION('',(1.38777878078144E-17,0.,-1.));
#427=DIRECTION('',(1.,0.,0.));
#428=DIRECTION('',(0.,0.,-1.));
#429=DIRECTION('',(-1.,0.,0.));
#430=DIRECTION('',(0.,0.,-1.));
#431=DIRECTION('',(1.,0.,0.));
#432=DIRECTION('',(-3.46944695195364E-17,0.,-1.));
#433=DIRECTION('',(-1.,0.,0.));
#434=DIRECTION('',(0.,0.,-1.));
#435=DIRECTION('',(1.,0.,0.));
#436=DIRECTION('',(0.,0.,-1.));
#437=DIRECTION('',(1.,0.,0.));
#438=DIRECTION('',(0.,0.,-1.));
#439=DIRECTION('',(1.,0.,0.));
#440=DIRECTION('',(0.,0.,1.));
#441=DIRECTION('',(-1.,0.,0.));
#442=DIRECTION('',(0.,0.,1.));
#443=DIRECTION('',(-1.,0.,0.));
#444=DIRECTION('',(0.,0.,1.));
#445=DIRECTION('',(1.,0.,0.));
#446=DIRECTION('',(0.,0.,-1.));
#447=DIRECTION('',(-1.,0.,0.));
#448=DIRECTION('',(0.,0.,1.));
#449=DIRECTION('',(-1.,0.,0.));
#450=DIRECTION('',(0.,0.,1.));
#451=DIRECTION('',(-1.,0.,0.));
#452=DIRECTION('',(0.,0.,1.));
#453=DIRECTION('',(-1.,0.,0.));
#454=DIRECTION('',(0.,0.,1.));
#455=DIRECTION('',(-1.,0.,0.));
#456=DIRECTION('',(0.,0.,1.));
#457=DIRECTION('',(-1.,0.,0.));
#458=DIRECTION('',(0.,0.,1.));
#459=DIRECTION('',(-1.,0.,0.));
#460=DIRECTION('',(0.,0.,1.));
#461=DIRECTION('',(-1.,0.,0.));
#462=DIRECTION('',(0.,0.,1.));
#463=DIRECTION('',(-1.,0.,0.));
#464=DIRECTION('',(0.,0.,1.));
#465=DIRECTION('',(-1.,0.,0.));
#466=DIRECTION('',(0.,0.,1.));
#467=DIRECTION('',(-1.,0.,0.));
#468=DIRECTION('',(0.,0.,1.));
#469=DIRECTION('',(0.,-1.,0.));
#470=DIRECTION('',(0.,0.,1.));
#471=DIRECTION('',(1.,0.,0.));
#472=DIRECTION('',(-1.,0.,0.));
#473=DIRECTION('',(0.,0.,1.));
#474=DIRECTION('',(0.,-1.,-2.34291072916505E-15));
#475=DIRECTION('',(0.,2.34291072916505E-15,-1.));
#476=DIRECTION('',(1.,0.,0.));
#477=DIRECTION('',(-1.,0.,0.));
#478=DIRECTION('',(0.,2.34534613952064E-15,-1.));
#479=CARTESIAN_POINT('',(0.,0.,0.));
#480=CARTESIAN_POINT('',(-3.4,-5.,0.));
#481=CARTESIAN_POINT('',(-3.4,-25.,-9.91823358506306E-36));
#482=CARTESIAN_POINT('',(-4.,-5.,0.));
#483=CARTESIAN_POINT('',(-4.,-11.2449979983984,-19.));
#484=CARTESIAN_POINT('',(-4.,1.24499799839846,-19.));
#485=CARTESIAN_POINT('',(-5.,1.24499799839846,-19.));
#486=CARTESIAN_POINT('',(-4.30000000000008,1.24499799839852,-19.));
#487=CARTESIAN_POINT('',(-4.3,-5.,0.));
#488=CARTESIAN_POINT('',(-4.3,1.2449979983984,19.));
#489=CARTESIAN_POINT('',(-5.,1.2449979983984,19.));
#490=CARTESIAN_POINT('',(-4.,1.2449979983984,19.));
#491=CARTESIAN_POINT('',(-4.,-5.,0.));
#492=CARTESIAN_POINT('',(-4.,-11.2449979983984,19.));
#493=CARTESIAN_POINT('',(-5.,-11.2449979983984,19.));
#494=CARTESIAN_POINT('',(-4.30000000000009,-11.2449979983985,19.));
#495=CARTESIAN_POINT('',(-4.3,-5.,0.));
#496=CARTESIAN_POINT('',(-4.3,-11.2449979983984,-19.));
#497=CARTESIAN_POINT('',(-5.,-11.2449979983984,-19.));
#498=CARTESIAN_POINT('',(-5.,-5.,0.));
#499=CARTESIAN_POINT('',(-5.00000000000001,4.45153038541359E-14,-19.));
#500=CARTESIAN_POINT('',(-5.00000000000007,-8.38969025133566,-19.));
#501=CARTESIAN_POINT('',(-5.,-1.61030974866426,-19.));
#502=CARTESIAN_POINT('',(-5.,-5.,0.));
#503=CARTESIAN_POINT('',(-5.,-8.38969025133567,19.));
#504=CARTESIAN_POINT('',(-5.00000000000001,0.,19.));
#505=CARTESIAN_POINT('',(-5.00000000000006,-1.61030974866432,19.));
#506=CARTESIAN_POINT('',(-5.,-5.,0.));
#507=CARTESIAN_POINT('',(-5.00000000000001,0.,0.));
#508=CARTESIAN_POINT('',(-4.30000000000005,1.24499799839852,-19.));
#509=CARTESIAN_POINT('',(-4.59381111058226,0.304049384299502,-19.));
#510=CARTESIAN_POINT('',(-4.83082317990817,-0.647061668257191,-19.));
#511=CARTESIAN_POINT('',(-5.00000000000006,-1.61030974866425,-19.));
#512=CARTESIAN_POINT('',(-5.00000000000007,-1.61030974866432,19.));
#513=CARTESIAN_POINT('',(-4.83088551811285,-0.647416605511425,19.));
#514=CARTESIAN_POINT('',(-4.59391323925984,0.303722310767598,19.));
#515=CARTESIAN_POINT('',(-4.30000000000007,1.24499799839841,19.));
#516=CARTESIAN_POINT('',(-24.3,-5.,0.));
#517=CARTESIAN_POINT('',(-5.00000000000006,-8.38969025133566,-19.));
#518=CARTESIAN_POINT('',(-4.83088551811285,-9.35258339448855,-19.));
#519=CARTESIAN_POINT('',(-4.59391323925984,-10.3037223107676,-19.));
#520=CARTESIAN_POINT('',(-4.30000000000007,-11.2449979983984,-19.));
#521=CARTESIAN_POINT('',(-4.30000000000005,-11.2449979983985,19.));
#522=CARTESIAN_POINT('',(-4.59381111058226,-10.3040493842994,19.));
#523=CARTESIAN_POINT('',(-4.83082317990817,-9.35293833174274,19.));
#524=CARTESIAN_POINT('',(-5.00000000000006,-8.38969025133568,19.));
#525=CARTESIAN_POINT('',(-24.3,-5.,0.));
#526=CARTESIAN_POINT('',(-3.4,-25.,4.59242549680257E-15));
#527=CARTESIAN_POINT('',(-3.2777744725943,-25.,-1.48630281672938));
#528=CARTESIAN_POINT('',(-3.17757429007436,-24.8709390009984,-2.72759843266173));
#529=CARTESIAN_POINT('',(-3.06031203362307,-24.6474706804207,-4.21343554099394));
#530=CARTESIAN_POINT('',(-3.02673095102741,-24.5673358957248,-4.64652318627893));
#531=CARTESIAN_POINT('',(-2.98461883146608,-24.4530051373155,-5.20447715317504));
#532=CARTESIAN_POINT('',(-2.97195804233433,-24.4158304271695,-5.37519156619115));
#533=CARTESIAN_POINT('',(-2.95503173471975,-24.3628803232119,-5.60860297331168));
#534=CARTESIAN_POINT('',(-2.94708479993321,-24.337104293804,-5.71964376096643));
#535=CARTESIAN_POINT('',(-2.93991219367782,-24.3126052745753,-5.82223283467366));
#536=CARTESIAN_POINT('',(-2.93530252918114,-24.2965793164595,-5.88875232434279));
#537=CARTESIAN_POINT('',(-2.93559014257982,-24.2977628936903,-5.88418730895885));
#538=CARTESIAN_POINT('',(-2.78249758587556,-23.7454072323145,-8.13733165583544));
#539=CARTESIAN_POINT('',(-2.70551392781062,-22.9768786593412,-10.0092030376574));
#540=CARTESIAN_POINT('',(-2.7,-22.1589068825911,-11.5750959291341));
#541=CARTESIAN_POINT('',(-2.7,-22.158906882591,-11.5750959291341));
#542=CARTESIAN_POINT('',(-3.,-21.893,-11.4361947779845));
#543=CARTESIAN_POINT('',(-3.,-22.5714539794334,-10.282378412847));
#544=CARTESIAN_POINT('',(-3.02866337940903,-23.3240554839017,-8.77449543189809));
#545=CARTESIAN_POINT('',(-3.16541738691974,-24.5376951538905,-4.96508153143553));
#546=CARTESIAN_POINT('',(-3.27556762775924,-25.,-2.65777401451315));
#547=CARTESIAN_POINT('',(-3.4,-25.,5.44437354053982E-15));
#548=CARTESIAN_POINT('',(-3.,-21.893,-11.4361947779845));
#549=CARTESIAN_POINT('',(-3.,-21.893,-11.4361947779845));
#550=CARTESIAN_POINT('',(-2.7,-22.158906882591,-11.5750959291341));
#551=CARTESIAN_POINT('',(-3.4,-25.,4.59242549680265E-15));
#552=CARTESIAN_POINT('',(-3.06994774903527,-25.0009955062365,-4.0135444754391));
#553=CARTESIAN_POINT('',(-2.71258818215099,-24.0282425168703,-8.00119971101644));
#554=CARTESIAN_POINT('',(-2.7,-22.158906882591,-11.5750959291341));
#555=CARTESIAN_POINT('',(-3.4,-25.,3.67394039744204E-15));
#556=CARTESIAN_POINT('',(-3.21139871373446,-25.0046173359089,-4.02836969764101));
#557=CARTESIAN_POINT('',(-3.00719324694336,-23.9034064772457,-8.017186320017));
#558=CARTESIAN_POINT('',(-3.,-21.893,-11.4361947779845));
#559=CARTESIAN_POINT('',(-3.,-21.8929999999999,11.4361947779847));
#560=CARTESIAN_POINT('',(-2.9,-21.9816356275303,11.4824951617012));
#561=CARTESIAN_POINT('',(-2.8,-22.0702712550606,11.5287955454177));
#562=CARTESIAN_POINT('',(-2.7,-22.158906882591,11.5750959291343));
#563=CARTESIAN_POINT('',(-3.,-21.893,11.4361947779845));
#564=CARTESIAN_POINT('',(-2.7,-22.158906882591,11.5750959291342));
#565=CARTESIAN_POINT('',(-2.7,0.,0.));
#566=CARTESIAN_POINT('',(-3.,0.,0.));
#567=CARTESIAN_POINT('',(-2.7,0.,0.));
#568=CARTESIAN_POINT('',(-3.4,-25.,3.67394039744206E-15));
#569=CARTESIAN_POINT('',(-3.275567627759,-25.,2.65777401451666));
#570=CARTESIAN_POINT('',(-3.16541738691943,-24.5376951538895,4.96508153144073));
#571=CARTESIAN_POINT('',(-3.02866337940885,-23.3240554838997,8.77449543190309));
#572=CARTESIAN_POINT('',(-2.99999999999999,-22.5714539794316,10.2823784128501));
#573=CARTESIAN_POINT('',(-3.,-21.893,11.4361947779846));
#574=CARTESIAN_POINT('',(-2.7,-22.158906882591,11.5750959291343));
#575=CARTESIAN_POINT('',(-2.70380904569549,-22.7239654002697,10.4933702006294));
#576=CARTESIAN_POINT('',(-2.76404690187656,-23.4023488529273,9.01959649900622));
#577=CARTESIAN_POINT('',(-2.9973802352099,-24.5410308646321,5.17308968994048));
#578=CARTESIAN_POINT('',(-3.17047571236215,-25.,2.79109121036093));
#579=CARTESIAN_POINT('',(-3.4,-25.,2.73318526145962E-15));
#580=CARTESIAN_POINT('',(-2.7,-22.158906882591,11.5750959291342));
#581=CARTESIAN_POINT('',(-2.71258818215103,-24.0282425168702,8.00119971101654));
#582=CARTESIAN_POINT('',(-3.06994774903511,-25.0009955062365,4.01354447543912));
#583=CARTESIAN_POINT('',(-3.4,-25.,4.59242549680265E-15));
#584=CARTESIAN_POINT('',(-3.,-21.893,11.4361947779846));
#585=CARTESIAN_POINT('',(-3.00719324694339,-23.9034064772456,8.01718632001707));
#586=CARTESIAN_POINT('',(-3.21139871373435,-25.0046173359089,4.02836969764102));
#587=CARTESIAN_POINT('',(-3.4,-25.,3.67394039744204E-15));
#588=CARTESIAN_POINT('',(-3.,-5.,0.));
#589=CARTESIAN_POINT('',(-3.,25.,0.));
#590=CARTESIAN_POINT('',(-3.4,-5.,0.));
#591=CARTESIAN_POINT('',(0.,0.,0.));
#592=CARTESIAN_POINT('',(0.,0.,24.6));
#593=CARTESIAN_POINT('',(-0.4,0.,0.));
#594=CARTESIAN_POINT('',(-0.4,0.,25.));
#595=CARTESIAN_POINT('',(-0.4,0.,0.));
#596=CARTESIAN_POINT('',(-5.,0.,0.));
#597=CARTESIAN_POINT('',(-4.93038065763132E-32,0.,0.));
#598=CARTESIAN_POINT('',(-4.93038065763132E-32,0.,24.));
#599=CARTESIAN_POINT('',(0.,25.,0.));
#600=CARTESIAN_POINT('',(1.,0.,0.));
#601=CARTESIAN_POINT('',(1.,0.,25.));
#602=CARTESIAN_POINT('',(1.,0.,0.));
#603=CARTESIAN_POINT('',(661.420944533002,0.,0.));
#604=CARTESIAN_POINT('',(661.420944533002,0.,25.));
#605=CARTESIAN_POINT('',(0.,0.,0.));
#606=CARTESIAN_POINT('',(661.520944533001,0.,0.));
#607=CARTESIAN_POINT('',(661.520944533001,0.,24.9823673019287));
#608=CARTESIAN_POINT('',(661.520944533001,0.,0.));
#609=CARTESIAN_POINT('',(664.,0.,0.));
#610=CARTESIAN_POINT('',(664.,0.,22.0279440428925));
#611=CARTESIAN_POINT('',(661.,0.,0.));
#612=CARTESIAN_POINT('',(664.,7.5,0.));
#613=CARTESIAN_POINT('',(-4.,-50.,19.));
#614=CARTESIAN_POINT('',(-6.4,-50.,19.));
#615=CARTESIAN_POINT('',(-4.,-50.,19.));
#616=CARTESIAN_POINT('',(-4.,40.,-18.9999999999999));
#617=CARTESIAN_POINT('',(-6.4,40.,-18.9999999999999));
#618=CARTESIAN_POINT('',(-4.,40.,-18.9999999999999));
#619=(
GEOMETRIC_REPRESENTATION_CONTEXT(3)
GLOBAL_UNCERTAINTY_ASSIGNED_CONTEXT((#620))
GLOBAL_UNIT_ASSIGNED_CONTEXT((#626,#622,#621))
REPRESENTATION_CONTEXT('ATTB-D50-669-10D-H','TOP_LEVEL_ASSEMBLY_PART')
);
#620=UNCERTAINTY_MEASURE_WITH_UNIT(LENGTH_MEASURE(0.064497281975458),#626,
'DISTANCE_ACCURACY_VALUE','Maximum Tolerance applied to model');
#621=(
NAMED_UNIT(*)
SI_UNIT($,.STERADIAN.)
SOLID_ANGLE_UNIT()
);
#622=(
CONVERSION_BASED_UNIT('DEGREE',#624)
NAMED_UNIT(#623)
PLANE_ANGLE_UNIT()
);
#623=DIMENSIONAL_EXPONENTS(0.,0.,0.,0.,0.,0.,0.);
#624=PLANE_ANGLE_MEASURE_WITH_UNIT(PLANE_ANGLE_MEASURE(0.0174532925),#625);
#625=(
NAMED_UNIT(*)
PLANE_ANGLE_UNIT()
SI_UNIT($,.RADIAN.)
);
#626=(
LENGTH_UNIT()
NAMED_UNIT(*)
SI_UNIT(.MILLI.,.METRE.)
);
ENDSEC;
END-ISO-10303-21;
