ISO-10303-21;
HEADER;
/* Generated by software containing ST-Developer
 * from STEP Tools, Inc. (www.steptools.com) 
 */
/* OPTION: using custom schema-name function */

FILE_DESCRIPTION(
/* description */ (''),
/* implementation_level */ '2;1');

FILE_NAME(
/* name */ 'ATTB-D60-808-10D-H.stp',
/* time_stamp */ '2023-11-13T13:15:39+03:00',
/* author */ (''),
/* organization */ (''),
/* preprocessor_version */ 'ST-DEVELOPER v19.4',
/* originating_system */ 'SIEMENS PLM Software NX2306.3001',
/* authorisation */ '');

FILE_SCHEMA (('AP203_CONFIGURATION_CONTROLLED_3D_DESIGN_OF_MECHANICAL_PARTS_AND_ASSEMBLIES_MIM_LF { 1 0 10303 403 2 1 2}'));
ENDSEC;

DATA;
#10=SHAPE_REPRESENTATION_RELATIONSHIP('None',
'relationship between model1-None and model1-None',#76,#11);
#11=ADVANCED_BREP_SHAPE_REPRESENTATION('model1-None',(#86),#540);
#12=APPLIED_APPROVAL_ASSIGNMENT(#24,(#66));
#13=APPLIED_APPROVAL_ASSIGNMENT(#25,(#68));
#14=APPLIED_APPROVAL_ASSIGNMENT(#26,(#38));
#15=APPROVAL_PERSON_ORGANIZATION(#30,#24,#18);
#16=APPROVAL_PERSON_ORGANIZATION(#31,#25,#19);
#17=APPROVAL_PERSON_ORGANIZATION(#32,#26,#20);
#18=APPROVAL_ROLE('approver');
#19=APPROVAL_ROLE('approver');
#20=APPROVAL_ROLE('approver');
#21=APPROVAL_DATE_TIME(#46,#24);
#22=APPROVAL_DATE_TIME(#47,#25);
#23=APPROVAL_DATE_TIME(#48,#26);
#24=APPROVAL(#27,' ');
#25=APPROVAL(#28,' ');
#26=APPROVAL(#29,' ');
#27=APPROVAL_STATUS('not_yet_approved');
#28=APPROVAL_STATUS('not_yet_approved');
#29=APPROVAL_STATUS('not_yet_approved');
#30=PERSON_AND_ORGANIZATION(#36,#33);
#31=PERSON_AND_ORGANIZATION(#36,#34);
#32=PERSON_AND_ORGANIZATION(#36,#35);
#33=ORGANIZATION(' ',' ',' ');
#34=ORGANIZATION(' ',' ',' ');
#35=ORGANIZATION(' ',' ',' ');
#36=PERSON(' ',' ',' ',(' '),$,$);
#37=APPLIED_SECURITY_CLASSIFICATION_ASSIGNMENT(#38,(#68));
#38=SECURITY_CLASSIFICATION(' ',' ',#39);
#39=SECURITY_CLASSIFICATION_LEVEL('confidential');
#40=APPLIED_DATE_AND_TIME_ASSIGNMENT(#44,#42,(#66));
#41=APPLIED_DATE_AND_TIME_ASSIGNMENT(#45,#43,(#38));
#42=DATE_TIME_ROLE('creation_date');
#43=DATE_TIME_ROLE('classification_date');
#44=DATE_AND_TIME(#59,#49);
#45=DATE_AND_TIME(#60,#50);
#46=DATE_AND_TIME(#61,#51);
#47=DATE_AND_TIME(#62,#52);
#48=DATE_AND_TIME(#63,#53);
#49=LOCAL_TIME(0,0,0.,#54);
#50=LOCAL_TIME(0,0,0.,#55);
#51=LOCAL_TIME(0,0,0.,#56);
#52=LOCAL_TIME(0,0,0.,#57);
#53=LOCAL_TIME(0,0,0.,#58);
#54=COORDINATED_UNIVERSAL_TIME_OFFSET(0,0,.BEHIND.);
#55=COORDINATED_UNIVERSAL_TIME_OFFSET(0,0,.BEHIND.);
#56=COORDINATED_UNIVERSAL_TIME_OFFSET(0,0,.BEHIND.);
#57=COORDINATED_UNIVERSAL_TIME_OFFSET(0,0,.BEHIND.);
#58=COORDINATED_UNIVERSAL_TIME_OFFSET(0,0,.BEHIND.);
#59=CALENDAR_DATE(0,1,1);
#60=CALENDAR_DATE(0,1,1);
#61=CALENDAR_DATE(0,1,1);
#62=CALENDAR_DATE(0,1,1);
#63=CALENDAR_DATE(0,1,1);
#64=SHAPE_DEFINITION_REPRESENTATION(#65,#76);
#65=PRODUCT_DEFINITION_SHAPE('','',#66);
#66=PRODUCT_DEFINITION(' ','',#68,#67);
#67=PRODUCT_DEFINITION_CONTEXT('part definition',#75,'design');
#68=PRODUCT_DEFINITION_FORMATION_WITH_SPECIFIED_SOURCE(' ',' ',#70,
 .NOT_KNOWN.);
#69=PRODUCT_RELATED_PRODUCT_CATEGORY('detail','',(#70));
#70=PRODUCT('model1','model1',' ',(#73));
#71=PRODUCT_CATEGORY('part',' ');
#72=PRODUCT_CATEGORY(' ','');
#73=PRODUCT_CONTEXT(' ',#75,'mechanical');
#74=APPLICATION_PROTOCOL_DEFINITION('international standard',
'config_control_design',2010,#75);
#75=APPLICATION_CONTEXT(
'configuration controlled 3D designs of mechanical parts and assemblie
s');
#76=SHAPE_REPRESENTATION('model1-None',(#326),#540);
#77=PRESENTATION_LAYER_ASSIGNMENT('1','Layer 1',(#86));
#78=STYLED_ITEM('',(#79),#86);
#79=PRESENTATION_STYLE_ASSIGNMENT((#80));
#80=SURFACE_STYLE_USAGE(.BOTH.,#81);
#81=SURFACE_SIDE_STYLE('',(#82));
#82=SURFACE_STYLE_FILL_AREA(#83);
#83=FILL_AREA_STYLE('',(#84));
#84=FILL_AREA_STYLE_COLOUR('',#85);
#85=COLOUR_RGB('medium steel',0.611764705882353,0.658823529411765,0.670588235294118);
#86=MANIFOLD_SOLID_BREP('',#87);
#87=CLOSED_SHELL('',(#135,#136,#137,#138,#139,#140,#141,#142,#143,#144,
#145,#146,#147,#148,#149,#150,#151,#152));
#88=TOROIDAL_SURFACE('',#341,27.0279440428926,2.99999999999988);
#89=TOROIDAL_SURFACE('',#347,29.,1.);
#90=TOROIDAL_SURFACE('',#353,29.6,0.4);
#91=TOROIDAL_SURFACE('',#355,20.4,0.4);
#92=PLANE('',#337);
#93=PLANE('',#339);
#94=PLANE('',#349);
#95=PLANE('',#356);
#96=PLANE('',#357);
#97=PLANE('',#358);
#98=PLANE('',#359);
#99=PLANE('',#360);
#100=CYLINDRICAL_SURFACE('',#336,20.);
#101=CYLINDRICAL_SURFACE('',#345,30.);
#102=CYLINDRICAL_SURFACE('',#352,30.);
#103=LINE('',#472,#111);
#104=LINE('',#474,#112);
#105=LINE('',#478,#113);
#106=LINE('',#479,#114);
#107=LINE('',#483,#115);
#108=LINE('',#484,#116);
#109=LINE('',#534,#117);
#110=LINE('',#537,#118);
#111=VECTOR('',#377,1.);
#112=VECTOR('',#378,1.);
#113=VECTOR('',#381,1.);
#114=VECTOR('',#382,1.);
#115=VECTOR('',#387,1.);
#116=VECTOR('',#388,1.);
#117=VECTOR('',#429,1.);
#118=VECTOR('',#434,1.);
#119=FACE_BOUND('',#168,.T.);
#120=FACE_BOUND('',#169,.T.);
#121=FACE_BOUND('',#172,.T.);
#122=FACE_BOUND('',#173,.T.);
#123=FACE_BOUND('',#174,.T.);
#124=FACE_BOUND('',#175,.T.);
#125=FACE_BOUND('',#176,.T.);
#126=FACE_BOUND('',#177,.T.);
#127=FACE_BOUND('',#178,.T.);
#128=FACE_BOUND('',#179,.T.);
#129=FACE_BOUND('',#180,.T.);
#130=FACE_BOUND('',#181,.T.);
#131=FACE_BOUND('',#182,.T.);
#132=FACE_BOUND('',#183,.T.);
#133=FACE_BOUND('',#184,.T.);
#134=FACE_BOUND('',#185,.T.);
#135=ADVANCED_FACE('',(#156),#153,.T.);
#136=ADVANCED_FACE('',(#157),#154,.T.);
#137=ADVANCED_FACE('',(#119,#120),#100,.T.);
#138=ADVANCED_FACE('',(#158),#92,.F.);
#139=ADVANCED_FACE('',(#159),#93,.F.);
#140=ADVANCED_FACE('',(#121,#122),#88,.T.);
#141=ADVANCED_FACE('',(#123,#124),#155,.T.);
#142=ADVANCED_FACE('',(#125,#126),#101,.T.);
#143=ADVANCED_FACE('',(#127,#128),#89,.T.);
#144=ADVANCED_FACE('',(#129,#130),#94,.F.);
#145=ADVANCED_FACE('',(#131,#132),#102,.T.);
#146=ADVANCED_FACE('',(#133,#134),#90,.T.);
#147=ADVANCED_FACE('',(#160),#91,.F.);
#148=ADVANCED_FACE('',(#161),#95,.F.);
#149=ADVANCED_FACE('',(#162),#96,.T.);
#150=ADVANCED_FACE('',(#163),#97,.T.);
#151=ADVANCED_FACE('',(#164),#98,.T.);
#152=ADVANCED_FACE('',(#165),#99,.T.);
#153=CONICAL_SURFACE('',#329,1.7347234759768E-15,45.);
#154=CONICAL_SURFACE('',#332,1.7347234759768E-15,45.);
#155=CONICAL_SURFACE('',#343,29.9823673019291,10.0000000000615);
#156=FACE_OUTER_BOUND('',#166,.T.);
#157=FACE_OUTER_BOUND('',#167,.T.);
#158=FACE_OUTER_BOUND('',#170,.T.);
#159=FACE_OUTER_BOUND('',#171,.T.);
#160=FACE_OUTER_BOUND('',#186,.T.);
#161=FACE_OUTER_BOUND('',#187,.T.);
#162=FACE_OUTER_BOUND('',#188,.T.);
#163=FACE_OUTER_BOUND('',#189,.T.);
#164=FACE_OUTER_BOUND('',#190,.T.);
#165=FACE_OUTER_BOUND('',#191,.T.);
#166=EDGE_LOOP('',(#208,#209,#210,#211));
#167=EDGE_LOOP('',(#212,#213,#214,#215));
#168=EDGE_LOOP('',(#216));
#169=EDGE_LOOP('',(#217,#218,#219,#220,#221,#222,#223,#224));
#170=EDGE_LOOP('',(#225,#226,#227,#228));
#171=EDGE_LOOP('',(#229));
#172=EDGE_LOOP('',(#230));
#173=EDGE_LOOP('',(#231));
#174=EDGE_LOOP('',(#232));
#175=EDGE_LOOP('',(#233));
#176=EDGE_LOOP('',(#234));
#177=EDGE_LOOP('',(#235));
#178=EDGE_LOOP('',(#236));
#179=EDGE_LOOP('',(#237));
#180=EDGE_LOOP('',(#238));
#181=EDGE_LOOP('',(#239));
#182=EDGE_LOOP('',(#240,#241,#242));
#183=EDGE_LOOP('',(#243));
#184=EDGE_LOOP('',(#244));
#185=EDGE_LOOP('',(#245));
#186=EDGE_LOOP('',(#246,#247,#248,#249));
#187=EDGE_LOOP('',(#250,#251));
#188=EDGE_LOOP('',(#252,#253));
#189=EDGE_LOOP('',(#254,#255,#256,#257,#258,#259));
#190=EDGE_LOOP('',(#260,#261));
#191=EDGE_LOOP('',(#262,#263,#264,#265,#266,#267));
#192=CIRCLE('',#327,20.);
#193=CIRCLE('',#328,19.3);
#194=CIRCLE('',#330,19.3);
#195=CIRCLE('',#331,20.);
#196=CIRCLE('',#333,20.);
#197=CIRCLE('',#334,20.);
#198=CIRCLE('',#335,20.);
#199=CIRCLE('',#338,27.0279440428926);
#200=CIRCLE('',#340,29.9823673019291);
#201=CIRCLE('',#342,30.);
#202=CIRCLE('',#344,30.);
#203=CIRCLE('',#346,29.);
#204=CIRCLE('',#348,29.6);
#205=CIRCLE('',#350,30.);
#206=CIRCLE('',#351,30.);
#207=CIRCLE('',#354,20.4);
#208=ORIENTED_EDGE('',*,*,#290,.F.);
#209=ORIENTED_EDGE('',*,*,#291,.T.);
#210=ORIENTED_EDGE('',*,*,#292,.F.);
#211=ORIENTED_EDGE('',*,*,#293,.F.);
#212=ORIENTED_EDGE('',*,*,#294,.F.);
#213=ORIENTED_EDGE('',*,*,#295,.F.);
#214=ORIENTED_EDGE('',*,*,#296,.F.);
#215=ORIENTED_EDGE('',*,*,#297,.T.);
#216=ORIENTED_EDGE('',*,*,#298,.T.);
#217=ORIENTED_EDGE('',*,*,#299,.F.);
#218=ORIENTED_EDGE('',*,*,#297,.F.);
#219=ORIENTED_EDGE('',*,*,#300,.F.);
#220=ORIENTED_EDGE('',*,*,#301,.F.);
#221=ORIENTED_EDGE('',*,*,#302,.F.);
#222=ORIENTED_EDGE('',*,*,#291,.F.);
#223=ORIENTED_EDGE('',*,*,#303,.F.);
#224=ORIENTED_EDGE('',*,*,#304,.F.);
#225=ORIENTED_EDGE('',*,*,#305,.F.);
#226=ORIENTED_EDGE('',*,*,#293,.T.);
#227=ORIENTED_EDGE('',*,*,#306,.F.);
#228=ORIENTED_EDGE('',*,*,#295,.T.);
#229=ORIENTED_EDGE('',*,*,#307,.F.);
#230=ORIENTED_EDGE('',*,*,#308,.F.);
#231=ORIENTED_EDGE('',*,*,#307,.T.);
#232=ORIENTED_EDGE('',*,*,#309,.F.);
#233=ORIENTED_EDGE('',*,*,#308,.T.);
#234=ORIENTED_EDGE('',*,*,#310,.F.);
#235=ORIENTED_EDGE('',*,*,#309,.T.);
#236=ORIENTED_EDGE('',*,*,#311,.F.);
#237=ORIENTED_EDGE('',*,*,#310,.T.);
#238=ORIENTED_EDGE('',*,*,#311,.T.);
#239=ORIENTED_EDGE('',*,*,#312,.T.);
#240=ORIENTED_EDGE('',*,*,#313,.T.);
#241=ORIENTED_EDGE('',*,*,#314,.T.);
#242=ORIENTED_EDGE('',*,*,#315,.T.);
#243=ORIENTED_EDGE('',*,*,#316,.T.);
#244=ORIENTED_EDGE('',*,*,#316,.F.);
#245=ORIENTED_EDGE('',*,*,#312,.F.);
#246=ORIENTED_EDGE('',*,*,#298,.F.);
#247=ORIENTED_EDGE('',*,*,#313,.F.);
#248=ORIENTED_EDGE('',*,*,#317,.T.);
#249=ORIENTED_EDGE('',*,*,#314,.F.);
#250=ORIENTED_EDGE('',*,*,#317,.F.);
#251=ORIENTED_EDGE('',*,*,#315,.F.);
#252=ORIENTED_EDGE('',*,*,#301,.T.);
#253=ORIENTED_EDGE('',*,*,#318,.T.);
#254=ORIENTED_EDGE('',*,*,#302,.T.);
#255=ORIENTED_EDGE('',*,*,#318,.F.);
#256=ORIENTED_EDGE('',*,*,#300,.T.);
#257=ORIENTED_EDGE('',*,*,#296,.T.);
#258=ORIENTED_EDGE('',*,*,#306,.T.);
#259=ORIENTED_EDGE('',*,*,#292,.T.);
#260=ORIENTED_EDGE('',*,*,#304,.T.);
#261=ORIENTED_EDGE('',*,*,#319,.F.);
#262=ORIENTED_EDGE('',*,*,#299,.T.);
#263=ORIENTED_EDGE('',*,*,#319,.T.);
#264=ORIENTED_EDGE('',*,*,#303,.T.);
#265=ORIENTED_EDGE('',*,*,#290,.T.);
#266=ORIENTED_EDGE('',*,*,#305,.T.);
#267=ORIENTED_EDGE('',*,*,#294,.T.);
#268=VERTEX_POINT('',#444);
#269=VERTEX_POINT('',#445);
#270=VERTEX_POINT('',#447);
#271=VERTEX_POINT('',#452);
#272=VERTEX_POINT('',#459);
#273=VERTEX_POINT('',#460);
#274=VERTEX_POINT('',#462);
#275=VERTEX_POINT('',#467);
#276=VERTEX_POINT('',#471);
#277=VERTEX_POINT('',#473);
#278=VERTEX_POINT('',#475);
#279=VERTEX_POINT('',#477);
#280=VERTEX_POINT('',#480);
#281=VERTEX_POINT('',#487);
#282=VERTEX_POINT('',#490);
#283=VERTEX_POINT('',#493);
#284=VERTEX_POINT('',#496);
#285=VERTEX_POINT('',#499);
#286=VERTEX_POINT('',#502);
#287=VERTEX_POINT('',#508);
#288=VERTEX_POINT('',#525);
#289=VERTEX_POINT('',#528);
#290=EDGE_CURVE('',#268,#269,#320,.T.);
#291=EDGE_CURVE('',#268,#270,#192,.T.);
#292=EDGE_CURVE('',#271,#270,#321,.T.);
#293=EDGE_CURVE('',#269,#271,#193,.T.);
#294=EDGE_CURVE('',#272,#273,#322,.T.);
#295=EDGE_CURVE('',#274,#272,#194,.T.);
#296=EDGE_CURVE('',#275,#274,#323,.T.);
#297=EDGE_CURVE('',#275,#273,#195,.T.);
#298=EDGE_CURVE('',#276,#276,#196,.T.);
#299=EDGE_CURVE('',#273,#277,#103,.T.);
#300=EDGE_CURVE('',#278,#275,#104,.T.);
#301=EDGE_CURVE('',#279,#278,#197,.T.);
#302=EDGE_CURVE('',#270,#279,#105,.T.);
#303=EDGE_CURVE('',#280,#268,#106,.T.);
#304=EDGE_CURVE('',#277,#280,#198,.T.);
#305=EDGE_CURVE('',#269,#272,#107,.T.);
#306=EDGE_CURVE('',#274,#271,#108,.T.);
#307=EDGE_CURVE('',#281,#281,#199,.T.);
#308=EDGE_CURVE('',#282,#282,#200,.T.);
#309=EDGE_CURVE('',#283,#283,#201,.T.);
#310=EDGE_CURVE('',#284,#284,#202,.T.);
#311=EDGE_CURVE('',#285,#285,#203,.T.);
#312=EDGE_CURVE('',#286,#286,#204,.T.);
#313=EDGE_CURVE('',#287,#276,#324,.T.);
#314=EDGE_CURVE('',#276,#288,#325,.T.);
#315=EDGE_CURVE('',#288,#287,#205,.T.);
#316=EDGE_CURVE('',#289,#289,#206,.T.);
#317=EDGE_CURVE('',#287,#288,#207,.T.);
#318=EDGE_CURVE('',#278,#279,#109,.T.);
#319=EDGE_CURVE('',#277,#280,#110,.T.);
#320=B_SPLINE_CURVE_WITH_KNOTS('',3,(#440,#441,#442,#443),.UNSPECIFIED.,
 .F.,.F.,(4,4),(0.,1.),.UNSPECIFIED.);
#321=B_SPLINE_CURVE_WITH_KNOTS('',3,(#448,#449,#450,#451),.UNSPECIFIED.,
 .F.,.F.,(4,4),(0.,1.),.UNSPECIFIED.);
#322=B_SPLINE_CURVE_WITH_KNOTS('',3,(#455,#456,#457,#458),.UNSPECIFIED.,
 .F.,.F.,(4,4),(0.,1.),.UNSPECIFIED.);
#323=B_SPLINE_CURVE_WITH_KNOTS('',3,(#463,#464,#465,#466),.UNSPECIFIED.,
 .F.,.F.,(4,4),(0.,1.),.UNSPECIFIED.);
#324=B_SPLINE_CURVE_WITH_KNOTS('',3,(#504,#505,#506,#507),.UNSPECIFIED.,
 .F.,.F.,(4,4),(0.,1.),.UNSPECIFIED.);
#325=B_SPLINE_CURVE_WITH_KNOTS('',3,(#509,#510,#511,#512,#513,#514,#515,
#516,#517,#518,#519,#520,#521,#522,#523,#524),.UNSPECIFIED.,.F.,.F.,(4,
3,3,3,3,4),(0.,0.00700339852299408,0.121378421404254,0.580123769274756,
0.856440613147723,1.),.UNSPECIFIED.);
#326=AXIS2_PLACEMENT_3D('',#439,#361,#362);
#327=AXIS2_PLACEMENT_3D('',#446,#363,#364);
#328=AXIS2_PLACEMENT_3D('',#453,#365,#366);
#329=AXIS2_PLACEMENT_3D('',#454,#367,#368);
#330=AXIS2_PLACEMENT_3D('',#461,#369,#370);
#331=AXIS2_PLACEMENT_3D('',#468,#371,#372);
#332=AXIS2_PLACEMENT_3D('',#469,#373,#374);
#333=AXIS2_PLACEMENT_3D('',#470,#375,#376);
#334=AXIS2_PLACEMENT_3D('',#476,#379,#380);
#335=AXIS2_PLACEMENT_3D('',#481,#383,#384);
#336=AXIS2_PLACEMENT_3D('',#482,#385,#386);
#337=AXIS2_PLACEMENT_3D('',#485,#389,#390);
#338=AXIS2_PLACEMENT_3D('',#486,#391,#392);
#339=AXIS2_PLACEMENT_3D('',#488,#393,#394);
#340=AXIS2_PLACEMENT_3D('',#489,#395,#396);
#341=AXIS2_PLACEMENT_3D('',#491,#397,#398);
#342=AXIS2_PLACEMENT_3D('',#492,#399,#400);
#343=AXIS2_PLACEMENT_3D('',#494,#401,#402);
#344=AXIS2_PLACEMENT_3D('',#495,#403,#404);
#345=AXIS2_PLACEMENT_3D('',#497,#405,#406);
#346=AXIS2_PLACEMENT_3D('',#498,#407,#408);
#347=AXIS2_PLACEMENT_3D('',#500,#409,#410);
#348=AXIS2_PLACEMENT_3D('',#501,#411,#412);
#349=AXIS2_PLACEMENT_3D('',#503,#413,#414);
#350=AXIS2_PLACEMENT_3D('',#526,#415,#416);
#351=AXIS2_PLACEMENT_3D('',#527,#417,#418);
#352=AXIS2_PLACEMENT_3D('',#529,#419,#420);
#353=AXIS2_PLACEMENT_3D('',#530,#421,#422);
#354=AXIS2_PLACEMENT_3D('',#531,#423,#424);
#355=AXIS2_PLACEMENT_3D('',#532,#425,#426);
#356=AXIS2_PLACEMENT_3D('',#533,#427,#428);
#357=AXIS2_PLACEMENT_3D('',#535,#430,#431);
#358=AXIS2_PLACEMENT_3D('',#536,#432,#433);
#359=AXIS2_PLACEMENT_3D('',#538,#435,#436);
#360=AXIS2_PLACEMENT_3D('',#539,#437,#438);
#361=DIRECTION('',(0.,0.,1.));
#362=DIRECTION('',(1.,0.,0.));
#363=DIRECTION('',(-1.,0.,0.));
#364=DIRECTION('',(0.,0.,-1.));
#365=DIRECTION('',(-1.,0.,0.));
#366=DIRECTION('',(0.,0.,-1.));
#367=DIRECTION('',(1.,0.,0.));
#368=DIRECTION('',(1.38777878078145E-17,0.,-1.));
#369=DIRECTION('',(-1.,0.,0.));
#370=DIRECTION('',(0.,0.,-1.));
#371=DIRECTION('',(-1.,0.,0.));
#372=DIRECTION('',(0.,0.,-1.));
#373=DIRECTION('',(1.,0.,0.));
#374=DIRECTION('',(1.38777878078145E-17,0.,-1.));
#375=DIRECTION('',(-1.,0.,0.));
#376=DIRECTION('',(0.,0.,-1.));
#377=DIRECTION('',(1.,0.,0.));
#378=DIRECTION('',(-1.,0.,0.));
#379=DIRECTION('',(-1.,0.,0.));
#380=DIRECTION('',(0.,0.,1.));
#381=DIRECTION('',(1.,0.,0.));
#382=DIRECTION('',(-1.,0.,0.));
#383=DIRECTION('',(-1.,0.,0.));
#384=DIRECTION('',(0.,0.,1.));
#385=DIRECTION('',(1.,0.,0.));
#386=DIRECTION('',(0.,0.,-1.));
#387=DIRECTION('',(0.,1.,2.34291072916505E-15));
#388=DIRECTION('',(0.,-1.,0.));
#389=DIRECTION('',(1.,0.,0.));
#390=DIRECTION('',(0.,0.,-1.));
#391=DIRECTION('',(-1.,0.,0.));
#392=DIRECTION('',(0.,0.,1.));
#393=DIRECTION('',(-1.,0.,0.));
#394=DIRECTION('',(0.,0.,1.));
#395=DIRECTION('',(-1.,0.,0.));
#396=DIRECTION('',(0.,0.,1.));
#397=DIRECTION('',(-1.,0.,0.));
#398=DIRECTION('',(0.,0.,1.));
#399=DIRECTION('',(-1.,0.,0.));
#400=DIRECTION('',(0.,0.,1.));
#401=DIRECTION('',(-1.,0.,0.));
#402=DIRECTION('',(0.,0.,1.));
#403=DIRECTION('',(-1.,0.,0.));
#404=DIRECTION('',(0.,0.,1.));
#405=DIRECTION('',(-1.,0.,0.));
#406=DIRECTION('',(0.,0.,1.));
#407=DIRECTION('',(-1.,0.,0.));
#408=DIRECTION('',(0.,0.,1.));
#409=DIRECTION('',(-1.,0.,0.));
#410=DIRECTION('',(0.,0.,1.));
#411=DIRECTION('',(1.,0.,0.));
#412=DIRECTION('',(0.,0.,1.));
#413=DIRECTION('',(-1.,0.,0.));
#414=DIRECTION('',(0.,0.,1.));
#415=DIRECTION('',(1.,0.,0.));
#416=DIRECTION('',(0.,0.,-1.));
#417=DIRECTION('',(-1.,0.,0.));
#418=DIRECTION('',(0.,0.,1.));
#419=DIRECTION('',(1.,0.,0.));
#420=DIRECTION('',(0.,0.,-1.));
#421=DIRECTION('',(-1.,0.,0.));
#422=DIRECTION('',(0.,0.,1.));
#423=DIRECTION('',(-1.,0.,0.));
#424=DIRECTION('',(0.,0.,-1.));
#425=DIRECTION('',(1.,0.,0.));
#426=DIRECTION('',(0.,0.,-1.));
#427=DIRECTION('',(1.,0.,0.));
#428=DIRECTION('',(0.,0.,-1.));
#429=DIRECTION('',(0.,-1.,0.));
#430=DIRECTION('',(-1.,0.,0.));
#431=DIRECTION('',(0.,0.,1.));
#432=DIRECTION('',(0.,0.,1.));
#433=DIRECTION('',(1.,0.,0.));
#434=DIRECTION('',(0.,-1.,-2.34291072916505E-15));
#435=DIRECTION('',(-1.,0.,0.));
#436=DIRECTION('',(0.,2.34187669256869E-15,-1.));
#437=DIRECTION('',(0.,2.34291072916505E-15,-1.));
#438=DIRECTION('',(1.,0.,0.));
#439=CARTESIAN_POINT('',(0.,0.,0.));
#440=CARTESIAN_POINT('',(-4.29999999999996,-16.2449979983984,-19.));
#441=CARTESIAN_POINT('',(-4.59380931054674,-15.3040551490264,-19.));
#442=CARTESIAN_POINT('',(-4.8308220803856,-14.3529445921329,-19.));
#443=CARTESIAN_POINT('',(-4.99999999999998,-13.3896902513356,-19.));
#444=CARTESIAN_POINT('',(-4.3,-16.2449979983984,-19.));
#445=CARTESIAN_POINT('',(-5.,-13.3896902513356,-19.));
#446=CARTESIAN_POINT('',(-4.3,-10.,0.));
#447=CARTESIAN_POINT('',(-4.29999999999998,-16.2449979983984,19.));
#448=CARTESIAN_POINT('',(-4.99999999999997,-13.3896902513357,19.));
#449=CARTESIAN_POINT('',(-4.83088647862916,-14.3525779255621,19.));
#450=CARTESIAN_POINT('',(-4.59391481401836,-15.3037172675038,19.));
#451=CARTESIAN_POINT('',(-4.29999999999997,-16.2449979983984,19.));
#452=CARTESIAN_POINT('',(-5.,-13.3896902513357,19.));
#453=CARTESIAN_POINT('',(-5.,-10.,0.));
#454=CARTESIAN_POINT('',(-24.3,-10.,0.));
#455=CARTESIAN_POINT('',(-4.99999999999998,-6.61030974866429,-19.));
#456=CARTESIAN_POINT('',(-4.83088647862916,-5.64742207443784,-19.));
#457=CARTESIAN_POINT('',(-4.59391481401836,-4.69628273249615,-19.));
#458=CARTESIAN_POINT('',(-4.29999999999997,-3.75500200160155,-19.));
#459=CARTESIAN_POINT('',(-5.,-6.61030974866429,-19.));
#460=CARTESIAN_POINT('',(-4.29999999999998,-3.75500200160155,-19.));
#461=CARTESIAN_POINT('',(-5.,-10.,0.));
#462=CARTESIAN_POINT('',(-5.,-6.61030974866433,19.));
#463=CARTESIAN_POINT('',(-4.29999999999996,-3.75500200160157,19.));
#464=CARTESIAN_POINT('',(-4.59380931054674,-4.69594485097357,19.));
#465=CARTESIAN_POINT('',(-4.8308220803856,-5.64705540786702,19.));
#466=CARTESIAN_POINT('',(-4.99999999999998,-6.61030974866434,19.));
#467=CARTESIAN_POINT('',(-4.3,-3.75500200160156,19.));
#468=CARTESIAN_POINT('',(-4.3,-10.,0.));
#469=CARTESIAN_POINT('',(-24.3,-10.,0.));
#470=CARTESIAN_POINT('',(-3.39999999999998,-10.,0.));
#471=CARTESIAN_POINT('',(-3.39999999999998,-30.,1.97446316739681E-36));
#472=CARTESIAN_POINT('',(-5.,-3.75500200160156,-19.));
#473=CARTESIAN_POINT('',(-4.,-3.75500200160156,-19.));
#474=CARTESIAN_POINT('',(-5.,-3.7550020016016,19.));
#475=CARTESIAN_POINT('',(-4.,-3.7550020016016,19.));
#476=CARTESIAN_POINT('',(-4.,-10.,0.));
#477=CARTESIAN_POINT('',(-4.,-16.2449979983984,19.));
#478=CARTESIAN_POINT('',(-5.,-16.2449979983984,19.));
#479=CARTESIAN_POINT('',(-5.,-16.2449979983984,-19.));
#480=CARTESIAN_POINT('',(-4.,-16.2449979983984,-19.));
#481=CARTESIAN_POINT('',(-4.,-10.,0.));
#482=CARTESIAN_POINT('',(-5.,-10.,0.));
#483=CARTESIAN_POINT('',(-5.,4.45153038541359E-14,-19.));
#484=CARTESIAN_POINT('',(-5.,0.,19.));
#485=CARTESIAN_POINT('',(-5.,0.,0.));
#486=CARTESIAN_POINT('',(803.,0.,0.));
#487=CARTESIAN_POINT('',(803.,0.,27.0279440428926));
#488=CARTESIAN_POINT('',(803.,10.,0.));
#489=CARTESIAN_POINT('',(800.520944533001,0.,0.));
#490=CARTESIAN_POINT('',(800.520944533001,0.,29.9823673019291));
#491=CARTESIAN_POINT('',(800.,0.,0.));
#492=CARTESIAN_POINT('',(800.420944533001,0.,0.));
#493=CARTESIAN_POINT('',(800.420944533001,0.,30.));
#494=CARTESIAN_POINT('',(800.520944533001,0.,0.));
#495=CARTESIAN_POINT('',(1.,0.,0.));
#496=CARTESIAN_POINT('',(1.,0.,30.));
#497=CARTESIAN_POINT('',(0.,0.,0.));
#498=CARTESIAN_POINT('',(-6.66133814775094E-16,0.,0.));
#499=CARTESIAN_POINT('',(-6.66133814775094E-16,0.,29.));
#500=CARTESIAN_POINT('',(1.,0.,0.));
#501=CARTESIAN_POINT('',(0.,0.,0.));
#502=CARTESIAN_POINT('',(0.,0.,29.6));
#503=CARTESIAN_POINT('',(0.,30.,0.));
#504=CARTESIAN_POINT('',(-2.99999999999998,-29.192,6.91571659338354));
#505=CARTESIAN_POINT('',(-2.99999999999997,-29.7292300136978,4.64800964673539));
#506=CARTESIAN_POINT('',(-3.20667224188706,-30.,2.36780099817446));
#507=CARTESIAN_POINT('',(-3.39999999999998,-30.,1.97446316739681E-36));
#508=CARTESIAN_POINT('',(-2.99999999999992,-29.192,6.91571659338354));
#509=CARTESIAN_POINT('',(-3.39999999999998,-30.,1.97446316739681E-36));
#510=CARTESIAN_POINT('',(-3.39867110485752,-30.,-0.016275775858572));
#511=CARTESIAN_POINT('',(-3.3973421767121,-29.9999867549517,-0.0325515544118687));
#512=CARTESIAN_POINT('',(-3.39601331588395,-29.9999602648678,-0.048827311514781));
#513=CARTESIAN_POINT('',(-3.3743112112377,-29.999527645771,-0.314632560915265));
#514=CARTESIAN_POINT('',(-3.35262046179566,-29.9955618972024,-0.580456539253672));
#515=CARTESIAN_POINT('',(-3.33116641206241,-29.9880640473294,-0.84617651424904));
#516=CARTESIAN_POINT('',(-3.24523349622025,-29.9580318571303,-1.91050201608967));
#517=CARTESIAN_POINT('',(-3.16251355724336,-29.8711512117796,-2.97514214518865));
#518=CARTESIAN_POINT('',(-3.09982646717713,-29.7278368032293,-4.03183816646558));
#519=CARTESIAN_POINT('',(-3.06203455587226,-29.6414374280003,-4.66888420369783));
#520=CARTESIAN_POINT('',(-3.03141011379825,-29.5344159997864,-5.30402645863076));
#521=CARTESIAN_POINT('',(-3.01421674706021,-29.4070577760567,-5.93506132703501));
#522=CARTESIAN_POINT('',(-3.00528119244943,-29.3408685077995,-6.26301609085989));
#523=CARTESIAN_POINT('',(-2.99999999999992,-29.2691532799717,-6.59004411700018));
#524=CARTESIAN_POINT('',(-2.99999999999992,-29.192,-6.91571659338354));
#525=CARTESIAN_POINT('',(-2.99999999999992,-29.192,-6.91571659338354));
#526=CARTESIAN_POINT('',(-3.,0.,0.));
#527=CARTESIAN_POINT('',(-0.4,0.,0.));
#528=CARTESIAN_POINT('',(-0.4,0.,30.));
#529=CARTESIAN_POINT('',(-5.,0.,0.));
#530=CARTESIAN_POINT('',(-0.4,0.,0.));
#531=CARTESIAN_POINT('',(-2.99999999999998,-10.,0.));
#532=CARTESIAN_POINT('',(-3.39999999999998,-10.,0.));
#533=CARTESIAN_POINT('',(-3.,30.,0.));
#534=CARTESIAN_POINT('',(-4.,-50.,19.));
#535=CARTESIAN_POINT('',(-4.,-50.,19.));
#536=CARTESIAN_POINT('',(-5.6,-50.,19.));
#537=CARTESIAN_POINT('',(-4.,30.,-18.9999999999999));
#538=CARTESIAN_POINT('',(-4.,30.,-18.9999999999999));
#539=CARTESIAN_POINT('',(-5.6,30.,-18.9999999999999));
#540=(
GEOMETRIC_REPRESENTATION_CONTEXT(3)
GLOBAL_UNCERTAINTY_ASSIGNED_CONTEXT((#541))
GLOBAL_UNIT_ASSIGNED_CONTEXT((#547,#543,#542))
REPRESENTATION_CONTEXT('ATTB-D60-808-10D-H','TOP_LEVEL_ASSEMBLY_PART')
);
#541=UNCERTAINTY_MEASURE_WITH_UNIT(LENGTH_MEASURE(0.0508),#547,
'DISTANCE_ACCURACY_VALUE','Maximum Tolerance applied to model');
#542=(
NAMED_UNIT(*)
SI_UNIT($,.STERADIAN.)
SOLID_ANGLE_UNIT()
);
#543=(
CONVERSION_BASED_UNIT('DEGREE',#545)
NAMED_UNIT(#544)
PLANE_ANGLE_UNIT()
);
#544=DIMENSIONAL_EXPONENTS(0.,0.,0.,0.,0.,0.,0.);
#545=PLANE_ANGLE_MEASURE_WITH_UNIT(PLANE_ANGLE_MEASURE(0.0174532925),#546);
#546=(
NAMED_UNIT(*)
PLANE_ANGLE_UNIT()
SI_UNIT($,.RADIAN.)
);
#547=(
LENGTH_UNIT()
NAMED_UNIT(*)
SI_UNIT(.MILLI.,.METRE.)
);
ENDSEC;
END-ISO-10303-21;
