ISO-10303-21;
HEADER;
/* Generated by software containing ST-Developer
 * from STEP Tools, Inc. (www.steptools.com) 
 */
/* OPTION: using custom schema-name function */

FILE_DESCRIPTION(
/* description */ (''),
/* implementation_level */ '2;1');

FILE_NAME(
/* name */ 'ATUM-13XD2-SP-050204-light.stp',
/* time_stamp */ '2023-10-12T20:52:43+03:00',
/* author */ (''),
/* organization */ (''),
/* preprocessor_version */ 'ST-DEVELOPER v19.4',
/* originating_system */ 'SIEMENS PLM Software NX2306.3001',
/* authorisation */ '');

FILE_SCHEMA (('AUTOMOTIVE_DESIGN { 1 0 10303 214 3 1 1 1 }'));
ENDSEC;

DATA;
#10=SHAPE_REPRESENTATION_RELATIONSHIP('None',
'relationship between STP_ATUM 12.5XD2 SP.. 050204-None and STP_ATUM 1
2.5XD2 SP.. 050204-None',#22,#11);
#11=ADVANCED_BREP_SHAPE_REPRESENTATION(
'STP_ATUM 12.5XD2 SP.. 050204-None',(#68,#69),#680);
#12=SHAPE_DEFINITION_REPRESENTATION(#13,#22);
#13=PRODUCT_DEFINITION_SHAPE('','',#14);
#14=PRODUCT_DEFINITION(' ','',#16,#15);
#15=PRODUCT_DEFINITION_CONTEXT('part definition',#21,'design');
#16=PRODUCT_DEFINITION_FORMATION_WITH_SPECIFIED_SOURCE(' ',' ',#18,
 .NOT_KNOWN.);
#17=PRODUCT_RELATED_PRODUCT_CATEGORY('part','',(#18));
#18=PRODUCT('STP_ATUM 12.5XD2 SP.. 050204',
'STP_ATUM 12.5XD2 SP.. 050204',' ',(#19));
#19=PRODUCT_CONTEXT(' ',#21,'mechanical');
#20=APPLICATION_PROTOCOL_DEFINITION('international standard',
'automotive_design',2010,#21);
#21=APPLICATION_CONTEXT(
'core data for automotive mechanical design processes');
#22=SHAPE_REPRESENTATION('STP_ATUM 12.5XD2 SP.. 050204-None',(#387),#680);
#23=DRAUGHTING_PRE_DEFINED_COLOUR('yellow');
#24=B_SPLINE_CURVE_WITH_KNOTS('',3,(#634,#635,#636,#637,#638,#639,#640),
 .UNSPECIFIED.,.F.,.F.,(4,1,1,1,4),(0.,0.25,0.5,0.75,1.),.UNSPECIFIED.);
#25=B_SPLINE_CURVE_WITH_KNOTS('',3,(#646,#647,#648,#649,#650,#651,#652),
 .UNSPECIFIED.,.F.,.F.,(4,1,1,1,4),(0.,0.25,0.5,0.75,1.),.UNSPECIFIED.);
#26=B_SPLINE_CURVE_WITH_KNOTS('',3,(#656,#657,#658,#659,#660,#661,#662),
 .UNSPECIFIED.,.F.,.F.,(4,1,1,1,4),(0.,0.25,0.5,0.75,1.),.UNSPECIFIED.);
#27=B_SPLINE_CURVE_WITH_KNOTS('',3,(#672,#673,#674,#675,#676,#677,#678),
 .UNSPECIFIED.,.F.,.F.,(4,1,1,1,4),(0.,0.25,0.5,0.75,1.),.UNSPECIFIED.);
#28=SURFACE_OF_REVOLUTION('',#44,#36);
#29=SURFACE_OF_REVOLUTION('',#24,#37);
#30=SURFACE_OF_REVOLUTION('',#45,#38);
#31=SURFACE_OF_REVOLUTION('',#25,#39);
#32=SURFACE_OF_REVOLUTION('',#26,#40);
#33=SURFACE_OF_REVOLUTION('',#46,#41);
#34=SURFACE_OF_REVOLUTION('',#47,#42);
#35=SURFACE_OF_REVOLUTION('',#27,#43);
#36=AXIS1_PLACEMENT('',#631,#537);
#37=AXIS1_PLACEMENT('',#641,#540);
#38=AXIS1_PLACEMENT('',#645,#544);
#39=AXIS1_PLACEMENT('',#653,#545);
#40=AXIS1_PLACEMENT('',#663,#548);
#41=AXIS1_PLACEMENT('',#667,#552);
#42=AXIS1_PLACEMENT('',#671,#556);
#43=AXIS1_PLACEMENT('',#679,#557);
#44=LINE('',#630,#48);
#45=LINE('',#644,#49);
#46=LINE('',#666,#50);
#47=LINE('',#670,#51);
#48=VECTOR('',#536,1.64562445325678);
#49=VECTOR('',#543,4.20778554500674);
#50=VECTOR('',#551,1.76239663009724);
#51=VECTOR('',#555,0.4921673856874);
#52=PRESENTATION_LAYER_ASSIGNMENT('1','Layer 1',(#68,#69));
#53=STYLED_ITEM('',(#55),#68);
#54=STYLED_ITEM('',(#56),#69);
#55=PRESENTATION_STYLE_ASSIGNMENT((#57));
#56=PRESENTATION_STYLE_ASSIGNMENT((#58));
#57=SURFACE_STYLE_USAGE(.BOTH.,#59);
#58=SURFACE_STYLE_USAGE(.BOTH.,#60);
#59=SURFACE_SIDE_STYLE('',(#61));
#60=SURFACE_SIDE_STYLE('',(#62));
#61=SURFACE_STYLE_FILL_AREA(#63);
#62=SURFACE_STYLE_FILL_AREA(#64);
#63=FILL_AREA_STYLE('',(#65));
#64=FILL_AREA_STYLE('',(#66));
#65=FILL_AREA_STYLE_COLOUR('',#67);
#66=FILL_AREA_STYLE_COLOUR('',#23);
#67=COLOUR_RGB('smoke gray',0.694117647058824,0.694117647058824,0.694117647058824);
#68=MANIFOLD_SOLID_BREP('',#70);
#69=MANIFOLD_SOLID_BREP('',#71);
#70=CLOSED_SHELL('',(#94,#95,#96,#97,#98,#99,#100,#101,#102,#103,#104,#105,
#106,#107,#108,#109,#110,#111,#112,#113,#114));
#71=CLOSED_SHELL('',(#115,#116,#117,#118,#119,#120,#121,#122,#123,#124));
#72=PLANE('',#403);
#73=PLANE('',#427);
#74=PLANE('',#428);
#75=PLANE('',#430);
#76=PLANE('',#432);
#77=FACE_OUTER_BOUND('',#198,.T.);
#78=FACE_OUTER_BOUND('',#223,.T.);
#79=FACE_OUTER_BOUND('',#224,.T.);
#80=FACE_OUTER_BOUND('',#225,.T.);
#81=CONICAL_SURFACE('',#394,12.1561937085138,27.699472808055);
#82=CONICAL_SURFACE('',#400,6.2,3.00000000000004);
#83=CONICAL_SURFACE('',#414,9.81030737921386,20.0000000000003);
#84=CONICAL_SURFACE('',#418,10.,15.0000000000002);
#85=CONICAL_SURFACE('',#426,10.205669240384,82.0000000000005);
#86=TOROIDAL_SURFACE('',#392,9.5,3.);
#87=TOROIDAL_SURFACE('',#396,11.2,5.);
#88=TOROIDAL_SURFACE('',#402,5.27050306395821,0.799999999999999);
#89=TOROIDAL_SURFACE('',#405,11.8,0.799999999999997);
#90=TOROIDAL_SURFACE('',#408,8.75000000000002,1.00000000000001);
#91=TOROIDAL_SURFACE('',#412,10.7499999999998,1.);
#92=TOROIDAL_SURFACE('',#420,10.15,0.399999999999999);
#93=TOROIDAL_SURFACE('',#424,10.15,0.4);
#94=ADVANCED_FACE('',(#130,#131),#125,.T.);
#95=ADVANCED_FACE('',(#132,#133),#86,.T.);
#96=ADVANCED_FACE('',(#134,#135),#81,.T.);
#97=ADVANCED_FACE('',(#136,#137),#87,.F.);
#98=ADVANCED_FACE('',(#138,#139),#126,.T.);
#99=ADVANCED_FACE('',(#140,#141),#82,.T.);
#100=ADVANCED_FACE('',(#142,#143),#88,.T.);
#101=ADVANCED_FACE('',(#77),#72,.F.);
#102=ADVANCED_FACE('',(#144,#145),#89,.T.);
#103=ADVANCED_FACE('',(#146,#147),#90,.T.);
#104=ADVANCED_FACE('',(#148,#149),#127,.T.);
#105=ADVANCED_FACE('',(#150,#151),#91,.F.);
#106=ADVANCED_FACE('',(#152,#153),#83,.T.);
#107=ADVANCED_FACE('',(#154,#155),#128,.T.);
#108=ADVANCED_FACE('',(#156,#157),#84,.T.);
#109=ADVANCED_FACE('',(#158,#159),#92,.F.);
#110=ADVANCED_FACE('',(#160,#161),#129,.T.);
#111=ADVANCED_FACE('',(#162,#163),#93,.F.);
#112=ADVANCED_FACE('',(#164,#165),#85,.F.);
#113=ADVANCED_FACE('',(#166,#167),#73,.F.);
#114=ADVANCED_FACE('',(#78),#74,.F.);
#115=ADVANCED_FACE('',(#79),#75,.F.);
#116=ADVANCED_FACE('',(#80),#76,.T.);
#117=ADVANCED_FACE('',(#168,#169),#28,.F.);
#118=ADVANCED_FACE('',(#170,#171),#29,.F.);
#119=ADVANCED_FACE('',(#172,#173),#30,.F.);
#120=ADVANCED_FACE('',(#174,#175),#31,.F.);
#121=ADVANCED_FACE('',(#176,#177),#32,.F.);
#122=ADVANCED_FACE('',(#178,#179),#33,.F.);
#123=ADVANCED_FACE('',(#180,#181),#34,.T.);
#124=ADVANCED_FACE('',(#182,#183),#35,.T.);
#125=CYLINDRICAL_SURFACE('',#390,12.5);
#126=CYLINDRICAL_SURFACE('',#398,6.2);
#127=CYLINDRICAL_SURFACE('',#410,9.7499999999999);
#128=CYLINDRICAL_SURFACE('',#416,10.);
#129=CYLINDRICAL_SURFACE('',#422,9.75000000000001);
#130=FACE_BOUND('',#184,.T.);
#131=FACE_BOUND('',#185,.T.);
#132=FACE_BOUND('',#186,.T.);
#133=FACE_BOUND('',#187,.T.);
#134=FACE_BOUND('',#188,.T.);
#135=FACE_BOUND('',#189,.T.);
#136=FACE_BOUND('',#190,.T.);
#137=FACE_BOUND('',#191,.T.);
#138=FACE_BOUND('',#192,.T.);
#139=FACE_BOUND('',#193,.T.);
#140=FACE_BOUND('',#194,.T.);
#141=FACE_BOUND('',#195,.T.);
#142=FACE_BOUND('',#196,.T.);
#143=FACE_BOUND('',#197,.T.);
#144=FACE_BOUND('',#199,.T.);
#145=FACE_BOUND('',#200,.T.);
#146=FACE_BOUND('',#201,.T.);
#147=FACE_BOUND('',#202,.T.);
#148=FACE_BOUND('',#203,.T.);
#149=FACE_BOUND('',#204,.T.);
#150=FACE_BOUND('',#205,.T.);
#151=FACE_BOUND('',#206,.T.);
#152=FACE_BOUND('',#207,.T.);
#153=FACE_BOUND('',#208,.T.);
#154=FACE_BOUND('',#209,.T.);
#155=FACE_BOUND('',#210,.T.);
#156=FACE_BOUND('',#211,.T.);
#157=FACE_BOUND('',#212,.T.);
#158=FACE_BOUND('',#213,.T.);
#159=FACE_BOUND('',#214,.T.);
#160=FACE_BOUND('',#215,.T.);
#161=FACE_BOUND('',#216,.T.);
#162=FACE_BOUND('',#217,.T.);
#163=FACE_BOUND('',#218,.T.);
#164=FACE_BOUND('',#219,.T.);
#165=FACE_BOUND('',#220,.T.);
#166=FACE_BOUND('',#221,.T.);
#167=FACE_BOUND('',#222,.T.);
#168=FACE_BOUND('',#226,.T.);
#169=FACE_BOUND('',#227,.T.);
#170=FACE_BOUND('',#228,.T.);
#171=FACE_BOUND('',#229,.T.);
#172=FACE_BOUND('',#230,.T.);
#173=FACE_BOUND('',#231,.T.);
#174=FACE_BOUND('',#232,.T.);
#175=FACE_BOUND('',#233,.T.);
#176=FACE_BOUND('',#234,.T.);
#177=FACE_BOUND('',#235,.T.);
#178=FACE_BOUND('',#236,.T.);
#179=FACE_BOUND('',#237,.T.);
#180=FACE_BOUND('',#238,.T.);
#181=FACE_BOUND('',#239,.T.);
#182=FACE_BOUND('',#240,.T.);
#183=FACE_BOUND('',#241,.T.);
#184=EDGE_LOOP('',(#242));
#185=EDGE_LOOP('',(#243));
#186=EDGE_LOOP('',(#244));
#187=EDGE_LOOP('',(#245));
#188=EDGE_LOOP('',(#246));
#189=EDGE_LOOP('',(#247));
#190=EDGE_LOOP('',(#248));
#191=EDGE_LOOP('',(#249));
#192=EDGE_LOOP('',(#250));
#193=EDGE_LOOP('',(#251));
#194=EDGE_LOOP('',(#252));
#195=EDGE_LOOP('',(#253));
#196=EDGE_LOOP('',(#254));
#197=EDGE_LOOP('',(#255));
#198=EDGE_LOOP('',(#256));
#199=EDGE_LOOP('',(#257));
#200=EDGE_LOOP('',(#258));
#201=EDGE_LOOP('',(#259));
#202=EDGE_LOOP('',(#260));
#203=EDGE_LOOP('',(#261));
#204=EDGE_LOOP('',(#262));
#205=EDGE_LOOP('',(#263));
#206=EDGE_LOOP('',(#264));
#207=EDGE_LOOP('',(#265));
#208=EDGE_LOOP('',(#266));
#209=EDGE_LOOP('',(#267));
#210=EDGE_LOOP('',(#268));
#211=EDGE_LOOP('',(#269));
#212=EDGE_LOOP('',(#270));
#213=EDGE_LOOP('',(#271));
#214=EDGE_LOOP('',(#272));
#215=EDGE_LOOP('',(#273));
#216=EDGE_LOOP('',(#274));
#217=EDGE_LOOP('',(#275));
#218=EDGE_LOOP('',(#276));
#219=EDGE_LOOP('',(#277));
#220=EDGE_LOOP('',(#278));
#221=EDGE_LOOP('',(#279));
#222=EDGE_LOOP('',(#280));
#223=EDGE_LOOP('',(#281));
#224=EDGE_LOOP('',(#282));
#225=EDGE_LOOP('',(#283));
#226=EDGE_LOOP('',(#284));
#227=EDGE_LOOP('',(#285));
#228=EDGE_LOOP('',(#286));
#229=EDGE_LOOP('',(#287));
#230=EDGE_LOOP('',(#288));
#231=EDGE_LOOP('',(#289));
#232=EDGE_LOOP('',(#290));
#233=EDGE_LOOP('',(#291));
#234=EDGE_LOOP('',(#292));
#235=EDGE_LOOP('',(#293));
#236=EDGE_LOOP('',(#294));
#237=EDGE_LOOP('',(#295));
#238=EDGE_LOOP('',(#296));
#239=EDGE_LOOP('',(#297));
#240=EDGE_LOOP('',(#298));
#241=EDGE_LOOP('',(#299));
#242=ORIENTED_EDGE('',*,*,#329,.F.);
#243=ORIENTED_EDGE('',*,*,#330,.T.);
#244=ORIENTED_EDGE('',*,*,#331,.T.);
#245=ORIENTED_EDGE('',*,*,#330,.F.);
#246=ORIENTED_EDGE('',*,*,#332,.T.);
#247=ORIENTED_EDGE('',*,*,#331,.F.);
#248=ORIENTED_EDGE('',*,*,#333,.T.);
#249=ORIENTED_EDGE('',*,*,#332,.F.);
#250=ORIENTED_EDGE('',*,*,#334,.T.);
#251=ORIENTED_EDGE('',*,*,#333,.F.);
#252=ORIENTED_EDGE('',*,*,#335,.T.);
#253=ORIENTED_EDGE('',*,*,#334,.F.);
#254=ORIENTED_EDGE('',*,*,#336,.T.);
#255=ORIENTED_EDGE('',*,*,#335,.F.);
#256=ORIENTED_EDGE('',*,*,#336,.F.);
#257=ORIENTED_EDGE('',*,*,#337,.F.);
#258=ORIENTED_EDGE('',*,*,#329,.T.);
#259=ORIENTED_EDGE('',*,*,#338,.T.);
#260=ORIENTED_EDGE('',*,*,#339,.T.);
#261=ORIENTED_EDGE('',*,*,#340,.T.);
#262=ORIENTED_EDGE('',*,*,#338,.F.);
#263=ORIENTED_EDGE('',*,*,#341,.T.);
#264=ORIENTED_EDGE('',*,*,#340,.F.);
#265=ORIENTED_EDGE('',*,*,#342,.T.);
#266=ORIENTED_EDGE('',*,*,#341,.F.);
#267=ORIENTED_EDGE('',*,*,#343,.T.);
#268=ORIENTED_EDGE('',*,*,#342,.F.);
#269=ORIENTED_EDGE('',*,*,#344,.T.);
#270=ORIENTED_EDGE('',*,*,#343,.F.);
#271=ORIENTED_EDGE('',*,*,#345,.T.);
#272=ORIENTED_EDGE('',*,*,#344,.F.);
#273=ORIENTED_EDGE('',*,*,#346,.T.);
#274=ORIENTED_EDGE('',*,*,#345,.F.);
#275=ORIENTED_EDGE('',*,*,#347,.T.);
#276=ORIENTED_EDGE('',*,*,#346,.F.);
#277=ORIENTED_EDGE('',*,*,#348,.T.);
#278=ORIENTED_EDGE('',*,*,#347,.F.);
#279=ORIENTED_EDGE('',*,*,#337,.T.);
#280=ORIENTED_EDGE('',*,*,#348,.F.);
#281=ORIENTED_EDGE('',*,*,#339,.F.);
#282=ORIENTED_EDGE('',*,*,#349,.F.);
#283=ORIENTED_EDGE('',*,*,#350,.T.);
#284=ORIENTED_EDGE('',*,*,#351,.F.);
#285=ORIENTED_EDGE('',*,*,#352,.T.);
#286=ORIENTED_EDGE('',*,*,#353,.T.);
#287=ORIENTED_EDGE('',*,*,#350,.F.);
#288=ORIENTED_EDGE('',*,*,#354,.T.);
#289=ORIENTED_EDGE('',*,*,#353,.F.);
#290=ORIENTED_EDGE('',*,*,#351,.T.);
#291=ORIENTED_EDGE('',*,*,#354,.F.);
#292=ORIENTED_EDGE('',*,*,#355,.F.);
#293=ORIENTED_EDGE('',*,*,#349,.T.);
#294=ORIENTED_EDGE('',*,*,#355,.T.);
#295=ORIENTED_EDGE('',*,*,#356,.T.);
#296=ORIENTED_EDGE('',*,*,#356,.F.);
#297=ORIENTED_EDGE('',*,*,#357,.F.);
#298=ORIENTED_EDGE('',*,*,#352,.F.);
#299=ORIENTED_EDGE('',*,*,#357,.T.);
#300=VERTEX_POINT('',#560);
#301=VERTEX_POINT('',#562);
#302=VERTEX_POINT('',#565);
#303=VERTEX_POINT('',#568);
#304=VERTEX_POINT('',#571);
#305=VERTEX_POINT('',#574);
#306=VERTEX_POINT('',#577);
#307=VERTEX_POINT('',#580);
#308=VERTEX_POINT('',#584);
#309=VERTEX_POINT('',#587);
#310=VERTEX_POINT('',#589);
#311=VERTEX_POINT('',#592);
#312=VERTEX_POINT('',#595);
#313=VERTEX_POINT('',#598);
#314=VERTEX_POINT('',#601);
#315=VERTEX_POINT('',#604);
#316=VERTEX_POINT('',#607);
#317=VERTEX_POINT('',#610);
#318=VERTEX_POINT('',#613);
#319=VERTEX_POINT('',#616);
#320=VERTEX_POINT('',#621);
#321=VERTEX_POINT('',#624);
#322=VERTEX_POINT('',#627);
#323=VERTEX_POINT('',#629);
#324=VERTEX_POINT('',#633);
#325=VERTEX_POINT('',#643);
#326=VERTEX_POINT('',#655);
#327=VERTEX_POINT('',#665);
#328=VERTEX_POINT('',#669);
#329=EDGE_CURVE('',#300,#300,#358,.T.);
#330=EDGE_CURVE('',#301,#301,#359,.T.);
#331=EDGE_CURVE('',#302,#302,#360,.T.);
#332=EDGE_CURVE('',#303,#303,#361,.T.);
#333=EDGE_CURVE('',#304,#304,#362,.T.);
#334=EDGE_CURVE('',#305,#305,#363,.T.);
#335=EDGE_CURVE('',#306,#306,#364,.T.);
#336=EDGE_CURVE('',#307,#307,#365,.T.);
#337=EDGE_CURVE('',#308,#308,#366,.T.);
#338=EDGE_CURVE('',#309,#309,#367,.T.);
#339=EDGE_CURVE('',#310,#310,#368,.T.);
#340=EDGE_CURVE('',#311,#311,#369,.T.);
#341=EDGE_CURVE('',#312,#312,#370,.T.);
#342=EDGE_CURVE('',#313,#313,#371,.T.);
#343=EDGE_CURVE('',#314,#314,#372,.T.);
#344=EDGE_CURVE('',#315,#315,#373,.T.);
#345=EDGE_CURVE('',#316,#316,#374,.T.);
#346=EDGE_CURVE('',#317,#317,#375,.T.);
#347=EDGE_CURVE('',#318,#318,#376,.T.);
#348=EDGE_CURVE('',#319,#319,#377,.T.);
#349=EDGE_CURVE('',#320,#320,#378,.T.);
#350=EDGE_CURVE('',#321,#321,#379,.T.);
#351=EDGE_CURVE('',#322,#322,#380,.T.);
#352=EDGE_CURVE('',#323,#323,#381,.T.);
#353=EDGE_CURVE('',#324,#324,#382,.T.);
#354=EDGE_CURVE('',#325,#325,#383,.T.);
#355=EDGE_CURVE('',#326,#326,#384,.T.);
#356=EDGE_CURVE('',#327,#327,#385,.T.);
#357=EDGE_CURVE('',#328,#328,#386,.T.);
#358=CIRCLE('',#388,12.5);
#359=CIRCLE('',#389,12.5);
#360=CIRCLE('',#391,12.1561937085138);
#361=CIRCLE('',#393,6.77301048581028);
#362=CIRCLE('',#395,6.2);
#363=CIRCLE('',#397,6.2);
#364=CIRCLE('',#399,6.06940669176187);
#365=CIRCLE('',#401,5.27050306395821);
#366=CIRCLE('',#404,11.8);
#367=CIRCLE('',#406,9.75000000000004);
#368=CIRCLE('',#407,8.75000000000002);
#369=CIRCLE('',#409,9.74999999999977);
#370=CIRCLE('',#411,9.81030737921386);
#371=CIRCLE('',#413,10.);
#372=CIRCLE('',#415,10.);
#373=CIRCLE('',#417,9.76362966948437);
#374=CIRCLE('',#419,9.75000000000001);
#375=CIRCLE('',#421,9.75);
#376=CIRCLE('',#423,10.205669240384);
#377=CIRCLE('',#425,11.);
#378=CIRCLE('',#429,1.55455651380147);
#379=CIRCLE('',#431,5.84094522824055);
#380=CIRCLE('',#433,6.1281077033663);
#381=CIRCLE('',#434,4.49009772505348);
#382=CIRCLE('',#435,6.25826136769879);
#383=CIRCLE('',#436,6.49999151703487);
#384=CIRCLE('',#437,1.95617174572666);
#385=CIRCLE('',#438,3.69560042229352);
#386=CIRCLE('',#439,4.18503210218566);
#387=AXIS2_PLACEMENT_3D('',#558,#440,#441);
#388=AXIS2_PLACEMENT_3D('',#559,#442,#443);
#389=AXIS2_PLACEMENT_3D('',#561,#444,#445);
#390=AXIS2_PLACEMENT_3D('',#563,#446,#447);
#391=AXIS2_PLACEMENT_3D('',#564,#448,#449);
#392=AXIS2_PLACEMENT_3D('',#566,#450,#451);
#393=AXIS2_PLACEMENT_3D('',#567,#452,#453);
#394=AXIS2_PLACEMENT_3D('',#569,#454,#455);
#395=AXIS2_PLACEMENT_3D('',#570,#456,#457);
#396=AXIS2_PLACEMENT_3D('',#572,#458,#459);
#397=AXIS2_PLACEMENT_3D('',#573,#460,#461);
#398=AXIS2_PLACEMENT_3D('',#575,#462,#463);
#399=AXIS2_PLACEMENT_3D('',#576,#464,#465);
#400=AXIS2_PLACEMENT_3D('',#578,#466,#467);
#401=AXIS2_PLACEMENT_3D('',#579,#468,#469);
#402=AXIS2_PLACEMENT_3D('',#581,#470,#471);
#403=AXIS2_PLACEMENT_3D('',#582,#472,#473);
#404=AXIS2_PLACEMENT_3D('',#583,#474,#475);
#405=AXIS2_PLACEMENT_3D('',#585,#476,#477);
#406=AXIS2_PLACEMENT_3D('',#586,#478,#479);
#407=AXIS2_PLACEMENT_3D('',#588,#480,#481);
#408=AXIS2_PLACEMENT_3D('',#590,#482,#483);
#409=AXIS2_PLACEMENT_3D('',#591,#484,#485);
#410=AXIS2_PLACEMENT_3D('',#593,#486,#487);
#411=AXIS2_PLACEMENT_3D('',#594,#488,#489);
#412=AXIS2_PLACEMENT_3D('',#596,#490,#491);
#413=AXIS2_PLACEMENT_3D('',#597,#492,#493);
#414=AXIS2_PLACEMENT_3D('',#599,#494,#495);
#415=AXIS2_PLACEMENT_3D('',#600,#496,#497);
#416=AXIS2_PLACEMENT_3D('',#602,#498,#499);
#417=AXIS2_PLACEMENT_3D('',#603,#500,#501);
#418=AXIS2_PLACEMENT_3D('',#605,#502,#503);
#419=AXIS2_PLACEMENT_3D('',#606,#504,#505);
#420=AXIS2_PLACEMENT_3D('',#608,#506,#507);
#421=AXIS2_PLACEMENT_3D('',#609,#508,#509);
#422=AXIS2_PLACEMENT_3D('',#611,#510,#511);
#423=AXIS2_PLACEMENT_3D('',#612,#512,#513);
#424=AXIS2_PLACEMENT_3D('',#614,#514,#515);
#425=AXIS2_PLACEMENT_3D('',#615,#516,#517);
#426=AXIS2_PLACEMENT_3D('',#617,#518,#519);
#427=AXIS2_PLACEMENT_3D('',#618,#520,#521);
#428=AXIS2_PLACEMENT_3D('',#619,#522,#523);
#429=AXIS2_PLACEMENT_3D('',#620,#524,#525);
#430=AXIS2_PLACEMENT_3D('',#622,#526,#527);
#431=AXIS2_PLACEMENT_3D('',#623,#528,#529);
#432=AXIS2_PLACEMENT_3D('',#625,#530,#531);
#433=AXIS2_PLACEMENT_3D('',#626,#532,#533);
#434=AXIS2_PLACEMENT_3D('',#628,#534,#535);
#435=AXIS2_PLACEMENT_3D('',#632,#538,#539);
#436=AXIS2_PLACEMENT_3D('',#642,#541,#542);
#437=AXIS2_PLACEMENT_3D('',#654,#546,#547);
#438=AXIS2_PLACEMENT_3D('',#664,#549,#550);
#439=AXIS2_PLACEMENT_3D('',#668,#553,#554);
#440=DIRECTION('',(0.,0.,1.));
#441=DIRECTION('',(1.,0.,0.));
#442=DIRECTION('',(1.,0.,0.));
#443=DIRECTION('',(0.,0.,1.));
#444=DIRECTION('',(1.,0.,0.));
#445=DIRECTION('',(0.,0.,1.));
#446=DIRECTION('',(-1.,0.,0.));
#447=DIRECTION('',(0.,0.,1.));
#448=DIRECTION('',(1.,0.,0.));
#449=DIRECTION('',(0.,0.,1.));
#450=DIRECTION('',(-1.,0.,0.));
#451=DIRECTION('',(0.,0.,1.));
#452=DIRECTION('',(1.,0.,0.));
#453=DIRECTION('',(0.,0.,1.));
#454=DIRECTION('',(1.,0.,0.));
#455=DIRECTION('',(1.93767492170236E-16,0.,-1.));
#456=DIRECTION('',(1.,0.,0.));
#457=DIRECTION('',(0.,0.,1.));
#458=DIRECTION('',(-1.,0.,0.));
#459=DIRECTION('',(0.,0.,1.));
#460=DIRECTION('',(1.,0.,0.));
#461=DIRECTION('',(0.,0.,1.));
#462=DIRECTION('',(-1.,0.,0.));
#463=DIRECTION('',(0.,0.,1.));
#464=DIRECTION('',(1.,0.,0.));
#465=DIRECTION('',(0.,0.,1.));
#466=DIRECTION('',(1.,0.,0.));
#467=DIRECTION('',(5.91977207530451E-17,0.,-1.));
#468=DIRECTION('',(1.,0.,0.));
#469=DIRECTION('',(0.,0.,1.));
#470=DIRECTION('',(-1.,0.,0.));
#471=DIRECTION('',(0.,0.,1.));
#472=DIRECTION('',(1.,0.,0.));
#473=DIRECTION('',(0.,0.,-1.));
#474=DIRECTION('',(1.,0.,0.));
#475=DIRECTION('',(0.,0.,1.));
#476=DIRECTION('',(-1.,0.,0.));
#477=DIRECTION('',(0.,0.,1.));
#478=DIRECTION('',(1.,0.,0.));
#479=DIRECTION('',(0.,0.,1.));
#480=DIRECTION('',(-1.,0.,0.));
#481=DIRECTION('',(0.,0.,1.));
#482=DIRECTION('',(-1.,0.,0.));
#483=DIRECTION('',(0.,0.,1.));
#484=DIRECTION('',(1.,0.,0.));
#485=DIRECTION('',(0.,0.,1.));
#486=DIRECTION('',(-1.,0.,0.));
#487=DIRECTION('',(0.,0.,1.));
#488=DIRECTION('',(1.,0.,0.));
#489=DIRECTION('',(0.,0.,1.));
#490=DIRECTION('',(-1.,0.,0.));
#491=DIRECTION('',(0.,0.,1.));
#492=DIRECTION('',(1.,0.,0.));
#493=DIRECTION('',(0.,0.,1.));
#494=DIRECTION('',(-1.,0.,0.));
#495=DIRECTION('',(-1.48512683370011E-16,0.,1.));
#496=DIRECTION('',(1.,0.,0.));
#497=DIRECTION('',(0.,0.,1.));
#498=DIRECTION('',(-1.,0.,0.));
#499=DIRECTION('',(0.,0.,1.));
#500=DIRECTION('',(1.,0.,0.));
#501=DIRECTION('',(0.,0.,1.));
#502=DIRECTION('',(1.,0.,0.));
#503=DIRECTION('',(1.49787675435538E-16,0.,-1.));
#504=DIRECTION('',(1.,0.,0.));
#505=DIRECTION('',(0.,0.,1.));
#506=DIRECTION('',(-1.,0.,0.));
#507=DIRECTION('',(0.,0.,1.));
#508=DIRECTION('',(1.,0.,0.));
#509=DIRECTION('',(0.,0.,1.));
#510=DIRECTION('',(-1.,0.,0.));
#511=DIRECTION('',(0.,0.,1.));
#512=DIRECTION('',(1.,0.,0.));
#513=DIRECTION('',(0.,0.,1.));
#514=DIRECTION('',(-1.,0.,0.));
#515=DIRECTION('',(0.,0.,1.));
#516=DIRECTION('',(1.,0.,0.));
#517=DIRECTION('',(0.,0.,1.));
#518=DIRECTION('',(1.,0.,0.));
#519=DIRECTION('',(0.,0.,-1.));
#520=DIRECTION('',(-1.,0.,0.));
#521=DIRECTION('',(0.,0.,1.));
#522=DIRECTION('',(-1.,0.,0.));
#523=DIRECTION('',(0.,0.,1.));
#524=DIRECTION('',(1.,0.,0.));
#525=DIRECTION('',(0.,0.,-1.));
#526=DIRECTION('',(1.,0.,0.));
#527=DIRECTION('',(0.,0.,-1.));
#528=DIRECTION('',(1.,0.,0.));
#529=DIRECTION('',(0.,0.,-1.));
#530=DIRECTION('',(1.,0.,0.));
#531=DIRECTION('',(0.,0.,-1.));
#532=DIRECTION('',(1.,0.,0.));
#533=DIRECTION('',(0.,0.,-1.));
#534=DIRECTION('',(1.,0.,0.));
#535=DIRECTION('',(0.,0.,-1.));
#536=DIRECTION('',(-0.0575640269595679,0.995909906125241,-0.0696408047182989));
#537=DIRECTION('',(1.,0.,0.));
#538=DIRECTION('',(1.,0.,0.));
#539=DIRECTION('',(0.,0.,-1.));
#540=DIRECTION('',(1.,0.,0.));
#541=DIRECTION('',(1.,0.,0.));
#542=DIRECTION('',(0.,0.,-1.));
#543=DIRECTION('',(-0.998341816614028,-0.057423803883052,0.00401546353521124));
#544=DIRECTION('',(1.,0.,0.));
#545=DIRECTION('',(1.,0.,0.));
#546=DIRECTION('',(1.,0.,0.));
#547=DIRECTION('',(0.,0.,-1.));
#548=DIRECTION('',(1.,0.,0.));
#549=DIRECTION('',(-1.,0.,0.));
#550=DIRECTION('',(0.,0.,-1.));
#551=DIRECTION('',(-0.0575640269595679,0.995909906125241,-0.0696408047182989));
#552=DIRECTION('',(1.,0.,0.));
#553=DIRECTION('',(1.,0.,0.));
#554=DIRECTION('',(0.,0.,-1.));
#555=DIRECTION('',(-0.104528463267654,0.994521895368273,4.8312326083792E-18));
#556=DIRECTION('',(1.,0.,0.));
#557=DIRECTION('',(1.,0.,0.));
#558=CARTESIAN_POINT('',(0.,0.,0.));
#559=CARTESIAN_POINT('',(47.5872983346208,0.,0.));
#560=CARTESIAN_POINT('',(47.5872983346208,0.,12.5));
#561=CARTESIAN_POINT('',(43.7396325703294,0.,0.));
#562=CARTESIAN_POINT('',(43.7396325703294,0.,12.5));
#563=CARTESIAN_POINT('',(0.,0.,0.));
#564=CARTESIAN_POINT('',(42.3451308733597,0.,0.));
#565=CARTESIAN_POINT('',(42.3451308733597,0.,12.1561937085138));
#566=CARTESIAN_POINT('',(43.7396325703294,0.,0.));
#567=CARTESIAN_POINT('',(32.0914485444005,0.,0.));
#568=CARTESIAN_POINT('',(32.0914485444005,0.,6.77301048581028));
#569=CARTESIAN_POINT('',(42.3451308733597,0.,0.));
#570=CARTESIAN_POINT('',(29.7672790494509,0.,0.));
#571=CARTESIAN_POINT('',(29.7672790494509,0.,6.2));
#572=CARTESIAN_POINT('',(29.7672790494509,0.,0.));
#573=CARTESIAN_POINT('',(4.,0.,0.));
#574=CARTESIAN_POINT('',(4.,0.,6.2));
#575=CARTESIAN_POINT('',(0.,0.,0.));
#576=CARTESIAN_POINT('',(1.50813123500565,0.,0.));
#577=CARTESIAN_POINT('',(1.50813123500565,0.,6.06940669176187));
#578=CARTESIAN_POINT('',(4.,0.,0.));
#579=CARTESIAN_POINT('',(0.750000000000001,0.,0.));
#580=CARTESIAN_POINT('',(0.750000000000001,0.,5.27050306395821));
#581=CARTESIAN_POINT('',(1.55,0.,0.));
#582=CARTESIAN_POINT('',(0.750000000000001,5.27050306395821,0.));
#583=CARTESIAN_POINT('',(48.,0.,0.));
#584=CARTESIAN_POINT('',(48.,0.,11.8));
#585=CARTESIAN_POINT('',(47.2,0.,0.));
#586=CARTESIAN_POINT('',(97.,0.,0.));
#587=CARTESIAN_POINT('',(97.,0.,9.75000000000004));
#588=CARTESIAN_POINT('',(98.,0.,0.));
#589=CARTESIAN_POINT('',(98.,0.,8.75000000000002));
#590=CARTESIAN_POINT('',(97.,0.,0.));
#591=CARTESIAN_POINT('',(95.1763269807091,0.,0.));
#592=CARTESIAN_POINT('',(95.1763269807091,0.,9.74999999999977));
#593=CARTESIAN_POINT('',(0.,0.,0.));
#594=CARTESIAN_POINT('',(94.8343068373834,0.,0.));
#595=CARTESIAN_POINT('',(94.8343068373834,0.,9.81030737921386));
#596=CARTESIAN_POINT('',(95.1763269807091,0.,0.));
#597=CARTESIAN_POINT('',(94.3131306451363,0.,0.));
#598=CARTESIAN_POINT('',(94.3131306451363,0.,10.));
#599=CARTESIAN_POINT('',(94.8343068373834,0.,0.));
#600=CARTESIAN_POINT('',(50.,0.,0.));
#601=CARTESIAN_POINT('',(50.,0.,10.));
#602=CARTESIAN_POINT('',(0.,0.,0.));
#603=CARTESIAN_POINT('',(49.1178539171138,0.,0.));
#604=CARTESIAN_POINT('',(49.1178539171138,0.,9.76362966948437));
#605=CARTESIAN_POINT('',(50.,0.,0.));
#606=CARTESIAN_POINT('',(49.0143262990728,0.,0.));
#607=CARTESIAN_POINT('',(49.0143262990728,0.,9.75000000000001));
#608=CARTESIAN_POINT('',(49.0143262990728,0.,0.));
#609=CARTESIAN_POINT('',(48.2844713195104,0.,0.));
#610=CARTESIAN_POINT('',(48.2844713195104,0.,9.75));
#611=CARTESIAN_POINT('',(0.,0.,0.));
#612=CARTESIAN_POINT('',(47.8883640920138,0.,0.));
#613=CARTESIAN_POINT('',(47.8883640920138,0.,10.205669240384));
#614=CARTESIAN_POINT('',(48.2844713195104,0.,0.));
#615=CARTESIAN_POINT('',(48.,0.,0.));
#616=CARTESIAN_POINT('',(48.,0.,11.));
#617=CARTESIAN_POINT('',(47.8883640920138,0.,0.));
#618=CARTESIAN_POINT('',(48.,11.,0.));
#619=CARTESIAN_POINT('',(98.,13.,0.));
#620=CARTESIAN_POINT('',(0.326531602313483,0.,0.));
#621=CARTESIAN_POINT('',(0.326531602313483,0.,-1.55455651380147));
#622=CARTESIAN_POINT('',(0.326531602313483,0.,0.));
#623=CARTESIAN_POINT('',(5.23392535331604,0.,0.));
#624=CARTESIAN_POINT('',(5.23392535331604,0.,-5.84094522824055));
#625=CARTESIAN_POINT('',(5.23392535331604,0.,0.));
#626=CARTESIAN_POINT('',(0.242216270245903,0.,0.));
#627=CARTESIAN_POINT('',(0.242216270245903,0.,-6.1281077033663));
#628=CARTESIAN_POINT('',(0.1474874998532,0.,0.));
#629=CARTESIAN_POINT('',(0.1474874998532,0.,-4.49009772505348));
#630=CARTESIAN_POINT('',(0.242216270245903,-6.07167031228147,0.829773247952253));
#631=CARTESIAN_POINT('',(4.,0.,0.));
#632=CARTESIAN_POINT('',(4.86127647136561,0.,0.));
#633=CARTESIAN_POINT('',(4.86127647136561,0.,-6.25826136769879));
#634=CARTESIAN_POINT('',(5.23392535331605,-5.78455129286621,0.809695930276196));
#635=CARTESIAN_POINT('',(5.23690119860841,-5.83603611702284,0.813296099892942));
#636=CARTESIAN_POINT('',(5.22247386739599,-5.94154529089509,0.820674020052622));
#637=CARTESIAN_POINT('',(5.14237413294614,-6.07740200878964,0.830174047216097));
#638=CARTESIAN_POINT('',(5.01629465491347,-6.1723920617256,0.836816398784254));
#639=CARTESIAN_POINT('',(4.91288701621556,-6.19881579208354,0.838664126007839));
#640=CARTESIAN_POINT('',(4.86127647136561,-6.20178438836633,0.838871710481842));
#641=CARTESIAN_POINT('',(4.,0.,0.));
#642=CARTESIAN_POINT('',(0.660468206441328,0.,0.));
#643=CARTESIAN_POINT('',(0.660468206441328,0.,-6.49999151703487));
#644=CARTESIAN_POINT('',(4.86127647136561,-6.20178438836633,0.838871710481842));
#645=CARTESIAN_POINT('',(4.,0.,0.));
#646=CARTESIAN_POINT('',(0.660468206441328,-6.44341144028474,0.855767919901806));
#647=CARTESIAN_POINT('',(0.608857661591378,-6.44638003656754,0.855975504375809));
#648=CARTESIAN_POINT('',(0.503090845069905,-6.43198784960884,0.854969104624893));
#649=CARTESIAN_POINT('',(0.366902378916615,-6.35208323408631,0.84938162960183));
#650=CARTESIAN_POINT('',(0.271680369952656,-6.2263108793254,0.840586769802771));
#651=CARTESIAN_POINT('',(0.245192115538265,-6.1231551364381,0.833373417568998));
#652=CARTESIAN_POINT('',(0.242216270245902,-6.07167031228147,0.829773247952253));
#653=CARTESIAN_POINT('',(4.,0.,0.));
#654=CARTESIAN_POINT('',(-8.10306945674133E-7,0.,0.));
#655=CARTESIAN_POINT('',(-8.10306945674133E-7,0.,-1.95617174572666));
#656=CARTESIAN_POINT('',(-8.1030694556843E-7,-1.88109500515866,0.536739676515957));
#657=CARTESIAN_POINT('',(-0.00297665559930906,-1.82961018100203,0.533139506899211));
#658=CARTESIAN_POINT('',(0.0114506756131061,-1.72410100712978,0.525761586739531));
#659=CARTESIAN_POINT('',(0.0915504100629572,-1.58824428923523,0.516261559576057));
#660=CARTESIAN_POINT('',(0.217629888095624,-1.49325423629926,0.509619208007899));
#661=CARTESIAN_POINT('',(0.321037526793538,-1.46683050594133,0.507771480784314));
#662=CARTESIAN_POINT('',(0.372648071643488,-1.46386190965854,0.507563896310311));
#663=CARTESIAN_POINT('',(4.,0.,0.));
#664=CARTESIAN_POINT('',(0.101449836821423,0.,0.));
#665=CARTESIAN_POINT('',(0.101449836821423,0.,-3.69560042229352));
#666=CARTESIAN_POINT('',(0.101449836821423,-3.63628326759423,0.659474396068746));
#667=CARTESIAN_POINT('',(4.,0.,0.));
#668=CARTESIAN_POINT('',(0.05000433632506,0.,0.));
#669=CARTESIAN_POINT('',(0.05000433632506,0.,-4.18503210218566));
#670=CARTESIAN_POINT('',(0.101449836821423,3.69526216678276,0.0500000000000034));
#671=CARTESIAN_POINT('',(4.,0.,0.));
#672=CARTESIAN_POINT('',(0.0500043363250604,4.18473340803504,0.0500000000000034));
#673=CARTESIAN_POINT('',(0.0446006050059933,4.23614647721734,0.0500000000000034));
#674=CARTESIAN_POINT('',(0.0540296207476134,4.34247549971423,0.0500000000000034));
#675=CARTESIAN_POINT('',(0.12762507920864,4.48228599383407,0.0500000000000034));
#676=CARTESIAN_POINT('',(0.249079022384229,4.58334145117915,0.0500000000000034));
#677=CARTESIAN_POINT('',(0.351124098022345,4.61467146715443,0.0500000000000034));
#678=CARTESIAN_POINT('',(0.402537167204646,4.62007519847349,0.0500000000000034));
#679=CARTESIAN_POINT('',(4.,0.,0.));
#680=(
GEOMETRIC_REPRESENTATION_CONTEXT(3)
GLOBAL_UNCERTAINTY_ASSIGNED_CONTEXT((#681))
GLOBAL_UNIT_ASSIGNED_CONTEXT((#687,#683,#682))
REPRESENTATION_CONTEXT('ATUM-13XD2-SP-050204-light',
'TOP_LEVEL_ASSEMBLY_PART')
);
#681=UNCERTAINTY_MEASURE_WITH_UNIT(LENGTH_MEASURE(2.E-5),#687,
'DISTANCE_ACCURACY_VALUE','Maximum Tolerance applied to model');
#682=(
NAMED_UNIT(*)
SI_UNIT($,.STERADIAN.)
SOLID_ANGLE_UNIT()
);
#683=(
CONVERSION_BASED_UNIT('DEGREE',#685)
NAMED_UNIT(#684)
PLANE_ANGLE_UNIT()
);
#684=DIMENSIONAL_EXPONENTS(0.,0.,0.,0.,0.,0.,0.);
#685=PLANE_ANGLE_MEASURE_WITH_UNIT(PLANE_ANGLE_MEASURE(0.0174532925),#686);
#686=(
NAMED_UNIT(*)
PLANE_ANGLE_UNIT()
SI_UNIT($,.RADIAN.)
);
#687=(
LENGTH_UNIT()
NAMED_UNIT(*)
SI_UNIT(.MILLI.,.METRE.)
);
ENDSEC;
END-ISO-10303-21;
