ISO-10303-21;
HEADER;
/* Generated by software containing ST-Developer
 * from STEP Tools, Inc. (www.steptools.com) 
 */
/* OPTION: using custom schema-name function */

FILE_DESCRIPTION(
/* description */ (''),
/* implementation_level */ '2;1');

FILE_NAME(
/* name */ 'ATUM-14.5XD3-SPGT-050204.stp',
/* time_stamp */ '2023-10-02T17:19:57+03:00',
/* author */ (''),
/* organization */ (''),
/* preprocessor_version */ 'ST-DEVELOPER v19.4',
/* originating_system */ 'SIEMENS PLM Software NX2306.3001',
/* authorisation */ '');

FILE_SCHEMA (('AUTOMOTIVE_DESIGN { 1 0 10303 214 3 1 1 1 }'));
ENDSEC;

DATA;
#10=SHAPE_REPRESENTATION_RELATIONSHIP('None',
'relationship between STEP_ATUM 14.5XD3 SPGT 050204-None and STEP_ATUM
 14.5XD3 SPGT 050204-None',#22,#11);
#11=ADVANCED_BREP_SHAPE_REPRESENTATION(
'STEP_ATUM 14.5XD3 SPGT 050204-None',(#57,#58),#447);
#12=SHAPE_DEFINITION_REPRESENTATION(#13,#22);
#13=PRODUCT_DEFINITION_SHAPE('','',#14);
#14=PRODUCT_DEFINITION(' ','',#16,#15);
#15=PRODUCT_DEFINITION_CONTEXT('part definition',#21,'design');
#16=PRODUCT_DEFINITION_FORMATION_WITH_SPECIFIED_SOURCE(' ',' ',#18,
 .NOT_KNOWN.);
#17=PRODUCT_RELATED_PRODUCT_CATEGORY('part','',(#18));
#18=PRODUCT('STEP_ATUM 14.5XD3 SPGT 050204',
'STEP_ATUM 14.5XD3 SPGT 050204',' ',(#19));
#19=PRODUCT_CONTEXT(' ',#21,'mechanical');
#20=APPLICATION_PROTOCOL_DEFINITION('international standard',
'automotive_design',2010,#21);
#21=APPLICATION_CONTEXT(
'core data for automotive mechanical design processes');
#22=SHAPE_REPRESENTATION('STEP_ATUM 14.5XD3 SPGT 050204-None',(#258),#447);
#23=DRAUGHTING_PRE_DEFINED_COLOUR('yellow');
#24=B_SPLINE_CURVE_WITH_KNOTS('',3,(#419,#420,#421,#422,#423,#424,#425),
 .UNSPECIFIED.,.F.,.F.,(4,1,1,1,4),(0.,0.25,0.5,0.75,1.),.UNSPECIFIED.);
#25=B_SPLINE_CURVE_WITH_KNOTS('',3,(#431,#432,#433,#434,#435,#436,#437),
 .UNSPECIFIED.,.F.,.F.,(4,1,1,1,4),(0.,0.25,0.5,0.75,1.),.UNSPECIFIED.);
#26=B_SPLINE_CURVE_WITH_KNOTS('',3,(#439,#440,#441,#442,#443,#444,#445),
 .UNSPECIFIED.,.F.,.F.,(4,1,1,1,4),(0.,0.25,0.5,0.75,1.),.UNSPECIFIED.);
#27=SURFACE_OF_REVOLUTION('',#37,#32);
#28=SURFACE_OF_REVOLUTION('',#24,#33);
#29=SURFACE_OF_REVOLUTION('',#38,#34);
#30=SURFACE_OF_REVOLUTION('',#25,#35);
#31=SURFACE_OF_REVOLUTION('',#26,#36);
#32=AXIS1_PLACEMENT('',#416,#357);
#33=AXIS1_PLACEMENT('',#426,#360);
#34=AXIS1_PLACEMENT('',#430,#364);
#35=AXIS1_PLACEMENT('',#438,#365);
#36=AXIS1_PLACEMENT('',#446,#366);
#37=LINE('',#415,#39);
#38=LINE('',#429,#40);
#39=VECTOR('',#356,2.34637992707386);
#40=VECTOR('',#363,4.20596307868695);
#41=PRESENTATION_LAYER_ASSIGNMENT('1','Layer 1',(#57,#58));
#42=STYLED_ITEM('',(#44),#57);
#43=STYLED_ITEM('',(#45),#58);
#44=PRESENTATION_STYLE_ASSIGNMENT((#46));
#45=PRESENTATION_STYLE_ASSIGNMENT((#47));
#46=SURFACE_STYLE_USAGE(.BOTH.,#48);
#47=SURFACE_STYLE_USAGE(.BOTH.,#49);
#48=SURFACE_SIDE_STYLE('',(#50));
#49=SURFACE_SIDE_STYLE('',(#51));
#50=SURFACE_STYLE_FILL_AREA(#52);
#51=SURFACE_STYLE_FILL_AREA(#53);
#52=FILL_AREA_STYLE('',(#54));
#53=FILL_AREA_STYLE('',(#55));
#54=FILL_AREA_STYLE_COLOUR('',#56);
#55=FILL_AREA_STYLE_COLOUR('',#23);
#56=COLOUR_RGB('smoke gray',0.694117647058824,0.694117647058824,0.694117647058824);
#57=MANIFOLD_SOLID_BREP('',#59);
#58=MANIFOLD_SOLID_BREP('',#60);
#59=CLOSED_SHELL('',(#103,#104,#105,#106,#107,#108,#109,#110,#111,#112,
#113,#114,#115));
#60=CLOSED_SHELL('',(#116,#117,#118,#119,#120,#121,#122));
#61=CONICAL_SURFACE('',#274,12.2228811223379,24.8205413354891);
#62=CONICAL_SURFACE('',#279,6.95,3.00000000000005);
#63=CYLINDRICAL_SURFACE('',#270,12.5);
#64=CYLINDRICAL_SURFACE('',#278,6.95);
#65=CYLINDRICAL_SURFACE('',#282,10.);
#66=TOROIDAL_SURFACE('',#263,5.78092276029635,1.);
#67=TOROIDAL_SURFACE('',#268,11.8,0.799999999999997);
#68=TOROIDAL_SURFACE('',#272,9.5,3.);
#69=TOROIDAL_SURFACE('',#276,11.95,5.);
#70=TOROIDAL_SURFACE('',#283,9.2,0.8);
#71=FACE_BOUND('',#133,.T.);
#72=FACE_BOUND('',#134,.T.);
#73=FACE_BOUND('',#135,.T.);
#74=FACE_BOUND('',#136,.T.);
#75=FACE_BOUND('',#137,.T.);
#76=FACE_BOUND('',#138,.T.);
#77=FACE_BOUND('',#139,.T.);
#78=FACE_BOUND('',#140,.T.);
#79=FACE_BOUND('',#141,.T.);
#80=FACE_BOUND('',#142,.T.);
#81=FACE_BOUND('',#143,.T.);
#82=FACE_BOUND('',#144,.T.);
#83=FACE_BOUND('',#145,.T.);
#84=FACE_BOUND('',#146,.T.);
#85=FACE_BOUND('',#147,.T.);
#86=FACE_BOUND('',#148,.T.);
#87=FACE_BOUND('',#149,.T.);
#88=FACE_BOUND('',#150,.T.);
#89=FACE_BOUND('',#152,.T.);
#90=FACE_BOUND('',#153,.T.);
#91=FACE_BOUND('',#154,.T.);
#92=FACE_BOUND('',#155,.T.);
#93=FACE_BOUND('',#158,.T.);
#94=FACE_BOUND('',#159,.T.);
#95=FACE_BOUND('',#160,.T.);
#96=FACE_BOUND('',#161,.T.);
#97=FACE_BOUND('',#162,.T.);
#98=FACE_BOUND('',#163,.T.);
#99=FACE_BOUND('',#164,.T.);
#100=FACE_BOUND('',#165,.T.);
#101=FACE_BOUND('',#166,.T.);
#102=FACE_BOUND('',#167,.T.);
#103=ADVANCED_FACE('',(#128),#123,.F.);
#104=ADVANCED_FACE('',(#71,#72),#66,.T.);
#105=ADVANCED_FACE('',(#73,#74),#124,.F.);
#106=ADVANCED_FACE('',(#75,#76),#67,.T.);
#107=ADVANCED_FACE('',(#77,#78),#63,.T.);
#108=ADVANCED_FACE('',(#79,#80),#68,.T.);
#109=ADVANCED_FACE('',(#81,#82),#61,.T.);
#110=ADVANCED_FACE('',(#83,#84),#69,.F.);
#111=ADVANCED_FACE('',(#85,#86),#64,.T.);
#112=ADVANCED_FACE('',(#87,#88),#62,.T.);
#113=ADVANCED_FACE('',(#129),#125,.T.);
#114=ADVANCED_FACE('',(#89,#90),#65,.T.);
#115=ADVANCED_FACE('',(#91,#92),#70,.T.);
#116=ADVANCED_FACE('',(#130),#126,.T.);
#117=ADVANCED_FACE('',(#131),#127,.F.);
#118=ADVANCED_FACE('',(#93,#94),#27,.T.);
#119=ADVANCED_FACE('',(#95,#96),#28,.T.);
#120=ADVANCED_FACE('',(#97,#98),#29,.T.);
#121=ADVANCED_FACE('',(#99,#100),#30,.T.);
#122=ADVANCED_FACE('',(#101,#102),#31,.T.);
#123=PLANE('',#260);
#124=PLANE('',#266);
#125=PLANE('',#280);
#126=PLANE('',#285);
#127=PLANE('',#287);
#128=FACE_OUTER_BOUND('',#132,.T.);
#129=FACE_OUTER_BOUND('',#151,.T.);
#130=FACE_OUTER_BOUND('',#156,.T.);
#131=FACE_OUTER_BOUND('',#157,.T.);
#132=EDGE_LOOP('',(#168));
#133=EDGE_LOOP('',(#169));
#134=EDGE_LOOP('',(#170));
#135=EDGE_LOOP('',(#171));
#136=EDGE_LOOP('',(#172));
#137=EDGE_LOOP('',(#173));
#138=EDGE_LOOP('',(#174));
#139=EDGE_LOOP('',(#175));
#140=EDGE_LOOP('',(#176));
#141=EDGE_LOOP('',(#177));
#142=EDGE_LOOP('',(#178));
#143=EDGE_LOOP('',(#179));
#144=EDGE_LOOP('',(#180));
#145=EDGE_LOOP('',(#181));
#146=EDGE_LOOP('',(#182));
#147=EDGE_LOOP('',(#183));
#148=EDGE_LOOP('',(#184));
#149=EDGE_LOOP('',(#185));
#150=EDGE_LOOP('',(#186));
#151=EDGE_LOOP('',(#187));
#152=EDGE_LOOP('',(#188));
#153=EDGE_LOOP('',(#189));
#154=EDGE_LOOP('',(#190));
#155=EDGE_LOOP('',(#191));
#156=EDGE_LOOP('',(#192));
#157=EDGE_LOOP('',(#193));
#158=EDGE_LOOP('',(#194));
#159=EDGE_LOOP('',(#195));
#160=EDGE_LOOP('',(#196));
#161=EDGE_LOOP('',(#197));
#162=EDGE_LOOP('',(#198));
#163=EDGE_LOOP('',(#199));
#164=EDGE_LOOP('',(#200));
#165=EDGE_LOOP('',(#201));
#166=EDGE_LOOP('',(#202));
#167=EDGE_LOOP('',(#203));
#168=ORIENTED_EDGE('',*,*,#222,.T.);
#169=ORIENTED_EDGE('',*,*,#223,.F.);
#170=ORIENTED_EDGE('',*,*,#224,.F.);
#171=ORIENTED_EDGE('',*,*,#225,.F.);
#172=ORIENTED_EDGE('',*,*,#226,.T.);
#173=ORIENTED_EDGE('',*,*,#227,.T.);
#174=ORIENTED_EDGE('',*,*,#226,.F.);
#175=ORIENTED_EDGE('',*,*,#228,.T.);
#176=ORIENTED_EDGE('',*,*,#227,.F.);
#177=ORIENTED_EDGE('',*,*,#229,.T.);
#178=ORIENTED_EDGE('',*,*,#228,.F.);
#179=ORIENTED_EDGE('',*,*,#230,.T.);
#180=ORIENTED_EDGE('',*,*,#229,.F.);
#181=ORIENTED_EDGE('',*,*,#231,.T.);
#182=ORIENTED_EDGE('',*,*,#230,.F.);
#183=ORIENTED_EDGE('',*,*,#232,.T.);
#184=ORIENTED_EDGE('',*,*,#231,.F.);
#185=ORIENTED_EDGE('',*,*,#223,.T.);
#186=ORIENTED_EDGE('',*,*,#232,.F.);
#187=ORIENTED_EDGE('',*,*,#224,.T.);
#188=ORIENTED_EDGE('',*,*,#233,.T.);
#189=ORIENTED_EDGE('',*,*,#225,.T.);
#190=ORIENTED_EDGE('',*,*,#233,.F.);
#191=ORIENTED_EDGE('',*,*,#222,.F.);
#192=ORIENTED_EDGE('',*,*,#234,.T.);
#193=ORIENTED_EDGE('',*,*,#235,.F.);
#194=ORIENTED_EDGE('',*,*,#236,.F.);
#195=ORIENTED_EDGE('',*,*,#237,.F.);
#196=ORIENTED_EDGE('',*,*,#238,.F.);
#197=ORIENTED_EDGE('',*,*,#236,.T.);
#198=ORIENTED_EDGE('',*,*,#239,.F.);
#199=ORIENTED_EDGE('',*,*,#238,.T.);
#200=ORIENTED_EDGE('',*,*,#234,.F.);
#201=ORIENTED_EDGE('',*,*,#239,.T.);
#202=ORIENTED_EDGE('',*,*,#235,.T.);
#203=ORIENTED_EDGE('',*,*,#237,.T.);
#204=VERTEX_POINT('',#369);
#205=VERTEX_POINT('',#372);
#206=VERTEX_POINT('',#374);
#207=VERTEX_POINT('',#377);
#208=VERTEX_POINT('',#379);
#209=VERTEX_POINT('',#382);
#210=VERTEX_POINT('',#385);
#211=VERTEX_POINT('',#388);
#212=VERTEX_POINT('',#391);
#213=VERTEX_POINT('',#394);
#214=VERTEX_POINT('',#397);
#215=VERTEX_POINT('',#402);
#216=VERTEX_POINT('',#406);
#217=VERTEX_POINT('',#409);
#218=VERTEX_POINT('',#412);
#219=VERTEX_POINT('',#414);
#220=VERTEX_POINT('',#418);
#221=VERTEX_POINT('',#428);
#222=EDGE_CURVE('',#204,#204,#240,.T.);
#223=EDGE_CURVE('',#205,#205,#241,.T.);
#224=EDGE_CURVE('',#206,#206,#242,.T.);
#225=EDGE_CURVE('',#207,#207,#243,.T.);
#226=EDGE_CURVE('',#208,#208,#244,.T.);
#227=EDGE_CURVE('',#209,#209,#245,.T.);
#228=EDGE_CURVE('',#210,#210,#246,.T.);
#229=EDGE_CURVE('',#211,#211,#247,.T.);
#230=EDGE_CURVE('',#212,#212,#248,.T.);
#231=EDGE_CURVE('',#213,#213,#249,.T.);
#232=EDGE_CURVE('',#214,#214,#250,.T.);
#233=EDGE_CURVE('',#215,#215,#251,.T.);
#234=EDGE_CURVE('',#216,#216,#252,.T.);
#235=EDGE_CURVE('',#217,#217,#253,.T.);
#236=EDGE_CURVE('',#218,#218,#254,.T.);
#237=EDGE_CURVE('',#219,#219,#255,.T.);
#238=EDGE_CURVE('',#220,#220,#256,.T.);
#239=EDGE_CURVE('',#221,#221,#257,.T.);
#240=CIRCLE('',#259,9.2);
#241=CIRCLE('',#261,6.77955229505092);
#242=CIRCLE('',#262,6.76071865740962);
#243=CIRCLE('',#264,10.);
#244=CIRCLE('',#265,11.8);
#245=CIRCLE('',#267,12.5);
#246=CIRCLE('',#269,12.5);
#247=CIRCLE('',#271,12.2228811223379);
#248=CIRCLE('',#273,7.41186479610343);
#249=CIRCLE('',#275,6.95);
#250=CIRCLE('',#277,6.95);
#251=CIRCLE('',#281,10.);
#252=CIRCLE('',#284,6.59019464350094);
#253=CIRCLE('',#286,4.18322598982709);
#254=CIRCLE('',#288,6.87737110801149);
#255=CIRCLE('',#289,4.54248809401656);
#256=CIRCLE('',#290,7.25011807000723);
#257=CIRCLE('',#291,7.00848879794437);
#258=AXIS2_PLACEMENT_3D('',#367,#292,#293);
#259=AXIS2_PLACEMENT_3D('',#368,#294,#295);
#260=AXIS2_PLACEMENT_3D('',#370,#296,#297);
#261=AXIS2_PLACEMENT_3D('',#371,#298,#299);
#262=AXIS2_PLACEMENT_3D('',#373,#300,#301);
#263=AXIS2_PLACEMENT_3D('',#375,#302,#303);
#264=AXIS2_PLACEMENT_3D('',#376,#304,#305);
#265=AXIS2_PLACEMENT_3D('',#378,#306,#307);
#266=AXIS2_PLACEMENT_3D('',#380,#308,#309);
#267=AXIS2_PLACEMENT_3D('',#381,#310,#311);
#268=AXIS2_PLACEMENT_3D('',#383,#312,#313);
#269=AXIS2_PLACEMENT_3D('',#384,#314,#315);
#270=AXIS2_PLACEMENT_3D('',#386,#316,#317);
#271=AXIS2_PLACEMENT_3D('',#387,#318,#319);
#272=AXIS2_PLACEMENT_3D('',#389,#320,#321);
#273=AXIS2_PLACEMENT_3D('',#390,#322,#323);
#274=AXIS2_PLACEMENT_3D('',#392,#324,#325);
#275=AXIS2_PLACEMENT_3D('',#393,#326,#327);
#276=AXIS2_PLACEMENT_3D('',#395,#328,#329);
#277=AXIS2_PLACEMENT_3D('',#396,#330,#331);
#278=AXIS2_PLACEMENT_3D('',#398,#332,#333);
#279=AXIS2_PLACEMENT_3D('',#399,#334,#335);
#280=AXIS2_PLACEMENT_3D('',#400,#336,#337);
#281=AXIS2_PLACEMENT_3D('',#401,#338,#339);
#282=AXIS2_PLACEMENT_3D('',#403,#340,#341);
#283=AXIS2_PLACEMENT_3D('',#404,#342,#343);
#284=AXIS2_PLACEMENT_3D('',#405,#344,#345);
#285=AXIS2_PLACEMENT_3D('',#407,#346,#347);
#286=AXIS2_PLACEMENT_3D('',#408,#348,#349);
#287=AXIS2_PLACEMENT_3D('',#410,#350,#351);
#288=AXIS2_PLACEMENT_3D('',#411,#352,#353);
#289=AXIS2_PLACEMENT_3D('',#413,#354,#355);
#290=AXIS2_PLACEMENT_3D('',#417,#358,#359);
#291=AXIS2_PLACEMENT_3D('',#427,#361,#362);
#292=DIRECTION('',(0.,0.,1.));
#293=DIRECTION('',(1.,0.,0.));
#294=DIRECTION('',(1.,0.,0.));
#295=DIRECTION('',(0.,0.,1.));
#296=DIRECTION('',(-1.,0.,0.));
#297=DIRECTION('',(0.,0.,1.));
#298=DIRECTION('',(1.,0.,0.));
#299=DIRECTION('',(0.,0.,1.));
#300=DIRECTION('',(-1.,0.,0.));
#301=DIRECTION('',(0.,0.,1.));
#302=DIRECTION('',(-1.,0.,0.));
#303=DIRECTION('',(0.,0.,1.));
#304=DIRECTION('',(1.,0.,0.));
#305=DIRECTION('',(0.,0.,1.));
#306=DIRECTION('',(1.,0.,0.));
#307=DIRECTION('',(0.,0.,1.));
#308=DIRECTION('',(-1.,0.,0.));
#309=DIRECTION('',(0.,0.,1.));
#310=DIRECTION('',(1.,0.,0.));
#311=DIRECTION('',(0.,0.,1.));
#312=DIRECTION('',(-1.,0.,0.));
#313=DIRECTION('',(0.,0.,1.));
#314=DIRECTION('',(1.,0.,0.));
#315=DIRECTION('',(0.,0.,1.));
#316=DIRECTION('',(-1.,0.,0.));
#317=DIRECTION('',(0.,0.,1.));
#318=DIRECTION('',(1.,0.,0.));
#319=DIRECTION('',(0.,0.,1.));
#320=DIRECTION('',(-1.,0.,0.));
#321=DIRECTION('',(0.,0.,1.));
#322=DIRECTION('',(1.,0.,0.));
#323=DIRECTION('',(0.,0.,1.));
#324=DIRECTION('',(1.,0.,0.));
#325=DIRECTION('',(1.4616725209247E-17,0.,-1.));
#326=DIRECTION('',(1.,0.,0.));
#327=DIRECTION('',(0.,0.,1.));
#328=DIRECTION('',(-1.,0.,0.));
#329=DIRECTION('',(0.,0.,1.));
#330=DIRECTION('',(1.,0.,0.));
#331=DIRECTION('',(0.,0.,1.));
#332=DIRECTION('',(-1.,0.,0.));
#333=DIRECTION('',(0.,0.,1.));
#334=DIRECTION('',(1.,0.,0.));
#335=DIRECTION('',(-1.75349229394679E-15,0.,-1.));
#336=DIRECTION('',(-1.,0.,0.));
#337=DIRECTION('',(0.,0.,1.));
#338=DIRECTION('',(-1.,0.,0.));
#339=DIRECTION('',(0.,0.,1.));
#340=DIRECTION('',(-1.,0.,0.));
#341=DIRECTION('',(0.,0.,1.));
#342=DIRECTION('',(-1.,0.,0.));
#343=DIRECTION('',(0.,0.,1.));
#344=DIRECTION('',(1.,0.,0.));
#345=DIRECTION('',(0.,0.,-1.));
#346=DIRECTION('',(1.,0.,0.));
#347=DIRECTION('',(0.,0.,-1.));
#348=DIRECTION('',(1.,0.,0.));
#349=DIRECTION('',(0.,0.,-1.));
#350=DIRECTION('',(1.,0.,0.));
#351=DIRECTION('',(0.,0.,-1.));
#352=DIRECTION('',(1.,0.,0.));
#353=DIRECTION('',(0.,0.,-1.));
#354=DIRECTION('',(-1.,0.,0.));
#355=DIRECTION('',(0.,0.,-1.));
#356=DIRECTION('',(0.0575640269595679,-0.995909906125241,0.0696408047182989));
#357=DIRECTION('',(1.,0.,0.));
#358=DIRECTION('',(1.,0.,0.));
#359=DIRECTION('',(0.,0.,-1.));
#360=DIRECTION('',(1.,0.,0.));
#361=DIRECTION('',(1.,0.,0.));
#362=DIRECTION('',(0.,0.,-1.));
#363=DIRECTION('',(0.998341816614028,0.0574238038830517,-0.00401546353521105));
#364=DIRECTION('',(1.,0.,0.));
#365=DIRECTION('',(1.,0.,0.));
#366=DIRECTION('',(1.,0.,0.));
#367=CARTESIAN_POINT('',(0.,0.,0.));
#368=CARTESIAN_POINT('',(114.,0.,0.));
#369=CARTESIAN_POINT('',(114.,0.,9.2));
#370=CARTESIAN_POINT('',(114.,12.9999999999999,0.));
#371=CARTESIAN_POINT('',(1.74766404375706,0.,0.));
#372=CARTESIAN_POINT('',(1.74766404375706,0.,6.77955229505092));
#373=CARTESIAN_POINT('',(1.6,0.,0.));
#374=CARTESIAN_POINT('',(1.6,0.,6.76071865740962));
#375=CARTESIAN_POINT('',(1.8,0.,0.));
#376=CARTESIAN_POINT('',(64.,0.,0.));
#377=CARTESIAN_POINT('',(64.,0.,10.));
#378=CARTESIAN_POINT('',(64.,0.,0.));
#379=CARTESIAN_POINT('',(64.,0.,11.8));
#380=CARTESIAN_POINT('',(64.,11.,0.));
#381=CARTESIAN_POINT('',(63.5872983346208,0.,0.));
#382=CARTESIAN_POINT('',(63.5872983346208,0.,12.5));
#383=CARTESIAN_POINT('',(63.2,0.,0.));
#384=CARTESIAN_POINT('',(59.6601565673796,0.,0.));
#385=CARTESIAN_POINT('',(59.6601565673796,0.,12.5));
#386=CARTESIAN_POINT('',(0.,0.,0.));
#387=CARTESIAN_POINT('',(58.4008240482983,0.,0.));
#388=CARTESIAN_POINT('',(58.4008240482983,0.,12.2228811223379));
#389=CARTESIAN_POINT('',(59.6601565673796,0.,0.));
#390=CARTESIAN_POINT('',(47.9986265861696,0.,0.));
#391=CARTESIAN_POINT('',(47.9986265861696,0.,7.41186479610343));
#392=CARTESIAN_POINT('',(58.4008240482983,0.,0.));
#393=CARTESIAN_POINT('',(45.8997390543674,0.,0.));
#394=CARTESIAN_POINT('',(45.8997390543674,0.,6.95));
#395=CARTESIAN_POINT('',(45.8997390543674,0.,0.));
#396=CARTESIAN_POINT('',(5.,0.,0.));
#397=CARTESIAN_POINT('',(5.,0.,6.95));
#398=CARTESIAN_POINT('',(0.,0.,0.));
#399=CARTESIAN_POINT('',(5.,0.,0.));
#400=CARTESIAN_POINT('',(1.6,0.,0.));
#401=CARTESIAN_POINT('',(113.2,0.,0.));
#402=CARTESIAN_POINT('',(113.2,0.,10.));
#403=CARTESIAN_POINT('',(0.,0.,0.));
#404=CARTESIAN_POINT('',(113.2,0.,0.));
#405=CARTESIAN_POINT('',(5.28343289906585,0.,0.));
#406=CARTESIAN_POINT('',(5.28343289906585,0.,-6.59019464350094));
#407=CARTESIAN_POINT('',(5.28343289906585,0.,0.));
#408=CARTESIAN_POINT('',(0.000469586126948963,0.,0.));
#409=CARTESIAN_POINT('',(0.000469586126948963,0.,-4.18322598982709));
#410=CARTESIAN_POINT('',(0.000469586126948963,0.,0.));
#411=CARTESIAN_POINT('',(0.291723815995709,0.,0.));
#412=CARTESIAN_POINT('',(0.291723815995709,0.,-6.87737110801149));
#413=CARTESIAN_POINT('',(0.156656738616241,0.,0.));
#414=CARTESIAN_POINT('',(0.156656738616241,0.,-4.54248809401656));
#415=CARTESIAN_POINT('',(0.156656738616241,-4.47774398366423,0.764203442180836));
#416=CARTESIAN_POINT('',(1.6,0.,0.));
#417=CARTESIAN_POINT('',(0.710937928609533,0.,0.));
#418=CARTESIAN_POINT('',(0.710937928609533,0.,-7.25011807000723));
#419=CARTESIAN_POINT('',(0.29172381599571,-6.8145269965705,0.927607228477123));
#420=CARTESIAN_POINT('',(0.294704119818009,-6.86608895734117,0.931212792011372));
#421=CARTESIAN_POINT('',(0.321273393101064,-6.96934214936719,0.938432958552743));
#422=CARTESIAN_POINT('',(0.416798893630873,-7.09547064871869,0.947252722407613));
#423=CARTESIAN_POINT('',(0.55337689048214,-7.17563507586217,0.952858365229034));
#424=CARTESIAN_POINT('',(0.659250058785801,-7.19009634818222,0.953869595899022));
#425=CARTESIAN_POINT('',(0.710937928609533,-7.18712330423024,0.953661700413692));
#426=CARTESIAN_POINT('',(1.6,0.,0.));
#427=CARTESIAN_POINT('',(4.90992674919739,0.,0.));
#428=CARTESIAN_POINT('',(4.90992674919739,0.,-7.00848879794437));
#429=CARTESIAN_POINT('',(0.710937928609533,-7.18712330423024,0.953661700413692));
#430=CARTESIAN_POINT('',(1.6,0.,0.));
#431=CARTESIAN_POINT('',(4.90992674919739,-6.94560090526037,0.936772809040781));
#432=CARTESIAN_POINT('',(4.96161461902112,-6.94262786130839,0.936564913555451));
#433=CARTESIAN_POINT('',(5.06511994481863,-6.91612330943968,0.934711534741281));
#434=CARTESIAN_POINT('',(5.19155643711068,-6.82083050422807,0.928048012671679));
#435=CARTESIAN_POINT('',(5.27191661761497,-6.68458520451275,0.918520813220299));
#436=CARTESIAN_POINT('',(5.28641320288815,-6.57896993792591,0.911135474335317));
#437=CARTESIAN_POINT('',(5.28343289906585,-6.52740797715524,0.907529910801068));
#438=CARTESIAN_POINT('',(1.6,0.,0.));
#439=CARTESIAN_POINT('',(0.000469586126948973,4.18292716670573,0.0499999999999984));
#440=CARTESIAN_POINT('',(-0.00494224127759413,4.2344172649959,0.0499999999999984));
#441=CARTESIAN_POINT('',(0.00455094178913845,4.3408557835242,0.0499999999999984));
#442=CARTESIAN_POINT('',(0.0783882077683004,4.48106764460347,0.0499999999999984));
#443=CARTESIAN_POINT('',(0.200184472462313,4.58244307427542,0.0499999999999984));
#444=CARTESIAN_POINT('',(0.302323310243785,4.61385862087083,0.0499999999999984));
#445=CARTESIAN_POINT('',(0.353813408533957,4.61927044827537,0.0499999999999984));
#446=CARTESIAN_POINT('',(1.6,0.,0.));
#447=(
GEOMETRIC_REPRESENTATION_CONTEXT(3)
GLOBAL_UNCERTAINTY_ASSIGNED_CONTEXT((#448))
GLOBAL_UNIT_ASSIGNED_CONTEXT((#454,#450,#449))
REPRESENTATION_CONTEXT('ATUM-14','TOP_LEVEL_ASSEMBLY_PART')
);
#448=UNCERTAINTY_MEASURE_WITH_UNIT(LENGTH_MEASURE(2.E-5),#454,
'DISTANCE_ACCURACY_VALUE','Maximum Tolerance applied to model');
#449=(
NAMED_UNIT(*)
SI_UNIT($,.STERADIAN.)
SOLID_ANGLE_UNIT()
);
#450=(
CONVERSION_BASED_UNIT('DEGREE',#452)
NAMED_UNIT(#451)
PLANE_ANGLE_UNIT()
);
#451=DIMENSIONAL_EXPONENTS(0.,0.,0.,0.,0.,0.,0.);
#452=PLANE_ANGLE_MEASURE_WITH_UNIT(PLANE_ANGLE_MEASURE(0.0174532925),#453);
#453=(
NAMED_UNIT(*)
PLANE_ANGLE_UNIT()
SI_UNIT($,.RADIAN.)
);
#454=(
LENGTH_UNIT()
NAMED_UNIT(*)
SI_UNIT(.MILLI.,.METRE.)
);
ENDSEC;
END-ISO-10303-21;
