ISO-10303-21;
HEADER;
/* Generated by software containing ST-Developer
 * from STEP Tools, Inc. (www.steptools.com) 
 */
/* OPTION: using custom schema-name function */

FILE_DESCRIPTION(
/* description */ (''),
/* implementation_level */ '2;1');

FILE_NAME(
/* name */ 'ATUM-14XD3-SP-050204-light.stp',
/* time_stamp */ '2023-10-11T21:03:43+03:00',
/* author */ (''),
/* organization */ (''),
/* preprocessor_version */ 'ST-DEVELOPER v19.4',
/* originating_system */ 'SIEMENS PLM Software NX2306.3001',
/* authorisation */ '');

FILE_SCHEMA (('AUTOMOTIVE_DESIGN { 1 0 10303 214 3 1 1 1 }'));
ENDSEC;

DATA;
#10=SHAPE_REPRESENTATION_RELATIONSHIP('None',
'relationship between STP-ATUM 12.5XD3 SP.. 050204-None and STP-ATUM 1
2.5XD3 SP.. 050204-None',#22,#11);
#11=ADVANCED_BREP_SHAPE_REPRESENTATION(
'STP-ATUM 12.5XD3 SP.. 050204-None',(#72,#73),#703);
#12=SHAPE_DEFINITION_REPRESENTATION(#13,#22);
#13=PRODUCT_DEFINITION_SHAPE('','',#14);
#14=PRODUCT_DEFINITION(' ','',#16,#15);
#15=PRODUCT_DEFINITION_CONTEXT('part definition',#21,'design');
#16=PRODUCT_DEFINITION_FORMATION_WITH_SPECIFIED_SOURCE(' ',' ',#18,
 .NOT_KNOWN.);
#17=PRODUCT_RELATED_PRODUCT_CATEGORY('part','',(#18));
#18=PRODUCT('STP-ATUM 12.5XD3 SP.. 050204',
'STP-ATUM 12.5XD3 SP.. 050204',' ',(#19));
#19=PRODUCT_CONTEXT(' ',#21,'mechanical');
#20=APPLICATION_PROTOCOL_DEFINITION('international standard',
'automotive_design',2010,#21);
#21=APPLICATION_CONTEXT(
'core data for automotive mechanical design processes');
#22=SHAPE_REPRESENTATION('STP-ATUM 12.5XD3 SP.. 050204-None',(#401),#703);
#23=DRAUGHTING_PRE_DEFINED_COLOUR('yellow');
#24=LINE('',#657,#29);
#25=LINE('',#661,#30);
#26=LINE('',#675,#31);
#27=LINE('',#679,#32);
#28=LINE('',#693,#33);
#29=VECTOR('',#552,0.829185753648641);
#30=VECTOR('',#556,0.920286412316475);
#31=VECTOR('',#563,2.97126750996983);
#32=VECTOR('',#567,2.08386698558175);
#33=VECTOR('',#574,4.20778554500674);
#34=SURFACE_OF_REVOLUTION('',#52,#43);
#35=SURFACE_OF_REVOLUTION('',#24,#44);
#36=SURFACE_OF_REVOLUTION('',#25,#45);
#37=SURFACE_OF_REVOLUTION('',#53,#46);
#38=SURFACE_OF_REVOLUTION('',#26,#47);
#39=SURFACE_OF_REVOLUTION('',#27,#48);
#40=SURFACE_OF_REVOLUTION('',#54,#49);
#41=SURFACE_OF_REVOLUTION('',#28,#50);
#42=SURFACE_OF_REVOLUTION('',#55,#51);
#43=AXIS1_PLACEMENT('',#654,#549);
#44=AXIS1_PLACEMENT('',#658,#553);
#45=AXIS1_PLACEMENT('',#662,#557);
#46=AXIS1_PLACEMENT('',#672,#560);
#47=AXIS1_PLACEMENT('',#676,#564);
#48=AXIS1_PLACEMENT('',#680,#568);
#49=AXIS1_PLACEMENT('',#690,#571);
#50=AXIS1_PLACEMENT('',#694,#575);
#51=AXIS1_PLACEMENT('',#702,#576);
#52=B_SPLINE_CURVE_WITH_KNOTS('',3,(#647,#648,#649,#650,#651,#652,#653),
 .UNSPECIFIED.,.F.,.F.,(4,1,1,1,4),(0.,0.25,0.5,0.75,1.),.UNSPECIFIED.);
#53=B_SPLINE_CURVE_WITH_KNOTS('',3,(#665,#666,#667,#668,#669,#670,#671),
 .UNSPECIFIED.,.F.,.F.,(4,1,1,1,4),(0.,0.25,0.5,0.75,1.),.UNSPECIFIED.);
#54=B_SPLINE_CURVE_WITH_KNOTS('',3,(#683,#684,#685,#686,#687,#688,#689),
 .UNSPECIFIED.,.F.,.F.,(4,1,1,1,4),(0.,0.25,0.5,0.75,1.),.UNSPECIFIED.);
#55=B_SPLINE_CURVE_WITH_KNOTS('',3,(#695,#696,#697,#698,#699,#700,#701),
 .UNSPECIFIED.,.F.,.F.,(4,1,1,1,4),(0.,0.25,0.5,0.75,1.),.UNSPECIFIED.);
#56=PRESENTATION_LAYER_ASSIGNMENT('1','Layer 1',(#72,#73));
#57=STYLED_ITEM('',(#59),#72);
#58=STYLED_ITEM('',(#60),#73);
#59=PRESENTATION_STYLE_ASSIGNMENT((#61));
#60=PRESENTATION_STYLE_ASSIGNMENT((#62));
#61=SURFACE_STYLE_USAGE(.BOTH.,#63);
#62=SURFACE_STYLE_USAGE(.BOTH.,#64);
#63=SURFACE_SIDE_STYLE('',(#65));
#64=SURFACE_SIDE_STYLE('',(#66));
#65=SURFACE_STYLE_FILL_AREA(#67);
#66=SURFACE_STYLE_FILL_AREA(#68);
#67=FILL_AREA_STYLE('',(#69));
#68=FILL_AREA_STYLE('',(#70));
#69=FILL_AREA_STYLE_COLOUR('',#71);
#70=FILL_AREA_STYLE_COLOUR('',#23);
#71=COLOUR_RGB('smoke gray',0.694117647058824,0.694117647058824,0.694117647058824);
#72=MANIFOLD_SOLID_BREP('',#74);
#73=MANIFOLD_SOLID_BREP('',#75);
#74=CLOSED_SHELL('',(#95,#96,#97,#98,#99,#100,#101,#102,#103,#104,#105,
#106,#107,#108,#109,#110,#111,#112,#113,#114,#115));
#75=CLOSED_SHELL('',(#116,#117,#118,#119,#120,#121,#122,#123,#124,#125,
#126));
#76=FACE_OUTER_BOUND('',#215,.T.);
#77=FACE_OUTER_BOUND('',#230,.T.);
#78=FACE_OUTER_BOUND('',#231,.T.);
#79=FACE_OUTER_BOUND('',#232,.T.);
#80=PLANE('',#424);
#81=PLANE('',#427);
#82=PLANE('',#442);
#83=PLANE('',#444);
#84=PLANE('',#446);
#85=CONICAL_SURFACE('',#410,9.8103073792139,19.9999999999999);
#86=CONICAL_SURFACE('',#414,10.,14.9999999999996);
#87=CONICAL_SURFACE('',#422,10.2056692403838,82.);
#88=CONICAL_SURFACE('',#433,12.2010468585258,25.7960264945);
#89=CONICAL_SURFACE('',#439,6.69999999999999,3.00000000000003);
#90=CYLINDRICAL_SURFACE('',#406,9.75000000000002);
#91=CYLINDRICAL_SURFACE('',#412,10.);
#92=CYLINDRICAL_SURFACE('',#418,9.7499999999998);
#93=CYLINDRICAL_SURFACE('',#429,12.5);
#94=CYLINDRICAL_SURFACE('',#437,6.69999999999999);
#95=ADVANCED_FACE('',(#135,#136),#127,.T.);
#96=ADVANCED_FACE('',(#137,#138),#90,.T.);
#97=ADVANCED_FACE('',(#139,#140),#128,.F.);
#98=ADVANCED_FACE('',(#141,#142),#85,.T.);
#99=ADVANCED_FACE('',(#143,#144),#91,.T.);
#100=ADVANCED_FACE('',(#145,#146),#86,.T.);
#101=ADVANCED_FACE('',(#147,#148),#129,.F.);
#102=ADVANCED_FACE('',(#149,#150),#92,.T.);
#103=ADVANCED_FACE('',(#151,#152),#130,.F.);
#104=ADVANCED_FACE('',(#153,#154),#87,.F.);
#105=ADVANCED_FACE('',(#155,#156),#80,.F.);
#106=ADVANCED_FACE('',(#157,#158),#131,.T.);
#107=ADVANCED_FACE('',(#76),#81,.F.);
#108=ADVANCED_FACE('',(#159,#160),#93,.T.);
#109=ADVANCED_FACE('',(#161,#162),#132,.T.);
#110=ADVANCED_FACE('',(#163,#164),#88,.T.);
#111=ADVANCED_FACE('',(#165,#166),#133,.F.);
#112=ADVANCED_FACE('',(#167,#168),#94,.T.);
#113=ADVANCED_FACE('',(#169,#170),#89,.T.);
#114=ADVANCED_FACE('',(#171,#172),#134,.T.);
#115=ADVANCED_FACE('',(#77),#82,.F.);
#116=ADVANCED_FACE('',(#78),#83,.F.);
#117=ADVANCED_FACE('',(#79),#84,.T.);
#118=ADVANCED_FACE('',(#173,#174),#34,.F.);
#119=ADVANCED_FACE('',(#175,#176),#35,.F.);
#120=ADVANCED_FACE('',(#177,#178),#36,.T.);
#121=ADVANCED_FACE('',(#179,#180),#37,.T.);
#122=ADVANCED_FACE('',(#181,#182),#38,.F.);
#123=ADVANCED_FACE('',(#183,#184),#39,.F.);
#124=ADVANCED_FACE('',(#185,#186),#40,.F.);
#125=ADVANCED_FACE('',(#187,#188),#41,.F.);
#126=ADVANCED_FACE('',(#189,#190),#42,.F.);
#127=TOROIDAL_SURFACE('',#404,8.75000000000026,0.999999999999986);
#128=TOROIDAL_SURFACE('',#408,10.7499999999998,0.999999999999994);
#129=TOROIDAL_SURFACE('',#416,10.1499999999998,0.4);
#130=TOROIDAL_SURFACE('',#420,10.1499999999998,0.399999999999979);
#131=TOROIDAL_SURFACE('',#426,11.8,0.799999999999997);
#132=TOROIDAL_SURFACE('',#431,9.5,3.);
#133=TOROIDAL_SURFACE('',#435,11.7,5.);
#134=TOROIDAL_SURFACE('',#441,5.52830237133218,0.999999999999999);
#135=FACE_BOUND('',#191,.T.);
#136=FACE_BOUND('',#192,.T.);
#137=FACE_BOUND('',#193,.T.);
#138=FACE_BOUND('',#194,.T.);
#139=FACE_BOUND('',#195,.T.);
#140=FACE_BOUND('',#196,.T.);
#141=FACE_BOUND('',#197,.T.);
#142=FACE_BOUND('',#198,.T.);
#143=FACE_BOUND('',#199,.T.);
#144=FACE_BOUND('',#200,.T.);
#145=FACE_BOUND('',#201,.T.);
#146=FACE_BOUND('',#202,.T.);
#147=FACE_BOUND('',#203,.T.);
#148=FACE_BOUND('',#204,.T.);
#149=FACE_BOUND('',#205,.T.);
#150=FACE_BOUND('',#206,.T.);
#151=FACE_BOUND('',#207,.T.);
#152=FACE_BOUND('',#208,.T.);
#153=FACE_BOUND('',#209,.T.);
#154=FACE_BOUND('',#210,.T.);
#155=FACE_BOUND('',#211,.T.);
#156=FACE_BOUND('',#212,.T.);
#157=FACE_BOUND('',#213,.T.);
#158=FACE_BOUND('',#214,.T.);
#159=FACE_BOUND('',#216,.T.);
#160=FACE_BOUND('',#217,.T.);
#161=FACE_BOUND('',#218,.T.);
#162=FACE_BOUND('',#219,.T.);
#163=FACE_BOUND('',#220,.T.);
#164=FACE_BOUND('',#221,.T.);
#165=FACE_BOUND('',#222,.T.);
#166=FACE_BOUND('',#223,.T.);
#167=FACE_BOUND('',#224,.T.);
#168=FACE_BOUND('',#225,.T.);
#169=FACE_BOUND('',#226,.T.);
#170=FACE_BOUND('',#227,.T.);
#171=FACE_BOUND('',#228,.T.);
#172=FACE_BOUND('',#229,.T.);
#173=FACE_BOUND('',#233,.T.);
#174=FACE_BOUND('',#234,.T.);
#175=FACE_BOUND('',#235,.T.);
#176=FACE_BOUND('',#236,.T.);
#177=FACE_BOUND('',#237,.T.);
#178=FACE_BOUND('',#238,.T.);
#179=FACE_BOUND('',#239,.T.);
#180=FACE_BOUND('',#240,.T.);
#181=FACE_BOUND('',#241,.T.);
#182=FACE_BOUND('',#242,.T.);
#183=FACE_BOUND('',#243,.T.);
#184=FACE_BOUND('',#244,.T.);
#185=FACE_BOUND('',#245,.T.);
#186=FACE_BOUND('',#246,.T.);
#187=FACE_BOUND('',#247,.T.);
#188=FACE_BOUND('',#248,.T.);
#189=FACE_BOUND('',#249,.T.);
#190=FACE_BOUND('',#250,.T.);
#191=EDGE_LOOP('',(#251));
#192=EDGE_LOOP('',(#252));
#193=EDGE_LOOP('',(#253));
#194=EDGE_LOOP('',(#254));
#195=EDGE_LOOP('',(#255));
#196=EDGE_LOOP('',(#256));
#197=EDGE_LOOP('',(#257));
#198=EDGE_LOOP('',(#258));
#199=EDGE_LOOP('',(#259));
#200=EDGE_LOOP('',(#260));
#201=EDGE_LOOP('',(#261));
#202=EDGE_LOOP('',(#262));
#203=EDGE_LOOP('',(#263));
#204=EDGE_LOOP('',(#264));
#205=EDGE_LOOP('',(#265));
#206=EDGE_LOOP('',(#266));
#207=EDGE_LOOP('',(#267));
#208=EDGE_LOOP('',(#268));
#209=EDGE_LOOP('',(#269));
#210=EDGE_LOOP('',(#270));
#211=EDGE_LOOP('',(#271));
#212=EDGE_LOOP('',(#272));
#213=EDGE_LOOP('',(#273));
#214=EDGE_LOOP('',(#274));
#215=EDGE_LOOP('',(#275));
#216=EDGE_LOOP('',(#276));
#217=EDGE_LOOP('',(#277));
#218=EDGE_LOOP('',(#278));
#219=EDGE_LOOP('',(#279));
#220=EDGE_LOOP('',(#280));
#221=EDGE_LOOP('',(#281));
#222=EDGE_LOOP('',(#282));
#223=EDGE_LOOP('',(#283));
#224=EDGE_LOOP('',(#284));
#225=EDGE_LOOP('',(#285));
#226=EDGE_LOOP('',(#286));
#227=EDGE_LOOP('',(#287));
#228=EDGE_LOOP('',(#288));
#229=EDGE_LOOP('',(#289));
#230=EDGE_LOOP('',(#290));
#231=EDGE_LOOP('',(#291));
#232=EDGE_LOOP('',(#292));
#233=EDGE_LOOP('',(#293));
#234=EDGE_LOOP('',(#294));
#235=EDGE_LOOP('',(#295));
#236=EDGE_LOOP('',(#296));
#237=EDGE_LOOP('',(#297));
#238=EDGE_LOOP('',(#298));
#239=EDGE_LOOP('',(#299));
#240=EDGE_LOOP('',(#300));
#241=EDGE_LOOP('',(#301));
#242=EDGE_LOOP('',(#302));
#243=EDGE_LOOP('',(#303));
#244=EDGE_LOOP('',(#304));
#245=EDGE_LOOP('',(#305));
#246=EDGE_LOOP('',(#306));
#247=EDGE_LOOP('',(#307));
#248=EDGE_LOOP('',(#308));
#249=EDGE_LOOP('',(#309));
#250=EDGE_LOOP('',(#310));
#251=ORIENTED_EDGE('',*,*,#341,.T.);
#252=ORIENTED_EDGE('',*,*,#342,.T.);
#253=ORIENTED_EDGE('',*,*,#343,.T.);
#254=ORIENTED_EDGE('',*,*,#341,.F.);
#255=ORIENTED_EDGE('',*,*,#344,.T.);
#256=ORIENTED_EDGE('',*,*,#343,.F.);
#257=ORIENTED_EDGE('',*,*,#345,.T.);
#258=ORIENTED_EDGE('',*,*,#344,.F.);
#259=ORIENTED_EDGE('',*,*,#346,.T.);
#260=ORIENTED_EDGE('',*,*,#345,.F.);
#261=ORIENTED_EDGE('',*,*,#347,.T.);
#262=ORIENTED_EDGE('',*,*,#346,.F.);
#263=ORIENTED_EDGE('',*,*,#348,.T.);
#264=ORIENTED_EDGE('',*,*,#347,.F.);
#265=ORIENTED_EDGE('',*,*,#349,.T.);
#266=ORIENTED_EDGE('',*,*,#348,.F.);
#267=ORIENTED_EDGE('',*,*,#350,.T.);
#268=ORIENTED_EDGE('',*,*,#349,.F.);
#269=ORIENTED_EDGE('',*,*,#351,.T.);
#270=ORIENTED_EDGE('',*,*,#350,.F.);
#271=ORIENTED_EDGE('',*,*,#352,.T.);
#272=ORIENTED_EDGE('',*,*,#351,.F.);
#273=ORIENTED_EDGE('',*,*,#353,.T.);
#274=ORIENTED_EDGE('',*,*,#352,.F.);
#275=ORIENTED_EDGE('',*,*,#342,.F.);
#276=ORIENTED_EDGE('',*,*,#354,.T.);
#277=ORIENTED_EDGE('',*,*,#353,.F.);
#278=ORIENTED_EDGE('',*,*,#355,.T.);
#279=ORIENTED_EDGE('',*,*,#354,.F.);
#280=ORIENTED_EDGE('',*,*,#356,.T.);
#281=ORIENTED_EDGE('',*,*,#355,.F.);
#282=ORIENTED_EDGE('',*,*,#357,.T.);
#283=ORIENTED_EDGE('',*,*,#356,.F.);
#284=ORIENTED_EDGE('',*,*,#358,.T.);
#285=ORIENTED_EDGE('',*,*,#357,.F.);
#286=ORIENTED_EDGE('',*,*,#359,.T.);
#287=ORIENTED_EDGE('',*,*,#358,.F.);
#288=ORIENTED_EDGE('',*,*,#360,.T.);
#289=ORIENTED_EDGE('',*,*,#359,.F.);
#290=ORIENTED_EDGE('',*,*,#360,.F.);
#291=ORIENTED_EDGE('',*,*,#361,.T.);
#292=ORIENTED_EDGE('',*,*,#362,.T.);
#293=ORIENTED_EDGE('',*,*,#363,.F.);
#294=ORIENTED_EDGE('',*,*,#361,.F.);
#295=ORIENTED_EDGE('',*,*,#363,.T.);
#296=ORIENTED_EDGE('',*,*,#364,.F.);
#297=ORIENTED_EDGE('',*,*,#364,.T.);
#298=ORIENTED_EDGE('',*,*,#365,.F.);
#299=ORIENTED_EDGE('',*,*,#366,.T.);
#300=ORIENTED_EDGE('',*,*,#365,.T.);
#301=ORIENTED_EDGE('',*,*,#367,.T.);
#302=ORIENTED_EDGE('',*,*,#362,.F.);
#303=ORIENTED_EDGE('',*,*,#368,.F.);
#304=ORIENTED_EDGE('',*,*,#366,.F.);
#305=ORIENTED_EDGE('',*,*,#369,.T.);
#306=ORIENTED_EDGE('',*,*,#367,.F.);
#307=ORIENTED_EDGE('',*,*,#370,.T.);
#308=ORIENTED_EDGE('',*,*,#369,.F.);
#309=ORIENTED_EDGE('',*,*,#368,.T.);
#310=ORIENTED_EDGE('',*,*,#370,.F.);
#311=VERTEX_POINT('',#579);
#312=VERTEX_POINT('',#581);
#313=VERTEX_POINT('',#584);
#314=VERTEX_POINT('',#587);
#315=VERTEX_POINT('',#590);
#316=VERTEX_POINT('',#593);
#317=VERTEX_POINT('',#596);
#318=VERTEX_POINT('',#599);
#319=VERTEX_POINT('',#602);
#320=VERTEX_POINT('',#605);
#321=VERTEX_POINT('',#608);
#322=VERTEX_POINT('',#611);
#323=VERTEX_POINT('',#614);
#324=VERTEX_POINT('',#618);
#325=VERTEX_POINT('',#621);
#326=VERTEX_POINT('',#624);
#327=VERTEX_POINT('',#627);
#328=VERTEX_POINT('',#630);
#329=VERTEX_POINT('',#633);
#330=VERTEX_POINT('',#636);
#331=VERTEX_POINT('',#640);
#332=VERTEX_POINT('',#643);
#333=VERTEX_POINT('',#646);
#334=VERTEX_POINT('',#656);
#335=VERTEX_POINT('',#660);
#336=VERTEX_POINT('',#664);
#337=VERTEX_POINT('',#674);
#338=VERTEX_POINT('',#678);
#339=VERTEX_POINT('',#682);
#340=VERTEX_POINT('',#692);
#341=EDGE_CURVE('',#311,#311,#371,.T.);
#342=EDGE_CURVE('',#312,#312,#372,.T.);
#343=EDGE_CURVE('',#313,#313,#373,.T.);
#344=EDGE_CURVE('',#314,#314,#374,.T.);
#345=EDGE_CURVE('',#315,#315,#375,.T.);
#346=EDGE_CURVE('',#316,#316,#376,.T.);
#347=EDGE_CURVE('',#317,#317,#377,.T.);
#348=EDGE_CURVE('',#318,#318,#378,.T.);
#349=EDGE_CURVE('',#319,#319,#379,.T.);
#350=EDGE_CURVE('',#320,#320,#380,.T.);
#351=EDGE_CURVE('',#321,#321,#381,.T.);
#352=EDGE_CURVE('',#322,#322,#382,.T.);
#353=EDGE_CURVE('',#323,#323,#383,.T.);
#354=EDGE_CURVE('',#324,#324,#384,.T.);
#355=EDGE_CURVE('',#325,#325,#385,.T.);
#356=EDGE_CURVE('',#326,#326,#386,.T.);
#357=EDGE_CURVE('',#327,#327,#387,.T.);
#358=EDGE_CURVE('',#328,#328,#388,.T.);
#359=EDGE_CURVE('',#329,#329,#389,.T.);
#360=EDGE_CURVE('',#330,#330,#390,.T.);
#361=EDGE_CURVE('',#331,#331,#391,.T.);
#362=EDGE_CURVE('',#332,#332,#392,.T.);
#363=EDGE_CURVE('',#333,#333,#393,.T.);
#364=EDGE_CURVE('',#334,#334,#394,.T.);
#365=EDGE_CURVE('',#335,#335,#395,.T.);
#366=EDGE_CURVE('',#336,#336,#396,.T.);
#367=EDGE_CURVE('',#337,#337,#397,.T.);
#368=EDGE_CURVE('',#338,#338,#398,.T.);
#369=EDGE_CURVE('',#339,#339,#399,.T.);
#370=EDGE_CURVE('',#340,#340,#400,.T.);
#371=CIRCLE('',#402,9.75000000000024);
#372=CIRCLE('',#403,8.75000000000026);
#373=CIRCLE('',#405,9.7499999999998);
#374=CIRCLE('',#407,9.8103073792139);
#375=CIRCLE('',#409,10.);
#376=CIRCLE('',#411,10.);
#377=CIRCLE('',#413,9.76362966948417);
#378=CIRCLE('',#415,9.7499999999998);
#379=CIRCLE('',#417,9.7499999999998);
#380=CIRCLE('',#419,10.2056692403838);
#381=CIRCLE('',#421,11.);
#382=CIRCLE('',#423,11.8);
#383=CIRCLE('',#425,12.5);
#384=CIRCLE('',#428,12.5);
#385=CIRCLE('',#430,12.2010468585258);
#386=CIRCLE('',#432,7.19825523579027);
#387=CIRCLE('',#434,6.69999999999999);
#388=CIRCLE('',#436,6.69999999999999);
#389=CIRCLE('',#438,6.52693190608676);
#390=CIRCLE('',#440,5.52830237133218);
#391=CIRCLE('',#443,2.1093662213206);
#392=CIRCLE('',#445,3.38768929161221);
#393=CIRCLE('',#447,2.45188033209212);
#394=CIRCLE('',#448,3.26987072143514);
#395=CIRCLE('',#449,4.18503210218567);
#396=CIRCLE('',#450,4.55422509683256);
#397=CIRCLE('',#451,6.34093984798076);
#398=CIRCLE('',#452,6.62811210363522);
#399=CIRCLE('',#453,6.75826845458921);
#400=CIRCLE('',#454,7.00000121511187);
#401=AXIS2_PLACEMENT_3D('',#577,#455,#456);
#402=AXIS2_PLACEMENT_3D('',#578,#457,#458);
#403=AXIS2_PLACEMENT_3D('',#580,#459,#460);
#404=AXIS2_PLACEMENT_3D('',#582,#461,#462);
#405=AXIS2_PLACEMENT_3D('',#583,#463,#464);
#406=AXIS2_PLACEMENT_3D('',#585,#465,#466);
#407=AXIS2_PLACEMENT_3D('',#586,#467,#468);
#408=AXIS2_PLACEMENT_3D('',#588,#469,#470);
#409=AXIS2_PLACEMENT_3D('',#589,#471,#472);
#410=AXIS2_PLACEMENT_3D('',#591,#473,#474);
#411=AXIS2_PLACEMENT_3D('',#592,#475,#476);
#412=AXIS2_PLACEMENT_3D('',#594,#477,#478);
#413=AXIS2_PLACEMENT_3D('',#595,#479,#480);
#414=AXIS2_PLACEMENT_3D('',#597,#481,#482);
#415=AXIS2_PLACEMENT_3D('',#598,#483,#484);
#416=AXIS2_PLACEMENT_3D('',#600,#485,#486);
#417=AXIS2_PLACEMENT_3D('',#601,#487,#488);
#418=AXIS2_PLACEMENT_3D('',#603,#489,#490);
#419=AXIS2_PLACEMENT_3D('',#604,#491,#492);
#420=AXIS2_PLACEMENT_3D('',#606,#493,#494);
#421=AXIS2_PLACEMENT_3D('',#607,#495,#496);
#422=AXIS2_PLACEMENT_3D('',#609,#497,#498);
#423=AXIS2_PLACEMENT_3D('',#610,#499,#500);
#424=AXIS2_PLACEMENT_3D('',#612,#501,#502);
#425=AXIS2_PLACEMENT_3D('',#613,#503,#504);
#426=AXIS2_PLACEMENT_3D('',#615,#505,#506);
#427=AXIS2_PLACEMENT_3D('',#616,#507,#508);
#428=AXIS2_PLACEMENT_3D('',#617,#509,#510);
#429=AXIS2_PLACEMENT_3D('',#619,#511,#512);
#430=AXIS2_PLACEMENT_3D('',#620,#513,#514);
#431=AXIS2_PLACEMENT_3D('',#622,#515,#516);
#432=AXIS2_PLACEMENT_3D('',#623,#517,#518);
#433=AXIS2_PLACEMENT_3D('',#625,#519,#520);
#434=AXIS2_PLACEMENT_3D('',#626,#521,#522);
#435=AXIS2_PLACEMENT_3D('',#628,#523,#524);
#436=AXIS2_PLACEMENT_3D('',#629,#525,#526);
#437=AXIS2_PLACEMENT_3D('',#631,#527,#528);
#438=AXIS2_PLACEMENT_3D('',#632,#529,#530);
#439=AXIS2_PLACEMENT_3D('',#634,#531,#532);
#440=AXIS2_PLACEMENT_3D('',#635,#533,#534);
#441=AXIS2_PLACEMENT_3D('',#637,#535,#536);
#442=AXIS2_PLACEMENT_3D('',#638,#537,#538);
#443=AXIS2_PLACEMENT_3D('',#639,#539,#540);
#444=AXIS2_PLACEMENT_3D('',#641,#541,#542);
#445=AXIS2_PLACEMENT_3D('',#642,#543,#544);
#446=AXIS2_PLACEMENT_3D('',#644,#545,#546);
#447=AXIS2_PLACEMENT_3D('',#645,#547,#548);
#448=AXIS2_PLACEMENT_3D('',#655,#550,#551);
#449=AXIS2_PLACEMENT_3D('',#659,#554,#555);
#450=AXIS2_PLACEMENT_3D('',#663,#558,#559);
#451=AXIS2_PLACEMENT_3D('',#673,#561,#562);
#452=AXIS2_PLACEMENT_3D('',#677,#565,#566);
#453=AXIS2_PLACEMENT_3D('',#681,#569,#570);
#454=AXIS2_PLACEMENT_3D('',#691,#572,#573);
#455=DIRECTION('',(0.,0.,1.));
#456=DIRECTION('',(1.,0.,0.));
#457=DIRECTION('',(1.,0.,0.));
#458=DIRECTION('',(0.,0.,1.));
#459=DIRECTION('',(-1.,0.,0.));
#460=DIRECTION('',(0.,0.,1.));
#461=DIRECTION('',(-1.,0.,0.));
#462=DIRECTION('',(0.,0.,1.));
#463=DIRECTION('',(1.,0.,0.));
#464=DIRECTION('',(0.,0.,1.));
#465=DIRECTION('',(-1.,0.,0.));
#466=DIRECTION('',(0.,0.,1.));
#467=DIRECTION('',(1.,0.,0.));
#468=DIRECTION('',(0.,0.,1.));
#469=DIRECTION('',(-1.,0.,0.));
#470=DIRECTION('',(0.,0.,1.));
#471=DIRECTION('',(1.,0.,0.));
#472=DIRECTION('',(0.,0.,1.));
#473=DIRECTION('',(-1.,0.,0.));
#474=DIRECTION('',(1.11384512527511E-16,0.,1.));
#475=DIRECTION('',(1.,0.,0.));
#476=DIRECTION('',(0.,0.,1.));
#477=DIRECTION('',(-1.,0.,0.));
#478=DIRECTION('',(0.,0.,1.));
#479=DIRECTION('',(1.,0.,0.));
#480=DIRECTION('',(0.,0.,1.));
#481=DIRECTION('',(1.,0.,0.));
#482=DIRECTION('',(1.99716900580724E-16,0.,-1.));
#483=DIRECTION('',(1.,0.,0.));
#484=DIRECTION('',(0.,0.,1.));
#485=DIRECTION('',(-1.,0.,0.));
#486=DIRECTION('',(0.,0.,1.));
#487=DIRECTION('',(1.,0.,0.));
#488=DIRECTION('',(0.,0.,1.));
#489=DIRECTION('',(-1.,0.,0.));
#490=DIRECTION('',(0.,0.,1.));
#491=DIRECTION('',(1.,0.,0.));
#492=DIRECTION('',(0.,0.,1.));
#493=DIRECTION('',(-1.,0.,0.));
#494=DIRECTION('',(0.,0.,1.));
#495=DIRECTION('',(1.,0.,0.));
#496=DIRECTION('',(0.,0.,1.));
#497=DIRECTION('',(1.,0.,0.));
#498=DIRECTION('',(7.79040964137513E-18,0.,-1.));
#499=DIRECTION('',(1.,0.,0.));
#500=DIRECTION('',(0.,0.,1.));
#501=DIRECTION('',(-1.,0.,0.));
#502=DIRECTION('',(0.,0.,1.));
#503=DIRECTION('',(1.,0.,0.));
#504=DIRECTION('',(0.,0.,1.));
#505=DIRECTION('',(-1.,0.,0.));
#506=DIRECTION('',(0.,0.,1.));
#507=DIRECTION('',(-1.,0.,0.));
#508=DIRECTION('',(0.,0.,1.));
#509=DIRECTION('',(1.,0.,0.));
#510=DIRECTION('',(0.,0.,1.));
#511=DIRECTION('',(-1.,0.,0.));
#512=DIRECTION('',(0.,0.,1.));
#513=DIRECTION('',(1.,0.,0.));
#514=DIRECTION('',(0.,0.,1.));
#515=DIRECTION('',(-1.,0.,0.));
#516=DIRECTION('',(0.,0.,1.));
#517=DIRECTION('',(1.,0.,0.));
#518=DIRECTION('',(0.,0.,1.));
#519=DIRECTION('',(1.,0.,0.));
#520=DIRECTION('',(-1.26025655598277E-16,0.,-1.));
#521=DIRECTION('',(1.,0.,0.));
#522=DIRECTION('',(0.,0.,1.));
#523=DIRECTION('',(-1.,0.,0.));
#524=DIRECTION('',(0.,0.,1.));
#525=DIRECTION('',(1.,0.,0.));
#526=DIRECTION('',(0.,0.,1.));
#527=DIRECTION('',(-1.,0.,0.));
#528=DIRECTION('',(0.,0.,1.));
#529=DIRECTION('',(1.,0.,0.));
#530=DIRECTION('',(0.,0.,1.));
#531=DIRECTION('',(1.,0.,0.));
#532=DIRECTION('',(-1.7609087978115E-15,0.,-1.));
#533=DIRECTION('',(1.,0.,0.));
#534=DIRECTION('',(0.,0.,1.));
#535=DIRECTION('',(-1.,0.,0.));
#536=DIRECTION('',(0.,0.,1.));
#537=DIRECTION('',(1.,0.,0.));
#538=DIRECTION('',(0.,0.,-1.));
#539=DIRECTION('',(-1.,0.,0.));
#540=DIRECTION('',(0.,0.,-1.));
#541=DIRECTION('',(1.,0.,0.));
#542=DIRECTION('',(0.,0.,-1.));
#543=DIRECTION('',(1.,0.,0.));
#544=DIRECTION('',(0.,0.,-1.));
#545=DIRECTION('',(1.,0.,0.));
#546=DIRECTION('',(0.,0.,-1.));
#547=DIRECTION('',(1.,0.,0.));
#548=DIRECTION('',(0.,0.,-1.));
#549=DIRECTION('',(1.,0.,0.));
#550=DIRECTION('',(1.,0.,0.));
#551=DIRECTION('',(0.,0.,-1.));
#552=DIRECTION('',(-0.0575640269595679,0.995909906125241,-0.0696408047182989));
#553=DIRECTION('',(1.,0.,0.));
#554=DIRECTION('',(1.,0.,0.));
#555=DIRECTION('',(0.,0.,-1.));
#556=DIRECTION('',(-0.104528463267653,0.994521895368273,0.));
#557=DIRECTION('',(1.,0.,0.));
#558=DIRECTION('',(-1.,0.,0.));
#559=DIRECTION('',(0.,0.,-1.));
#560=DIRECTION('',(1.,0.,0.));
#561=DIRECTION('',(1.,0.,0.));
#562=DIRECTION('',(0.,0.,-1.));
#563=DIRECTION('',(0.0575640269595674,-0.995909906125241,0.069640804718299));
#564=DIRECTION('',(1.,0.,0.));
#565=DIRECTION('',(1.,0.,0.));
#566=DIRECTION('',(0.,0.,-1.));
#567=DIRECTION('',(-0.0575640269595679,0.995909906125241,-0.0696408047182989));
#568=DIRECTION('',(1.,0.,0.));
#569=DIRECTION('',(1.,0.,0.));
#570=DIRECTION('',(0.,0.,-1.));
#571=DIRECTION('',(1.,0.,0.));
#572=DIRECTION('',(1.,0.,0.));
#573=DIRECTION('',(0.,0.,-1.));
#574=DIRECTION('',(-0.998341816614028,-0.057423803883052,0.00401546353521065));
#575=DIRECTION('',(1.,0.,0.));
#576=DIRECTION('',(1.,0.,0.));
#577=CARTESIAN_POINT('',(0.,0.,0.));
#578=CARTESIAN_POINT('',(113.,0.,0.));
#579=CARTESIAN_POINT('',(113.,0.,9.75000000000024));
#580=CARTESIAN_POINT('',(114.,0.,0.));
#581=CARTESIAN_POINT('',(114.,0.,8.75000000000026));
#582=CARTESIAN_POINT('',(113.,0.,0.));
#583=CARTESIAN_POINT('',(111.176326980708,0.,0.));
#584=CARTESIAN_POINT('',(111.176326980708,0.,9.7499999999998));
#585=CARTESIAN_POINT('',(0.,0.,0.));
#586=CARTESIAN_POINT('',(110.834306837383,0.,0.));
#587=CARTESIAN_POINT('',(110.834306837383,0.,9.8103073792139));
#588=CARTESIAN_POINT('',(111.176326980708,0.,0.));
#589=CARTESIAN_POINT('',(110.313130645136,0.,0.));
#590=CARTESIAN_POINT('',(110.313130645136,0.,10.));
#591=CARTESIAN_POINT('',(110.834306837383,0.,0.));
#592=CARTESIAN_POINT('',(66.,0.,0.));
#593=CARTESIAN_POINT('',(66.,0.,10.));
#594=CARTESIAN_POINT('',(0.,0.,0.));
#595=CARTESIAN_POINT('',(65.1178539171131,0.,0.));
#596=CARTESIAN_POINT('',(65.1178539171131,0.,9.76362966948417));
#597=CARTESIAN_POINT('',(66.,0.,0.));
#598=CARTESIAN_POINT('',(65.0143262990721,0.,0.));
#599=CARTESIAN_POINT('',(65.0143262990721,0.,9.7499999999998));
#600=CARTESIAN_POINT('',(65.0143262990721,0.,0.));
#601=CARTESIAN_POINT('',(64.2844713195104,0.,0.));
#602=CARTESIAN_POINT('',(64.2844713195104,0.,9.7499999999998));
#603=CARTESIAN_POINT('',(0.,0.,0.));
#604=CARTESIAN_POINT('',(63.8883640920138,0.,0.));
#605=CARTESIAN_POINT('',(63.8883640920138,0.,10.2056692403838));
#606=CARTESIAN_POINT('',(64.2844713195104,0.,0.));
#607=CARTESIAN_POINT('',(64.,0.,0.));
#608=CARTESIAN_POINT('',(64.,0.,11.));
#609=CARTESIAN_POINT('',(63.8883640920138,0.,0.));
#610=CARTESIAN_POINT('',(64.,0.,0.));
#611=CARTESIAN_POINT('',(64.,0.,11.8));
#612=CARTESIAN_POINT('',(64.,11.,0.));
#613=CARTESIAN_POINT('',(63.5872983346207,0.,0.));
#614=CARTESIAN_POINT('',(63.5872983346207,0.,12.5));
#615=CARTESIAN_POINT('',(63.2,0.,0.));
#616=CARTESIAN_POINT('',(114.,12.9999999999999,0.));
#617=CARTESIAN_POINT('',(59.6869822406398,0.,0.));
#618=CARTESIAN_POINT('',(59.6869822406398,0.,12.5));
#619=CARTESIAN_POINT('',(0.,0.,0.));
#620=CARTESIAN_POINT('',(58.381476259019,0.,0.));
#621=CARTESIAN_POINT('',(58.381476259019,0.,12.2010468585258));
#622=CARTESIAN_POINT('',(59.6869822406398,0.,0.));
#623=CARTESIAN_POINT('',(48.030872901635,0.,0.));
#624=CARTESIAN_POINT('',(48.030872901635,0.,7.19825523579027));
#625=CARTESIAN_POINT('',(58.381476259019,0.,0.));
#626=CARTESIAN_POINT('',(45.8550295989337,0.,0.));
#627=CARTESIAN_POINT('',(45.8550295989337,0.,6.69999999999999));
#628=CARTESIAN_POINT('',(45.8550295989337,0.,0.));
#629=CARTESIAN_POINT('',(5.,0.,0.));
#630=CARTESIAN_POINT('',(5.,0.,6.69999999999999));
#631=CARTESIAN_POINT('',(0.,0.,0.));
#632=CARTESIAN_POINT('',(1.69766404375706,0.,0.));
#633=CARTESIAN_POINT('',(1.69766404375706,0.,6.52693190608676));
#634=CARTESIAN_POINT('',(5.,0.,0.));
#635=CARTESIAN_POINT('',(0.750000000000001,0.,0.));
#636=CARTESIAN_POINT('',(0.750000000000001,0.,5.52830237133218));
#637=CARTESIAN_POINT('',(1.75,0.,0.));
#638=CARTESIAN_POINT('',(0.75,5.52830237133218,0.));
#639=CARTESIAN_POINT('',(0.220396510382016,0.,0.));
#640=CARTESIAN_POINT('',(0.220396510382016,0.,-2.1093662213206));
#641=CARTESIAN_POINT('',(0.220396510382016,0.,0.));
#642=CARTESIAN_POINT('',(5.11355723026808,0.,0.));
#643=CARTESIAN_POINT('',(5.11355723026808,0.,-3.38768929161221));
#644=CARTESIAN_POINT('',(5.11355723026808,0.,0.));
#645=CARTESIAN_POINT('',(0.0506691896930839,0.,0.));
#646=CARTESIAN_POINT('',(0.0506691896930839,0.,-2.45188033209212));
#647=CARTESIAN_POINT('',(0.0506691896930843,-2.37682735029419,0.602004077887905));
#648=CARTESIAN_POINT('',(0.0476933444007208,-2.32534252613756,0.59840390827116));
#649=CARTESIAN_POINT('',(0.0621206756131363,-2.21983335226531,0.59102598811148));
#650=CARTESIAN_POINT('',(0.142220410062987,-2.08397663437076,0.581525960948005));
#651=CARTESIAN_POINT('',(0.268299888095655,-1.9889865814348,0.574883609379848));
#652=CARTESIAN_POINT('',(0.371707526793569,-1.96256285107686,0.573035882156263));
#653=CARTESIAN_POINT('',(0.423318071643519,-1.95959425479407,0.57282829768226));
#654=CARTESIAN_POINT('',(5.,0.,0.));
#655=CARTESIAN_POINT('',(0.0984004607706042,0.,0.));
#656=CARTESIAN_POINT('',(0.0984004607706042,0.,-3.26987072143514));
#657=CARTESIAN_POINT('',(0.0984004607706042,-3.20262165637079,0.659749241032946));
#658=CARTESIAN_POINT('',(5.,0.,0.));
#659=CARTESIAN_POINT('',(0.00220433632506199,0.,0.));
#660=CARTESIAN_POINT('',(0.00220433632506199,0.,-4.18503210218567));
#661=CARTESIAN_POINT('',(0.0984004607706042,3.2694884209764,0.05));
#662=CARTESIAN_POINT('',(5.,0.,0.));
#663=CARTESIAN_POINT('',(0.172930494907752,0.,0.));
#664=CARTESIAN_POINT('',(0.172930494907752,0.,-4.55422509683256));
#665=CARTESIAN_POINT('',(0.0022043363250619,4.18473340803505,0.05));
#666=CARTESIAN_POINT('',(-0.0031993949940059,4.23614647721735,0.05));
#667=CARTESIAN_POINT('',(0.00622962074761446,4.34247549971424,0.05));
#668=CARTESIAN_POINT('',(0.0798250792086428,4.48228599383408,0.05));
#669=CARTESIAN_POINT('',(0.20127902238423,4.58334145117916,0.05));
#670=CARTESIAN_POINT('',(0.303324098022346,4.61467146715443,0.05));
#671=CARTESIAN_POINT('',(0.354737167204648,4.6200751984735,0.05));
#672=CARTESIAN_POINT('',(5.,0.,0.));
#673=CARTESIAN_POINT('',(5.28459535331607,0.,0.));
#674=CARTESIAN_POINT('',(5.28459535331607,0.,-6.34093984798076));
#675=CARTESIAN_POINT('',(5.11355723026808,-3.32116889107472,0.668038871220513));
#676=CARTESIAN_POINT('',(5.,0.,0.));
#677=CARTESIAN_POINT('',(0.292886270245932,0.,0.));
#678=CARTESIAN_POINT('',(0.292886270245932,0.,-6.62811210363522));
#679=CARTESIAN_POINT('',(0.292886270245933,-6.567402657417,0.895037649324201));
#680=CARTESIAN_POINT('',(5.,0.,0.));
#681=CARTESIAN_POINT('',(4.91194647136564,0.,0.));
#682=CARTESIAN_POINT('',(4.91194647136564,0.,-6.75826845458921));
#683=CARTESIAN_POINT('',(5.28459535331607,-6.28028363800174,0.874960331648148));
#684=CARTESIAN_POINT('',(5.28757119860844,-6.33176846215838,0.878560501264894));
#685=CARTESIAN_POINT('',(5.27314386739602,-6.43727763603063,0.885938421424573));
#686=CARTESIAN_POINT('',(5.19304413294617,-6.57313435392517,0.895438448588048));
#687=CARTESIAN_POINT('',(5.0669646549135,-6.66812440686114,0.902080800156205));
#688=CARTESIAN_POINT('',(4.96355701621559,-6.69454813721907,0.90392852737979));
#689=CARTESIAN_POINT('',(4.91194647136564,-6.69751673350187,0.904136111853794));
#690=CARTESIAN_POINT('',(5.,0.,0.));
#691=CARTESIAN_POINT('',(0.71113820644136,0.,0.));
#692=CARTESIAN_POINT('',(0.71113820644136,0.,-7.00000121511187));
#693=CARTESIAN_POINT('',(4.91194647136564,-6.69751673350186,0.904136111853794));
#694=CARTESIAN_POINT('',(5.,0.,0.));
#695=CARTESIAN_POINT('',(0.711138206441359,-6.93914378542028,0.921032321273755));
#696=CARTESIAN_POINT('',(0.659527661591409,-6.94211238170307,0.921239905747758));
#697=CARTESIAN_POINT('',(0.553760845069936,-6.92772019474437,0.920233505996841));
#698=CARTESIAN_POINT('',(0.417572378916646,-6.84781557922184,0.914646030973779));
#699=CARTESIAN_POINT('',(0.322350369952687,-6.72204322446093,0.90585117117472));
#700=CARTESIAN_POINT('',(0.295862115538297,-6.61888748157364,0.898637818940947));
#701=CARTESIAN_POINT('',(0.292886270245933,-6.567402657417,0.895037649324201));
#702=CARTESIAN_POINT('',(5.,0.,0.));
#703=(
GEOMETRIC_REPRESENTATION_CONTEXT(3)
GLOBAL_UNCERTAINTY_ASSIGNED_CONTEXT((#704))
GLOBAL_UNIT_ASSIGNED_CONTEXT((#710,#706,#705))
REPRESENTATION_CONTEXT('ATUM-14XD3-SP-050204-light',
'TOP_LEVEL_ASSEMBLY_PART')
);
#704=UNCERTAINTY_MEASURE_WITH_UNIT(LENGTH_MEASURE(2.E-5),#710,
'DISTANCE_ACCURACY_VALUE','Maximum Tolerance applied to model');
#705=(
NAMED_UNIT(*)
SI_UNIT($,.STERADIAN.)
SOLID_ANGLE_UNIT()
);
#706=(
CONVERSION_BASED_UNIT('DEGREE',#708)
NAMED_UNIT(#707)
PLANE_ANGLE_UNIT()
);
#707=DIMENSIONAL_EXPONENTS(0.,0.,0.,0.,0.,0.,0.);
#708=PLANE_ANGLE_MEASURE_WITH_UNIT(PLANE_ANGLE_MEASURE(0.0174532925),#709);
#709=(
NAMED_UNIT(*)
PLANE_ANGLE_UNIT()
SI_UNIT($,.RADIAN.)
);
#710=(
LENGTH_UNIT()
NAMED_UNIT(*)
SI_UNIT(.MILLI.,.METRE.)
);
ENDSEC;
END-ISO-10303-21;
