ISO-10303-21;
HEADER;
/* Generated by software containing ST-Developer
 * from STEP Tools, Inc. (www.steptools.com) 
 */
/* OPTION: using custom schema-name function */

FILE_DESCRIPTION(
/* description */ (''),
/* implementation_level */ '2;1');

FILE_NAME(
/* name */ 'ATUM-20XD5-SP-060204-light.stp',
/* time_stamp */ '2023-10-17T20:21:08+03:00',
/* author */ (''),
/* organization */ (''),
/* preprocessor_version */ 'ST-DEVELOPER v19.4',
/* originating_system */ 'SIEMENS PLM Software NX2306.3001',
/* authorisation */ '');

FILE_SCHEMA (('AUTOMOTIVE_DESIGN { 1 0 10303 214 3 1 1 1 }'));
ENDSEC;

DATA;
#10=SHAPE_REPRESENTATION_RELATIONSHIP('None',
'relationship between STP_ATUM 16XD5 SP.. 060204-None and STP_ATUM 16X
D5 SP.. 060204-None',#22,#11);
#11=ADVANCED_BREP_SHAPE_REPRESENTATION(
'STP_ATUM 16XD5 SP.. 060204-None',(#69,#70),#683);
#12=SHAPE_DEFINITION_REPRESENTATION(#13,#22);
#13=PRODUCT_DEFINITION_SHAPE('','',#14);
#14=PRODUCT_DEFINITION(' ','',#16,#15);
#15=PRODUCT_DEFINITION_CONTEXT('part definition',#21,'design');
#16=PRODUCT_DEFINITION_FORMATION_WITH_SPECIFIED_SOURCE(' ',' ',#18,
 .NOT_KNOWN.);
#17=PRODUCT_RELATED_PRODUCT_CATEGORY('part','',(#18));
#18=PRODUCT('STP_ATUM 16XD5 SP.. 060204','STP_ATUM 16XD5 SP.. 060204',
' ',(#19));
#19=PRODUCT_CONTEXT(' ',#21,'mechanical');
#20=APPLICATION_PROTOCOL_DEFINITION('international standard',
'automotive_design',2010,#21);
#21=APPLICATION_CONTEXT(
'core data for automotive mechanical design processes');
#22=SHAPE_REPRESENTATION('STP_ATUM 16XD5 SP.. 060204-None',(#387),#683);
#23=DRAUGHTING_PRE_DEFINED_COLOUR('yellow');
#24=(
BOUNDED_CURVE()
B_SPLINE_CURVE(3,(#655,#656,#657,#658,#659,#660,#661),.UNSPECIFIED.,.T.,
 .F.)
B_SPLINE_CURVE_WITH_KNOTS((1,3,3,3,1),(-0.5,0.,0.5,1.,1.5),
 .UNSPECIFIED.)
CURVE()
GEOMETRIC_REPRESENTATION_ITEM()
RATIONAL_B_SPLINE_CURVE((1.,0.333333333333333,0.333333333333333,1.,0.333333333333333,
0.333333333333333,1.))
REPRESENTATION_ITEM('')
);
#25=B_SPLINE_CURVE_WITH_KNOTS('',3,(#635,#636,#637,#638,#639,#640,#641),
 .UNSPECIFIED.,.F.,.F.,(4,1,1,1,4),(0.,0.25,0.5,0.75,1.),.UNSPECIFIED.);
#26=B_SPLINE_CURVE_WITH_KNOTS('',3,(#647,#648,#649,#650,#651,#652,#653),
 .UNSPECIFIED.,.F.,.F.,(4,1,1,1,4),(0.,0.25,0.5,0.75,1.),.UNSPECIFIED.);
#27=B_SPLINE_CURVE_WITH_KNOTS('',3,(#663,#664,#665,#666,#667,#668,#669),
 .UNSPECIFIED.,.F.,.F.,(4,1,1,1,4),(0.,0.25,0.5,0.75,1.),.UNSPECIFIED.);
#28=B_SPLINE_CURVE_WITH_KNOTS('',3,(#675,#676,#677,#678,#679,#680,#681),
 .UNSPECIFIED.,.F.,.F.,(4,1,1,1,4),(0.,0.25,0.5,0.75,1.),.UNSPECIFIED.);
#29=SURFACE_OF_REVOLUTION('',#45,#37);
#30=SURFACE_OF_REVOLUTION('',#46,#38);
#31=SURFACE_OF_REVOLUTION('',#25,#39);
#32=SURFACE_OF_REVOLUTION('',#47,#40);
#33=SURFACE_OF_REVOLUTION('',#26,#41);
#34=SURFACE_OF_REVOLUTION('',#27,#42);
#35=SURFACE_OF_REVOLUTION('',#48,#43);
#36=SURFACE_OF_REVOLUTION('',#28,#44);
#37=AXIS1_PLACEMENT('',#628,#536);
#38=AXIS1_PLACEMENT('',#632,#540);
#39=AXIS1_PLACEMENT('',#642,#543);
#40=AXIS1_PLACEMENT('',#646,#547);
#41=AXIS1_PLACEMENT('',#654,#548);
#42=AXIS1_PLACEMENT('',#670,#549);
#43=AXIS1_PLACEMENT('',#674,#553);
#44=AXIS1_PLACEMENT('',#682,#554);
#45=LINE('',#627,#49);
#46=LINE('',#631,#50);
#47=LINE('',#645,#51);
#48=LINE('',#673,#52);
#49=VECTOR('',#535,4.18612628199205);
#50=VECTOR('',#539,4.90855428881221);
#51=VECTOR('',#546,5.21469825324188);
#52=VECTOR('',#552,0.732111524586945);
#53=PRESENTATION_LAYER_ASSIGNMENT('1','Layer 1',(#69,#70));
#54=STYLED_ITEM('',(#56),#69);
#55=STYLED_ITEM('',(#57),#70);
#56=PRESENTATION_STYLE_ASSIGNMENT((#58));
#57=PRESENTATION_STYLE_ASSIGNMENT((#59));
#58=SURFACE_STYLE_USAGE(.BOTH.,#60);
#59=SURFACE_STYLE_USAGE(.BOTH.,#61);
#60=SURFACE_SIDE_STYLE('',(#62));
#61=SURFACE_SIDE_STYLE('',(#63));
#62=SURFACE_STYLE_FILL_AREA(#64);
#63=SURFACE_STYLE_FILL_AREA(#65);
#64=FILL_AREA_STYLE('',(#66));
#65=FILL_AREA_STYLE('',(#67));
#66=FILL_AREA_STYLE_COLOUR('',#68);
#67=FILL_AREA_STYLE_COLOUR('',#23);
#68=COLOUR_RGB('smoke gray',0.694117647058824,0.694117647058824,0.694117647058824);
#69=MANIFOLD_SOLID_BREP('',#71);
#70=MANIFOLD_SOLID_BREP('',#72);
#71=CLOSED_SHELL('',(#92,#93,#94,#95,#96,#97,#98,#99,#100,#101,#102,#103,
#104,#105,#106,#107,#108,#109,#110,#111,#112));
#72=CLOSED_SHELL('',(#113,#114,#115,#116,#117,#118,#119,#120,#121,#122));
#73=FACE_OUTER_BOUND('',#209,.T.);
#74=FACE_OUTER_BOUND('',#224,.T.);
#75=FACE_OUTER_BOUND('',#225,.T.);
#76=FACE_OUTER_BOUND('',#226,.T.);
#77=PLANE('',#410);
#78=PLANE('',#413);
#79=PLANE('',#428);
#80=PLANE('',#430);
#81=PLANE('',#432);
#82=CONICAL_SURFACE('',#396,12.3103073792139,19.9999999999989);
#83=CONICAL_SURFACE('',#400,12.5,15.0000000000008);
#84=CONICAL_SURFACE('',#408,12.7056692403838,82.0000000000012);
#85=CONICAL_SURFACE('',#419,16.5439949120153,32.0053832080835);
#86=CONICAL_SURFACE('',#425,9.49999999999997,3.00000000000003);
#87=CYLINDRICAL_SURFACE('',#392,12.2499999999998);
#88=CYLINDRICAL_SURFACE('',#398,12.5);
#89=CYLINDRICAL_SURFACE('',#404,12.2499999999998);
#90=CYLINDRICAL_SURFACE('',#415,17.);
#91=CYLINDRICAL_SURFACE('',#423,9.49999999999997);
#92=ADVANCED_FACE('',(#131,#132),#123,.T.);
#93=ADVANCED_FACE('',(#133,#134),#87,.T.);
#94=ADVANCED_FACE('',(#135,#136),#124,.F.);
#95=ADVANCED_FACE('',(#137,#138),#82,.T.);
#96=ADVANCED_FACE('',(#139,#140),#88,.T.);
#97=ADVANCED_FACE('',(#141,#142),#83,.T.);
#98=ADVANCED_FACE('',(#143,#144),#125,.F.);
#99=ADVANCED_FACE('',(#145,#146),#89,.T.);
#100=ADVANCED_FACE('',(#147,#148),#126,.F.);
#101=ADVANCED_FACE('',(#149,#150),#84,.F.);
#102=ADVANCED_FACE('',(#151,#152),#77,.F.);
#103=ADVANCED_FACE('',(#153,#154),#127,.T.);
#104=ADVANCED_FACE('',(#73),#78,.F.);
#105=ADVANCED_FACE('',(#155,#156),#90,.T.);
#106=ADVANCED_FACE('',(#157,#158),#128,.T.);
#107=ADVANCED_FACE('',(#159,#160),#85,.T.);
#108=ADVANCED_FACE('',(#161,#162),#129,.F.);
#109=ADVANCED_FACE('',(#163,#164),#91,.T.);
#110=ADVANCED_FACE('',(#165,#166),#86,.T.);
#111=ADVANCED_FACE('',(#167,#168),#130,.T.);
#112=ADVANCED_FACE('',(#74),#79,.F.);
#113=ADVANCED_FACE('',(#75),#80,.T.);
#114=ADVANCED_FACE('',(#76),#81,.F.);
#115=ADVANCED_FACE('',(#169,#170),#29,.F.);
#116=ADVANCED_FACE('',(#171,#172),#30,.F.);
#117=ADVANCED_FACE('',(#173,#174),#31,.F.);
#118=ADVANCED_FACE('',(#175,#176),#32,.F.);
#119=ADVANCED_FACE('',(#177,#178),#33,.F.);
#120=ADVANCED_FACE('',(#179,#180),#34,.F.);
#121=ADVANCED_FACE('',(#181,#182),#35,.F.);
#122=ADVANCED_FACE('',(#183,#184),#36,.F.);
#123=TOROIDAL_SURFACE('',#390,11.2499999999998,0.999999999999972);
#124=TOROIDAL_SURFACE('',#394,13.2499999999998,0.99999999999999);
#125=TOROIDAL_SURFACE('',#402,12.6499999999998,0.4);
#126=TOROIDAL_SURFACE('',#406,12.6499999999998,0.399999999999986);
#127=TOROIDAL_SURFACE('',#412,16.3,0.799999999999997);
#128=TOROIDAL_SURFACE('',#417,14.,3.);
#129=TOROIDAL_SURFACE('',#421,14.5,5.);
#130=TOROIDAL_SURFACE('',#427,8.33092276029632,1.);
#131=FACE_BOUND('',#185,.T.);
#132=FACE_BOUND('',#186,.T.);
#133=FACE_BOUND('',#187,.T.);
#134=FACE_BOUND('',#188,.T.);
#135=FACE_BOUND('',#189,.T.);
#136=FACE_BOUND('',#190,.T.);
#137=FACE_BOUND('',#191,.T.);
#138=FACE_BOUND('',#192,.T.);
#139=FACE_BOUND('',#193,.T.);
#140=FACE_BOUND('',#194,.T.);
#141=FACE_BOUND('',#195,.T.);
#142=FACE_BOUND('',#196,.T.);
#143=FACE_BOUND('',#197,.T.);
#144=FACE_BOUND('',#198,.T.);
#145=FACE_BOUND('',#199,.T.);
#146=FACE_BOUND('',#200,.T.);
#147=FACE_BOUND('',#201,.T.);
#148=FACE_BOUND('',#202,.T.);
#149=FACE_BOUND('',#203,.T.);
#150=FACE_BOUND('',#204,.T.);
#151=FACE_BOUND('',#205,.T.);
#152=FACE_BOUND('',#206,.T.);
#153=FACE_BOUND('',#207,.T.);
#154=FACE_BOUND('',#208,.T.);
#155=FACE_BOUND('',#210,.T.);
#156=FACE_BOUND('',#211,.T.);
#157=FACE_BOUND('',#212,.T.);
#158=FACE_BOUND('',#213,.T.);
#159=FACE_BOUND('',#214,.T.);
#160=FACE_BOUND('',#215,.T.);
#161=FACE_BOUND('',#216,.T.);
#162=FACE_BOUND('',#217,.T.);
#163=FACE_BOUND('',#218,.T.);
#164=FACE_BOUND('',#219,.T.);
#165=FACE_BOUND('',#220,.T.);
#166=FACE_BOUND('',#221,.T.);
#167=FACE_BOUND('',#222,.T.);
#168=FACE_BOUND('',#223,.T.);
#169=FACE_BOUND('',#227,.T.);
#170=FACE_BOUND('',#228,.T.);
#171=FACE_BOUND('',#229,.T.);
#172=FACE_BOUND('',#230,.T.);
#173=FACE_BOUND('',#231,.T.);
#174=FACE_BOUND('',#232,.T.);
#175=FACE_BOUND('',#233,.T.);
#176=FACE_BOUND('',#234,.T.);
#177=FACE_BOUND('',#235,.T.);
#178=FACE_BOUND('',#236,.T.);
#179=FACE_BOUND('',#237,.T.);
#180=FACE_BOUND('',#238,.T.);
#181=FACE_BOUND('',#239,.T.);
#182=FACE_BOUND('',#240,.T.);
#183=FACE_BOUND('',#241,.T.);
#184=FACE_BOUND('',#242,.T.);
#185=EDGE_LOOP('',(#243));
#186=EDGE_LOOP('',(#244));
#187=EDGE_LOOP('',(#245));
#188=EDGE_LOOP('',(#246));
#189=EDGE_LOOP('',(#247));
#190=EDGE_LOOP('',(#248));
#191=EDGE_LOOP('',(#249));
#192=EDGE_LOOP('',(#250));
#193=EDGE_LOOP('',(#251));
#194=EDGE_LOOP('',(#252));
#195=EDGE_LOOP('',(#253));
#196=EDGE_LOOP('',(#254));
#197=EDGE_LOOP('',(#255));
#198=EDGE_LOOP('',(#256));
#199=EDGE_LOOP('',(#257));
#200=EDGE_LOOP('',(#258));
#201=EDGE_LOOP('',(#259));
#202=EDGE_LOOP('',(#260));
#203=EDGE_LOOP('',(#261));
#204=EDGE_LOOP('',(#262));
#205=EDGE_LOOP('',(#263));
#206=EDGE_LOOP('',(#264));
#207=EDGE_LOOP('',(#265));
#208=EDGE_LOOP('',(#266));
#209=EDGE_LOOP('',(#267));
#210=EDGE_LOOP('',(#268));
#211=EDGE_LOOP('',(#269));
#212=EDGE_LOOP('',(#270));
#213=EDGE_LOOP('',(#271));
#214=EDGE_LOOP('',(#272));
#215=EDGE_LOOP('',(#273));
#216=EDGE_LOOP('',(#274));
#217=EDGE_LOOP('',(#275));
#218=EDGE_LOOP('',(#276));
#219=EDGE_LOOP('',(#277));
#220=EDGE_LOOP('',(#278));
#221=EDGE_LOOP('',(#279));
#222=EDGE_LOOP('',(#280));
#223=EDGE_LOOP('',(#281));
#224=EDGE_LOOP('',(#282));
#225=EDGE_LOOP('',(#283));
#226=EDGE_LOOP('',(#284));
#227=EDGE_LOOP('',(#285));
#228=EDGE_LOOP('',(#286));
#229=EDGE_LOOP('',(#287));
#230=EDGE_LOOP('',(#288));
#231=EDGE_LOOP('',(#289));
#232=EDGE_LOOP('',(#290));
#233=EDGE_LOOP('',(#291));
#234=EDGE_LOOP('',(#292));
#235=EDGE_LOOP('',(#293));
#236=EDGE_LOOP('',(#294));
#237=EDGE_LOOP('',(#295));
#238=EDGE_LOOP('',(#296));
#239=EDGE_LOOP('',(#297));
#240=EDGE_LOOP('',(#298));
#241=EDGE_LOOP('',(#299));
#242=EDGE_LOOP('',(#300));
#243=ORIENTED_EDGE('',*,*,#330,.T.);
#244=ORIENTED_EDGE('',*,*,#331,.T.);
#245=ORIENTED_EDGE('',*,*,#332,.T.);
#246=ORIENTED_EDGE('',*,*,#330,.F.);
#247=ORIENTED_EDGE('',*,*,#333,.T.);
#248=ORIENTED_EDGE('',*,*,#332,.F.);
#249=ORIENTED_EDGE('',*,*,#334,.T.);
#250=ORIENTED_EDGE('',*,*,#333,.F.);
#251=ORIENTED_EDGE('',*,*,#335,.T.);
#252=ORIENTED_EDGE('',*,*,#334,.F.);
#253=ORIENTED_EDGE('',*,*,#336,.T.);
#254=ORIENTED_EDGE('',*,*,#335,.F.);
#255=ORIENTED_EDGE('',*,*,#337,.T.);
#256=ORIENTED_EDGE('',*,*,#336,.F.);
#257=ORIENTED_EDGE('',*,*,#338,.T.);
#258=ORIENTED_EDGE('',*,*,#337,.F.);
#259=ORIENTED_EDGE('',*,*,#339,.T.);
#260=ORIENTED_EDGE('',*,*,#338,.F.);
#261=ORIENTED_EDGE('',*,*,#340,.T.);
#262=ORIENTED_EDGE('',*,*,#339,.F.);
#263=ORIENTED_EDGE('',*,*,#341,.T.);
#264=ORIENTED_EDGE('',*,*,#340,.F.);
#265=ORIENTED_EDGE('',*,*,#342,.T.);
#266=ORIENTED_EDGE('',*,*,#341,.F.);
#267=ORIENTED_EDGE('',*,*,#331,.F.);
#268=ORIENTED_EDGE('',*,*,#343,.T.);
#269=ORIENTED_EDGE('',*,*,#342,.F.);
#270=ORIENTED_EDGE('',*,*,#344,.T.);
#271=ORIENTED_EDGE('',*,*,#343,.F.);
#272=ORIENTED_EDGE('',*,*,#345,.T.);
#273=ORIENTED_EDGE('',*,*,#344,.F.);
#274=ORIENTED_EDGE('',*,*,#346,.T.);
#275=ORIENTED_EDGE('',*,*,#345,.F.);
#276=ORIENTED_EDGE('',*,*,#347,.T.);
#277=ORIENTED_EDGE('',*,*,#346,.F.);
#278=ORIENTED_EDGE('',*,*,#348,.T.);
#279=ORIENTED_EDGE('',*,*,#347,.F.);
#280=ORIENTED_EDGE('',*,*,#349,.T.);
#281=ORIENTED_EDGE('',*,*,#348,.F.);
#282=ORIENTED_EDGE('',*,*,#349,.F.);
#283=ORIENTED_EDGE('',*,*,#350,.T.);
#284=ORIENTED_EDGE('',*,*,#351,.T.);
#285=ORIENTED_EDGE('',*,*,#352,.F.);
#286=ORIENTED_EDGE('',*,*,#353,.F.);
#287=ORIENTED_EDGE('',*,*,#350,.F.);
#288=ORIENTED_EDGE('',*,*,#354,.T.);
#289=ORIENTED_EDGE('',*,*,#355,.T.);
#290=ORIENTED_EDGE('',*,*,#354,.F.);
#291=ORIENTED_EDGE('',*,*,#356,.T.);
#292=ORIENTED_EDGE('',*,*,#355,.F.);
#293=ORIENTED_EDGE('',*,*,#353,.T.);
#294=ORIENTED_EDGE('',*,*,#356,.F.);
#295=ORIENTED_EDGE('',*,*,#351,.F.);
#296=ORIENTED_EDGE('',*,*,#357,.F.);
#297=ORIENTED_EDGE('',*,*,#357,.T.);
#298=ORIENTED_EDGE('',*,*,#358,.F.);
#299=ORIENTED_EDGE('',*,*,#352,.T.);
#300=ORIENTED_EDGE('',*,*,#358,.T.);
#301=VERTEX_POINT('',#557);
#302=VERTEX_POINT('',#559);
#303=VERTEX_POINT('',#562);
#304=VERTEX_POINT('',#565);
#305=VERTEX_POINT('',#568);
#306=VERTEX_POINT('',#571);
#307=VERTEX_POINT('',#574);
#308=VERTEX_POINT('',#577);
#309=VERTEX_POINT('',#580);
#310=VERTEX_POINT('',#583);
#311=VERTEX_POINT('',#586);
#312=VERTEX_POINT('',#589);
#313=VERTEX_POINT('',#592);
#314=VERTEX_POINT('',#596);
#315=VERTEX_POINT('',#599);
#316=VERTEX_POINT('',#602);
#317=VERTEX_POINT('',#605);
#318=VERTEX_POINT('',#608);
#319=VERTEX_POINT('',#611);
#320=VERTEX_POINT('',#614);
#321=VERTEX_POINT('',#618);
#322=VERTEX_POINT('',#621);
#323=VERTEX_POINT('',#624);
#324=VERTEX_POINT('',#626);
#325=VERTEX_POINT('',#630);
#326=VERTEX_POINT('',#634);
#327=VERTEX_POINT('',#644);
#328=VERTEX_POINT('',#662);
#329=VERTEX_POINT('',#672);
#330=EDGE_CURVE('',#301,#301,#359,.T.);
#331=EDGE_CURVE('',#302,#302,#360,.T.);
#332=EDGE_CURVE('',#303,#303,#361,.T.);
#333=EDGE_CURVE('',#304,#304,#362,.T.);
#334=EDGE_CURVE('',#305,#305,#363,.T.);
#335=EDGE_CURVE('',#306,#306,#364,.T.);
#336=EDGE_CURVE('',#307,#307,#365,.T.);
#337=EDGE_CURVE('',#308,#308,#366,.T.);
#338=EDGE_CURVE('',#309,#309,#367,.T.);
#339=EDGE_CURVE('',#310,#310,#368,.T.);
#340=EDGE_CURVE('',#311,#311,#369,.T.);
#341=EDGE_CURVE('',#312,#312,#370,.T.);
#342=EDGE_CURVE('',#313,#313,#371,.T.);
#343=EDGE_CURVE('',#314,#314,#372,.T.);
#344=EDGE_CURVE('',#315,#315,#373,.T.);
#345=EDGE_CURVE('',#316,#316,#374,.T.);
#346=EDGE_CURVE('',#317,#317,#375,.T.);
#347=EDGE_CURVE('',#318,#318,#376,.T.);
#348=EDGE_CURVE('',#319,#319,#377,.T.);
#349=EDGE_CURVE('',#320,#320,#378,.T.);
#350=EDGE_CURVE('',#321,#321,#379,.T.);
#351=EDGE_CURVE('',#322,#322,#380,.T.);
#352=EDGE_CURVE('',#323,#323,#381,.T.);
#353=EDGE_CURVE('',#324,#324,#382,.T.);
#354=EDGE_CURVE('',#325,#325,#383,.T.);
#355=EDGE_CURVE('',#326,#326,#384,.T.);
#356=EDGE_CURVE('',#327,#327,#385,.T.);
#357=EDGE_CURVE('',#328,#328,#24,.T.);
#358=EDGE_CURVE('',#329,#329,#386,.T.);
#359=CIRCLE('',#388,12.2499999999998);
#360=CIRCLE('',#389,11.2499999999998);
#361=CIRCLE('',#391,12.2499999999998);
#362=CIRCLE('',#393,12.3103073792139);
#363=CIRCLE('',#395,12.5);
#364=CIRCLE('',#397,12.5);
#365=CIRCLE('',#399,12.2636296694842);
#366=CIRCLE('',#401,12.2499999999998);
#367=CIRCLE('',#403,12.2499999999998);
#368=CIRCLE('',#405,12.7056692403838);
#369=CIRCLE('',#407,13.5);
#370=CIRCLE('',#409,16.3);
#371=CIRCLE('',#411,17.);
#372=CIRCLE('',#414,17.);
#373=CIRCLE('',#416,16.5439949120153);
#374=CIRCLE('',#418,10.2600084799745);
#375=CIRCLE('',#420,9.49999999999997);
#376=CIRCLE('',#422,9.49999999999997);
#377=CIRCLE('',#424,9.32955229505089);
#378=CIRCLE('',#426,8.33092276029632);
#379=CIRCLE('',#429,4.54430398500986);
#380=CIRCLE('',#431,4.40095747463095);
#381=CIRCLE('',#433,5.4785723934708);
#382=CIRCLE('',#434,9.62451882229985);
#383=CIRCLE('',#435,9.39537901438319);
#384=CIRCLE('',#436,9.80075151104826);
#385=CIRCLE('',#437,9.99998066694145);
#386=CIRCLE('',#438,5.2007420945892);
#387=AXIS2_PLACEMENT_3D('',#555,#439,#440);
#388=AXIS2_PLACEMENT_3D('',#556,#441,#442);
#389=AXIS2_PLACEMENT_3D('',#558,#443,#444);
#390=AXIS2_PLACEMENT_3D('',#560,#445,#446);
#391=AXIS2_PLACEMENT_3D('',#561,#447,#448);
#392=AXIS2_PLACEMENT_3D('',#563,#449,#450);
#393=AXIS2_PLACEMENT_3D('',#564,#451,#452);
#394=AXIS2_PLACEMENT_3D('',#566,#453,#454);
#395=AXIS2_PLACEMENT_3D('',#567,#455,#456);
#396=AXIS2_PLACEMENT_3D('',#569,#457,#458);
#397=AXIS2_PLACEMENT_3D('',#570,#459,#460);
#398=AXIS2_PLACEMENT_3D('',#572,#461,#462);
#399=AXIS2_PLACEMENT_3D('',#573,#463,#464);
#400=AXIS2_PLACEMENT_3D('',#575,#465,#466);
#401=AXIS2_PLACEMENT_3D('',#576,#467,#468);
#402=AXIS2_PLACEMENT_3D('',#578,#469,#470);
#403=AXIS2_PLACEMENT_3D('',#579,#471,#472);
#404=AXIS2_PLACEMENT_3D('',#581,#473,#474);
#405=AXIS2_PLACEMENT_3D('',#582,#475,#476);
#406=AXIS2_PLACEMENT_3D('',#584,#477,#478);
#407=AXIS2_PLACEMENT_3D('',#585,#479,#480);
#408=AXIS2_PLACEMENT_3D('',#587,#481,#482);
#409=AXIS2_PLACEMENT_3D('',#588,#483,#484);
#410=AXIS2_PLACEMENT_3D('',#590,#485,#486);
#411=AXIS2_PLACEMENT_3D('',#591,#487,#488);
#412=AXIS2_PLACEMENT_3D('',#593,#489,#490);
#413=AXIS2_PLACEMENT_3D('',#594,#491,#492);
#414=AXIS2_PLACEMENT_3D('',#595,#493,#494);
#415=AXIS2_PLACEMENT_3D('',#597,#495,#496);
#416=AXIS2_PLACEMENT_3D('',#598,#497,#498);
#417=AXIS2_PLACEMENT_3D('',#600,#499,#500);
#418=AXIS2_PLACEMENT_3D('',#601,#501,#502);
#419=AXIS2_PLACEMENT_3D('',#603,#503,#504);
#420=AXIS2_PLACEMENT_3D('',#604,#505,#506);
#421=AXIS2_PLACEMENT_3D('',#606,#507,#508);
#422=AXIS2_PLACEMENT_3D('',#607,#509,#510);
#423=AXIS2_PLACEMENT_3D('',#609,#511,#512);
#424=AXIS2_PLACEMENT_3D('',#610,#513,#514);
#425=AXIS2_PLACEMENT_3D('',#612,#515,#516);
#426=AXIS2_PLACEMENT_3D('',#613,#517,#518);
#427=AXIS2_PLACEMENT_3D('',#615,#519,#520);
#428=AXIS2_PLACEMENT_3D('',#616,#521,#522);
#429=AXIS2_PLACEMENT_3D('',#617,#523,#524);
#430=AXIS2_PLACEMENT_3D('',#619,#525,#526);
#431=AXIS2_PLACEMENT_3D('',#620,#527,#528);
#432=AXIS2_PLACEMENT_3D('',#622,#529,#530);
#433=AXIS2_PLACEMENT_3D('',#623,#531,#532);
#434=AXIS2_PLACEMENT_3D('',#625,#533,#534);
#435=AXIS2_PLACEMENT_3D('',#629,#537,#538);
#436=AXIS2_PLACEMENT_3D('',#633,#541,#542);
#437=AXIS2_PLACEMENT_3D('',#643,#544,#545);
#438=AXIS2_PLACEMENT_3D('',#671,#550,#551);
#439=DIRECTION('',(0.,0.,1.));
#440=DIRECTION('',(1.,0.,0.));
#441=DIRECTION('',(1.,0.,0.));
#442=DIRECTION('',(0.,0.,1.));
#443=DIRECTION('',(-1.,0.,0.));
#444=DIRECTION('',(0.,0.,1.));
#445=DIRECTION('',(-1.,0.,0.));
#446=DIRECTION('',(0.,0.,1.));
#447=DIRECTION('',(1.,0.,0.));
#448=DIRECTION('',(0.,0.,1.));
#449=DIRECTION('',(-1.,0.,0.));
#450=DIRECTION('',(0.,0.,1.));
#451=DIRECTION('',(1.,0.,0.));
#452=DIRECTION('',(0.,0.,1.));
#453=DIRECTION('',(-1.,0.,0.));
#454=DIRECTION('',(0.,0.,1.));
#455=DIRECTION('',(1.,0.,0.));
#456=DIRECTION('',(0.,0.,1.));
#457=DIRECTION('',(-1.,0.,0.));
#458=DIRECTION('',(0.,0.,1.));
#459=DIRECTION('',(1.,0.,0.));
#460=DIRECTION('',(0.,0.,1.));
#461=DIRECTION('',(-1.,0.,0.));
#462=DIRECTION('',(0.,0.,1.));
#463=DIRECTION('',(1.,0.,0.));
#464=DIRECTION('',(0.,0.,1.));
#465=DIRECTION('',(1.,0.,0.));
#466=DIRECTION('',(3.95873140158093E-16,0.,-1.));
#467=DIRECTION('',(1.,0.,0.));
#468=DIRECTION('',(0.,0.,1.));
#469=DIRECTION('',(-1.,0.,0.));
#470=DIRECTION('',(0.,0.,1.));
#471=DIRECTION('',(1.,0.,0.));
#472=DIRECTION('',(0.,0.,1.));
#473=DIRECTION('',(-1.,0.,0.));
#474=DIRECTION('',(0.,0.,1.));
#475=DIRECTION('',(1.,0.,0.));
#476=DIRECTION('',(0.,0.,1.));
#477=DIRECTION('',(-1.,0.,0.));
#478=DIRECTION('',(0.,0.,1.));
#479=DIRECTION('',(1.,0.,0.));
#480=DIRECTION('',(0.,0.,1.));
#481=DIRECTION('',(1.,0.,0.));
#482=DIRECTION('',(1.36284353514035E-17,0.,-1.));
#483=DIRECTION('',(1.,0.,0.));
#484=DIRECTION('',(0.,0.,1.));
#485=DIRECTION('',(-1.,0.,0.));
#486=DIRECTION('',(0.,0.,1.));
#487=DIRECTION('',(1.,0.,0.));
#488=DIRECTION('',(0.,0.,1.));
#489=DIRECTION('',(-1.,0.,0.));
#490=DIRECTION('',(0.,0.,1.));
#491=DIRECTION('',(-1.,0.,0.));
#492=DIRECTION('',(0.,0.,1.));
#493=DIRECTION('',(1.,0.,0.));
#494=DIRECTION('',(0.,0.,1.));
#495=DIRECTION('',(-1.,0.,0.));
#496=DIRECTION('',(0.,0.,1.));
#497=DIRECTION('',(1.,0.,0.));
#498=DIRECTION('',(0.,0.,1.));
#499=DIRECTION('',(-1.,0.,0.));
#500=DIRECTION('',(0.,0.,1.));
#501=DIRECTION('',(1.,0.,0.));
#502=DIRECTION('',(0.,0.,1.));
#503=DIRECTION('',(1.,0.,0.));
#504=DIRECTION('',(1.08159283836159E-16,0.,-1.));
#505=DIRECTION('',(1.,0.,0.));
#506=DIRECTION('',(0.,0.,1.));
#507=DIRECTION('',(-1.,0.,0.));
#508=DIRECTION('',(0.,0.,1.));
#509=DIRECTION('',(1.,0.,0.));
#510=DIRECTION('',(0.,0.,1.));
#511=DIRECTION('',(-1.,0.,0.));
#512=DIRECTION('',(0.,0.,1.));
#513=DIRECTION('',(1.,0.,0.));
#514=DIRECTION('',(0.,0.,1.));
#515=DIRECTION('',(1.,0.,0.));
#516=DIRECTION('',(-1.79334978169582E-15,0.,-1.));
#517=DIRECTION('',(1.,0.,0.));
#518=DIRECTION('',(0.,0.,1.));
#519=DIRECTION('',(-1.,0.,0.));
#520=DIRECTION('',(0.,0.,1.));
#521=DIRECTION('',(1.,0.,0.));
#522=DIRECTION('',(0.,0.,-1.));
#523=DIRECTION('',(1.,0.,0.));
#524=DIRECTION('',(0.,0.,-1.));
#525=DIRECTION('',(1.,0.,0.));
#526=DIRECTION('',(0.,0.,-1.));
#527=DIRECTION('',(-1.,0.,0.));
#528=DIRECTION('',(0.,0.,-1.));
#529=DIRECTION('',(1.,0.,0.));
#530=DIRECTION('',(0.,0.,-1.));
#531=DIRECTION('',(-1.,0.,0.));
#532=DIRECTION('',(0.,0.,-1.));
#533=DIRECTION('',(1.,0.,0.));
#534=DIRECTION('',(0.,0.,-1.));
#535=DIRECTION('',(-0.0383878090875209,0.993788849599919,-0.104451417052756));
#536=DIRECTION('',(1.,0.,0.));
#537=DIRECTION('',(1.,0.,0.));
#538=DIRECTION('',(0.,0.,-1.));
#539=DIRECTION('',(0.0383878090875206,-0.993788849599919,0.104451417052756));
#540=DIRECTION('',(1.,0.,0.));
#541=DIRECTION('',(1.,0.,0.));
#542=DIRECTION('',(0.,0.,-1.));
#543=DIRECTION('',(1.,0.,0.));
#544=DIRECTION('',(1.,0.,0.));
#545=DIRECTION('',(0.,0.,-1.));
#546=DIRECTION('',(-0.999262916410621,-0.0381775166527562,0.00401261869212993));
#547=DIRECTION('',(1.,0.,0.));
#548=DIRECTION('',(1.,0.,0.));
#549=DIRECTION('',(1.,0.,0.));
#550=DIRECTION('',(1.,0.,0.));
#551=DIRECTION('',(0.,0.,-1.));
#552=DIRECTION('',(0.0662739004000006,-0.99780146829205,-2.59890917900062E-18));
#553=DIRECTION('',(1.,0.,0.));
#554=DIRECTION('',(1.,0.,0.));
#555=CARTESIAN_POINT('',(0.,0.,0.));
#556=CARTESIAN_POINT('',(177.,0.,0.));
#557=CARTESIAN_POINT('',(177.,0.,12.2499999999998));
#558=CARTESIAN_POINT('',(178.,0.,0.));
#559=CARTESIAN_POINT('',(178.,0.,11.2499999999998));
#560=CARTESIAN_POINT('',(177.,0.,0.));
#561=CARTESIAN_POINT('',(175.176326980708,0.,0.));
#562=CARTESIAN_POINT('',(175.176326980708,0.,12.2499999999998));
#563=CARTESIAN_POINT('',(0.,0.,0.));
#564=CARTESIAN_POINT('',(174.834306837383,0.,0.));
#565=CARTESIAN_POINT('',(174.834306837383,0.,12.3103073792139));
#566=CARTESIAN_POINT('',(175.176326980708,0.,0.));
#567=CARTESIAN_POINT('',(174.313130645136,0.,0.));
#568=CARTESIAN_POINT('',(174.313130645136,0.,12.5));
#569=CARTESIAN_POINT('',(174.834306837383,0.,0.));
#570=CARTESIAN_POINT('',(124.,0.,0.));
#571=CARTESIAN_POINT('',(124.,0.,12.5));
#572=CARTESIAN_POINT('',(0.,0.,0.));
#573=CARTESIAN_POINT('',(123.117853917113,0.,0.));
#574=CARTESIAN_POINT('',(123.117853917113,0.,12.2636296694842));
#575=CARTESIAN_POINT('',(124.,0.,0.));
#576=CARTESIAN_POINT('',(123.014326299072,0.,0.));
#577=CARTESIAN_POINT('',(123.014326299072,0.,12.2499999999998));
#578=CARTESIAN_POINT('',(123.014326299072,0.,0.));
#579=CARTESIAN_POINT('',(122.28447131951,0.,0.));
#580=CARTESIAN_POINT('',(122.28447131951,0.,12.2499999999998));
#581=CARTESIAN_POINT('',(0.,0.,0.));
#582=CARTESIAN_POINT('',(121.888364092014,0.,0.));
#583=CARTESIAN_POINT('',(121.888364092014,0.,12.7056692403838));
#584=CARTESIAN_POINT('',(122.28447131951,0.,0.));
#585=CARTESIAN_POINT('',(122.,0.,0.));
#586=CARTESIAN_POINT('',(122.,0.,13.5));
#587=CARTESIAN_POINT('',(121.888364092014,0.,0.));
#588=CARTESIAN_POINT('',(122.,0.,0.));
#589=CARTESIAN_POINT('',(122.,0.,16.3));
#590=CARTESIAN_POINT('',(122.,13.5,0.));
#591=CARTESIAN_POINT('',(121.587298334621,0.,0.));
#592=CARTESIAN_POINT('',(121.587298334621,0.,17.));
#593=CARTESIAN_POINT('',(121.2,0.,0.));
#594=CARTESIAN_POINT('',(178.,17.5,0.));
#595=CARTESIAN_POINT('',(117.860388679234,0.,0.));
#596=CARTESIAN_POINT('',(117.860388679234,0.,17.));
#597=CARTESIAN_POINT('',(0.,0.,0.));
#598=CARTESIAN_POINT('',(116.270391859224,0.,0.));
#599=CARTESIAN_POINT('',(116.270391859224,0.,16.5439949120153));
#600=CARTESIAN_POINT('',(117.860388679234,0.,0.));
#601=CARTESIAN_POINT('',(106.216013567959,0.,0.));
#602=CARTESIAN_POINT('',(106.216013567959,0.,10.2600084799745));
#603=CARTESIAN_POINT('',(116.270391859224,0.,0.));
#604=CARTESIAN_POINT('',(103.566018867943,0.,0.));
#605=CARTESIAN_POINT('',(103.566018867943,0.,9.49999999999997));
#606=CARTESIAN_POINT('',(103.566018867943,0.,0.));
#607=CARTESIAN_POINT('',(5.,0.,0.));
#608=CARTESIAN_POINT('',(5.,0.,9.49999999999997));
#609=CARTESIAN_POINT('',(0.,0.,0.));
#610=CARTESIAN_POINT('',(1.74766404375706,0.,0.));
#611=CARTESIAN_POINT('',(1.74766404375706,0.,9.32955229505089));
#612=CARTESIAN_POINT('',(5.,0.,0.));
#613=CARTESIAN_POINT('',(0.8,0.,0.));
#614=CARTESIAN_POINT('',(0.8,0.,8.33092276029632));
#615=CARTESIAN_POINT('',(1.8,0.,0.));
#616=CARTESIAN_POINT('',(0.8,8.33092276029632,0.));
#617=CARTESIAN_POINT('',(6.05749241108962,0.,0.));
#618=CARTESIAN_POINT('',(6.05749241108962,0.,-4.54430398500986));
#619=CARTESIAN_POINT('',(6.05749241108962,0.,0.));
#620=CARTESIAN_POINT('',(0.0537956016496335,0.,0.));
#621=CARTESIAN_POINT('',(0.0537956016496335,0.,-4.40095747463095));
#622=CARTESIAN_POINT('',(0.0537956016496335,0.,0.));
#623=CARTESIAN_POINT('',(0.0896473410311694,0.,0.));
#624=CARTESIAN_POINT('',(0.0896473410311694,0.,-5.4785723934708));
#625=CARTESIAN_POINT('',(0.250343557560534,0.,0.));
#626=CARTESIAN_POINT('',(0.250343557560534,0.,-9.62451882229985));
#627=CARTESIAN_POINT('',(0.250343557560534,-9.42285627807932,1.95988319128088));
#628=CARTESIAN_POINT('',(5.,0.,0.));
#629=CARTESIAN_POINT('',(6.24592105602427,0.,0.));
#630=CARTESIAN_POINT('',(6.24592105602427,0.,-9.39537901438319));
#631=CARTESIAN_POINT('',(6.05749241108962,-4.31572465828534,1.42310202798128));
#632=CARTESIAN_POINT('',(5.,0.,0.));
#633=CARTESIAN_POINT('',(5.86863260592565,0.,0.));
#634=CARTESIAN_POINT('',(5.86863260592565,0.,-9.80075151104826));
#635=CARTESIAN_POINT('',(6.24592105602427,-9.19379117816278,1.9358074791281));
#636=CARTESIAN_POINT('',(6.24789413541389,-9.244870527138,1.94117613504001));
#637=CARTESIAN_POINT('',(6.23170606666469,-9.34935393607299,1.95215778383407));
#638=CARTESIAN_POINT('',(6.15001497221396,-9.48179844581035,1.96607826274515));
#639=CARTESIAN_POINT('',(6.02350067938879,-9.5729635969996,1.97566010624378));
#640=CARTESIAN_POINT('',(5.91999331423495,-9.59703140251544,1.97818973453704));
#641=CARTESIAN_POINT('',(5.86863260592565,-9.59899367316971,1.97839597749354));
#642=CARTESIAN_POINT('',(5.,0.,0.));
#643=CARTESIAN_POINT('',(0.657778021189799,0.,0.));
#644=CARTESIAN_POINT('',(0.657778021189799,0.,-9.99998066694145));
#645=CARTESIAN_POINT('',(5.86863260592565,-9.59899367316971,1.97839597749354));
#646=CARTESIAN_POINT('',(5.,0.,0.));
#647=CARTESIAN_POINT('',(0.657778021189801,-9.79807790257195,1.99932057317832));
#648=CARTESIAN_POINT('',(0.606417312880498,-9.80004017322622,1.99952681613482));
#649=CARTESIAN_POINT('',(0.501358380119352,-9.78394078441142,1.9978347021852));
#650=CARTESIAN_POINT('',(0.368184328995702,-9.70269720232357,1.98929565761961));
#651=CARTESIAN_POINT('',(0.276517014667253,-9.57687596803191,1.9760713130092));
#652=CARTESIAN_POINT('',(0.252316636950151,-9.47393562705454,1.96525184719279));
#653=CARTESIAN_POINT('',(0.250343557560535,-9.42285627807932,1.95988319128088));
#654=CARTESIAN_POINT('',(5.,0.,0.));
#655=CARTESIAN_POINT('',(0.0491822436596368,-6.11218974738703E-15,-4.4703972590495));
#656=CARTESIAN_POINT('',(0.0491822436596369,8.940794518099,-4.47039725904951));
#657=CARTESIAN_POINT('',(0.0491822436596369,8.94079451809901,4.47039725904949));
#658=CARTESIAN_POINT('',(0.0491822436596368,5.57008866114428E-15,4.4703972590495));
#659=CARTESIAN_POINT('',(0.0491822436596366,-8.940794518099,4.47039725904951));
#660=CARTESIAN_POINT('',(0.0491822436596366,-8.94079451809901,-4.47039725904949));
#661=CARTESIAN_POINT('',(0.0491822436596368,-6.11218974738703E-15,-4.4703972590495));
#662=CARTESIAN_POINT('',(0.0496724801128472,-2.99510850149121E-15,-4.47042982866856));
#663=CARTESIAN_POINT('',(0.0501627165660576,-4.24054729997937,1.41520056922723));
#664=CARTESIAN_POINT('',(0.0481896371764417,-4.18946795100415,1.40983191331532));
#665=CARTESIAN_POINT('',(0.0643777059256387,-4.08498454206916,1.39885026452126));
#666=CARTESIAN_POINT('',(0.146068800376371,-3.9525400323318,1.38492978561018));
#667=CARTESIAN_POINT('',(0.272583093201538,-3.86137488114255,1.37534794211155));
#668=CARTESIAN_POINT('',(0.376090458355374,-3.83730707562671,1.37281831381829));
#669=CARTESIAN_POINT('',(0.427451166664677,-3.83534480497244,1.37261207086178));
#670=CARTESIAN_POINT('',(5.,0.,0.));
#671=CARTESIAN_POINT('',(0.00066235739746949,0.,0.));
#672=CARTESIAN_POINT('',(0.00066235739746949,0.,-5.2007420945892));
#673=CARTESIAN_POINT('',(0.000662357397469061,5.19978060445169,0.100000000000006));
#674=CARTESIAN_POINT('',(5.,0.,0.));
#675=CARTESIAN_POINT('',(0.366427470506959,5.61759072730978,0.100000000000006));
#676=CARTESIAN_POINT('',(0.315141878575233,5.61418434205214,0.100000000000006));
#677=CARTESIAN_POINT('',(0.212350583589874,5.58710330444328,0.100000000000006));
#678=CARTESIAN_POINT('',(0.0884451184180994,5.49193924344434,0.100000000000006));
#679=CARTESIAN_POINT('',(0.0105043118392567,5.35653616565406,0.100000000000006));
#680=CARTESIAN_POINT('',(-0.00274402786016825,5.25106619638342,0.100000000000006));
#681=CARTESIAN_POINT('',(0.000662357397468227,5.19978060445169,0.100000000000006));
#682=CARTESIAN_POINT('',(5.,0.,0.));
#683=(
GEOMETRIC_REPRESENTATION_CONTEXT(3)
GLOBAL_UNCERTAINTY_ASSIGNED_CONTEXT((#684))
GLOBAL_UNIT_ASSIGNED_CONTEXT((#690,#686,#685))
REPRESENTATION_CONTEXT('ATUM-20XD5-SP-060204-light',
'TOP_LEVEL_ASSEMBLY_PART')
);
#684=UNCERTAINTY_MEASURE_WITH_UNIT(LENGTH_MEASURE(0.0508),#690,
'DISTANCE_ACCURACY_VALUE','Maximum Tolerance applied to model');
#685=(
NAMED_UNIT(*)
SI_UNIT($,.STERADIAN.)
SOLID_ANGLE_UNIT()
);
#686=(
CONVERSION_BASED_UNIT('DEGREE',#688)
NAMED_UNIT(#687)
PLANE_ANGLE_UNIT()
);
#687=DIMENSIONAL_EXPONENTS(0.,0.,0.,0.,0.,0.,0.);
#688=PLANE_ANGLE_MEASURE_WITH_UNIT(PLANE_ANGLE_MEASURE(0.0174532925),#689);
#689=(
NAMED_UNIT(*)
PLANE_ANGLE_UNIT()
SI_UNIT($,.RADIAN.)
);
#690=(
LENGTH_UNIT()
NAMED_UNIT(*)
SI_UNIT(.MILLI.,.METRE.)
);
ENDSEC;
END-ISO-10303-21;
