ISO-10303-21;
HEADER;
/* Generated by software containing ST-Developer
 * from STEP Tools, Inc. (www.steptools.com) 
 */
/* OPTION: using custom schema-name function */

FILE_DESCRIPTION(
/* description */ (''),
/* implementation_level */ '2;1');

FILE_NAME(
/* name */ 'ATUM-21.5XD2-SP-060204-light.stp',
/* time_stamp */ '2023-10-12T22:00:09+03:00',
/* author */ (''),
/* organization */ (''),
/* preprocessor_version */ 'ST-DEVELOPER v19.4',
/* originating_system */ 'SIEMENS PLM Software NX2306.3001',
/* authorisation */ '');

FILE_SCHEMA (('AUTOMOTIVE_DESIGN { 1 0 10303 214 3 1 1 1 }'));
ENDSEC;

DATA;
#10=SHAPE_REPRESENTATION_RELATIONSHIP('None',
'relationship between STP_ATUM 15.5XD2 SP.. 060204-None and STP_ATUM 1
5.5XD2 SP.. 060204-None',#22,#11);
#11=ADVANCED_BREP_SHAPE_REPRESENTATION(
'STP_ATUM 15.5XD2 SP.. 060204-None',(#64,#65),#657);
#12=SHAPE_DEFINITION_REPRESENTATION(#13,#22);
#13=PRODUCT_DEFINITION_SHAPE('','',#14);
#14=PRODUCT_DEFINITION(' ','',#16,#15);
#15=PRODUCT_DEFINITION_CONTEXT('part definition',#21,'design');
#16=PRODUCT_DEFINITION_FORMATION_WITH_SPECIFIED_SOURCE(' ',' ',#18,
 .NOT_KNOWN.);
#17=PRODUCT_RELATED_PRODUCT_CATEGORY('part','',(#18));
#18=PRODUCT('STP_ATUM 15.5XD2 SP.. 060204',
'STP_ATUM 15.5XD2 SP.. 060204',' ',(#19));
#19=PRODUCT_CONTEXT(' ',#21,'mechanical');
#20=APPLICATION_PROTOCOL_DEFINITION('international standard',
'automotive_design',2010,#21);
#21=APPLICATION_CONTEXT(
'core data for automotive mechanical design processes');
#22=SHAPE_REPRESENTATION('STP_ATUM 15.5XD2 SP.. 060204-None',(#373),#657);
#23=DRAUGHTING_PRE_DEFINED_COLOUR('yellow');
#24=B_SPLINE_CURVE_WITH_KNOTS('',3,(#615,#616,#617,#618,#619,#620,#621),
 .UNSPECIFIED.,.F.,.F.,(4,1,1,1,4),(0.,0.25,0.5,0.75,1.),.UNSPECIFIED.);
#25=B_SPLINE_CURVE_WITH_KNOTS('',3,(#629,#630,#631,#632,#633,#634,#635),
 .UNSPECIFIED.,.F.,.F.,(4,1,1,1,4),(0.,0.25,0.5,0.75,1.),.UNSPECIFIED.);
#26=B_SPLINE_CURVE_WITH_KNOTS('',3,(#641,#642,#643,#644,#645,#646,#647),
 .UNSPECIFIED.,.F.,.F.,(4,1,1,1,4),(0.,0.25,0.5,0.75,1.),.UNSPECIFIED.);
#27=B_SPLINE_CURVE_WITH_KNOTS('',3,(#649,#650,#651,#652,#653,#654,#655),
 .UNSPECIFIED.,.F.,.F.,(4,1,1,1,4),(0.,0.25,0.5,0.75,1.),.UNSPECIFIED.);
#28=SURFACE_OF_REVOLUTION('',#42,#35);
#29=SURFACE_OF_REVOLUTION('',#24,#36);
#30=SURFACE_OF_REVOLUTION('',#43,#37);
#31=SURFACE_OF_REVOLUTION('',#25,#38);
#32=SURFACE_OF_REVOLUTION('',#44,#39);
#33=SURFACE_OF_REVOLUTION('',#26,#40);
#34=SURFACE_OF_REVOLUTION('',#27,#41);
#35=AXIS1_PLACEMENT('',#612,#522);
#36=AXIS1_PLACEMENT('',#622,#525);
#37=AXIS1_PLACEMENT('',#626,#529);
#38=AXIS1_PLACEMENT('',#636,#532);
#39=AXIS1_PLACEMENT('',#640,#536);
#40=AXIS1_PLACEMENT('',#648,#537);
#41=AXIS1_PLACEMENT('',#656,#538);
#42=LINE('',#611,#45);
#43=LINE('',#625,#46);
#44=LINE('',#639,#47);
#45=VECTOR('',#521,5.08559086097453);
#46=VECTOR('',#528,5.21469825324187);
#47=VECTOR('',#535,5.21469825324187);
#48=PRESENTATION_LAYER_ASSIGNMENT('1','Layer 1',(#64,#65));
#49=STYLED_ITEM('',(#51),#64);
#50=STYLED_ITEM('',(#52),#65);
#51=PRESENTATION_STYLE_ASSIGNMENT((#53));
#52=PRESENTATION_STYLE_ASSIGNMENT((#54));
#53=SURFACE_STYLE_USAGE(.BOTH.,#55);
#54=SURFACE_STYLE_USAGE(.BOTH.,#56);
#55=SURFACE_SIDE_STYLE('',(#57));
#56=SURFACE_SIDE_STYLE('',(#58));
#57=SURFACE_STYLE_FILL_AREA(#59);
#58=SURFACE_STYLE_FILL_AREA(#60);
#59=FILL_AREA_STYLE('',(#61));
#60=FILL_AREA_STYLE('',(#62));
#61=FILL_AREA_STYLE_COLOUR('',#63);
#62=FILL_AREA_STYLE_COLOUR('',#23);
#63=COLOUR_RGB('smoke gray',0.694117647058824,0.694117647058824,0.694117647058824);
#64=MANIFOLD_SOLID_BREP('',#66);
#65=MANIFOLD_SOLID_BREP('',#67);
#66=CLOSED_SHELL('',(#87,#88,#89,#90,#91,#92,#93,#94,#95,#96,#97,#98,#99,
#100,#101,#102,#103,#104,#105,#106,#107));
#67=CLOSED_SHELL('',(#108,#109,#110,#111,#112,#113,#114,#115,#116));
#68=FACE_OUTER_BOUND('',#201,.T.);
#69=FACE_OUTER_BOUND('',#216,.T.);
#70=FACE_OUTER_BOUND('',#217,.T.);
#71=FACE_OUTER_BOUND('',#218,.T.);
#72=PLANE('',#396);
#73=PLANE('',#399);
#74=PLANE('',#414);
#75=PLANE('',#416);
#76=PLANE('',#418);
#77=CONICAL_SURFACE('',#382,12.3103073792139,20.0000000000003);
#78=CONICAL_SURFACE('',#386,12.5,15.0000000000006);
#79=CONICAL_SURFACE('',#394,12.7056692403838,82.0000000000003);
#80=CONICAL_SURFACE('',#405,16.6147266113736,29.3577535427912);
#81=CONICAL_SURFACE('',#411,10.25,3.00000000000006);
#82=CYLINDRICAL_SURFACE('',#378,12.2499999999998);
#83=CYLINDRICAL_SURFACE('',#384,12.5);
#84=CYLINDRICAL_SURFACE('',#390,12.2499999999998);
#85=CYLINDRICAL_SURFACE('',#401,17.);
#86=CYLINDRICAL_SURFACE('',#409,10.25);
#87=ADVANCED_FACE('',(#125,#126),#117,.T.);
#88=ADVANCED_FACE('',(#127,#128),#82,.T.);
#89=ADVANCED_FACE('',(#129,#130),#118,.F.);
#90=ADVANCED_FACE('',(#131,#132),#77,.T.);
#91=ADVANCED_FACE('',(#133,#134),#83,.T.);
#92=ADVANCED_FACE('',(#135,#136),#78,.T.);
#93=ADVANCED_FACE('',(#137,#138),#119,.F.);
#94=ADVANCED_FACE('',(#139,#140),#84,.T.);
#95=ADVANCED_FACE('',(#141,#142),#120,.F.);
#96=ADVANCED_FACE('',(#143,#144),#79,.F.);
#97=ADVANCED_FACE('',(#145,#146),#72,.F.);
#98=ADVANCED_FACE('',(#147,#148),#121,.T.);
#99=ADVANCED_FACE('',(#68),#73,.F.);
#100=ADVANCED_FACE('',(#149,#150),#85,.T.);
#101=ADVANCED_FACE('',(#151,#152),#122,.T.);
#102=ADVANCED_FACE('',(#153,#154),#80,.T.);
#103=ADVANCED_FACE('',(#155,#156),#123,.F.);
#104=ADVANCED_FACE('',(#157,#158),#86,.T.);
#105=ADVANCED_FACE('',(#159,#160),#81,.T.);
#106=ADVANCED_FACE('',(#161,#162),#124,.T.);
#107=ADVANCED_FACE('',(#69),#74,.F.);
#108=ADVANCED_FACE('',(#70),#75,.T.);
#109=ADVANCED_FACE('',(#71),#76,.F.);
#110=ADVANCED_FACE('',(#163,#164),#28,.F.);
#111=ADVANCED_FACE('',(#165,#166),#29,.F.);
#112=ADVANCED_FACE('',(#167,#168),#30,.F.);
#113=ADVANCED_FACE('',(#169,#170),#31,.F.);
#114=ADVANCED_FACE('',(#171,#172),#32,.F.);
#115=ADVANCED_FACE('',(#173,#174),#33,.F.);
#116=ADVANCED_FACE('',(#175,#176),#34,.F.);
#117=TOROIDAL_SURFACE('',#376,11.2499999999998,1.00000000000001);
#118=TOROIDAL_SURFACE('',#380,13.2499999999998,0.999999999999997);
#119=TOROIDAL_SURFACE('',#388,12.6499999999998,0.4);
#120=TOROIDAL_SURFACE('',#392,12.6499999999998,0.399999999999986);
#121=TOROIDAL_SURFACE('',#398,16.3,0.800000000000011);
#122=TOROIDAL_SURFACE('',#403,14.,3.);
#123=TOROIDAL_SURFACE('',#407,15.25,5.);
#124=TOROIDAL_SURFACE('',#413,9.07987460471068,0.999999999999999);
#125=FACE_BOUND('',#177,.T.);
#126=FACE_BOUND('',#178,.T.);
#127=FACE_BOUND('',#179,.T.);
#128=FACE_BOUND('',#180,.T.);
#129=FACE_BOUND('',#181,.T.);
#130=FACE_BOUND('',#182,.T.);
#131=FACE_BOUND('',#183,.T.);
#132=FACE_BOUND('',#184,.T.);
#133=FACE_BOUND('',#185,.T.);
#134=FACE_BOUND('',#186,.T.);
#135=FACE_BOUND('',#187,.T.);
#136=FACE_BOUND('',#188,.T.);
#137=FACE_BOUND('',#189,.T.);
#138=FACE_BOUND('',#190,.T.);
#139=FACE_BOUND('',#191,.T.);
#140=FACE_BOUND('',#192,.T.);
#141=FACE_BOUND('',#193,.T.);
#142=FACE_BOUND('',#194,.T.);
#143=FACE_BOUND('',#195,.T.);
#144=FACE_BOUND('',#196,.T.);
#145=FACE_BOUND('',#197,.T.);
#146=FACE_BOUND('',#198,.T.);
#147=FACE_BOUND('',#199,.T.);
#148=FACE_BOUND('',#200,.T.);
#149=FACE_BOUND('',#202,.T.);
#150=FACE_BOUND('',#203,.T.);
#151=FACE_BOUND('',#204,.T.);
#152=FACE_BOUND('',#205,.T.);
#153=FACE_BOUND('',#206,.T.);
#154=FACE_BOUND('',#207,.T.);
#155=FACE_BOUND('',#208,.T.);
#156=FACE_BOUND('',#209,.T.);
#157=FACE_BOUND('',#210,.T.);
#158=FACE_BOUND('',#211,.T.);
#159=FACE_BOUND('',#212,.T.);
#160=FACE_BOUND('',#213,.T.);
#161=FACE_BOUND('',#214,.T.);
#162=FACE_BOUND('',#215,.T.);
#163=FACE_BOUND('',#219,.T.);
#164=FACE_BOUND('',#220,.T.);
#165=FACE_BOUND('',#221,.T.);
#166=FACE_BOUND('',#222,.T.);
#167=FACE_BOUND('',#223,.T.);
#168=FACE_BOUND('',#224,.T.);
#169=FACE_BOUND('',#225,.T.);
#170=FACE_BOUND('',#226,.T.);
#171=FACE_BOUND('',#227,.T.);
#172=FACE_BOUND('',#228,.T.);
#173=FACE_BOUND('',#229,.T.);
#174=FACE_BOUND('',#230,.T.);
#175=FACE_BOUND('',#231,.T.);
#176=FACE_BOUND('',#232,.T.);
#177=EDGE_LOOP('',(#233));
#178=EDGE_LOOP('',(#234));
#179=EDGE_LOOP('',(#235));
#180=EDGE_LOOP('',(#236));
#181=EDGE_LOOP('',(#237));
#182=EDGE_LOOP('',(#238));
#183=EDGE_LOOP('',(#239));
#184=EDGE_LOOP('',(#240));
#185=EDGE_LOOP('',(#241));
#186=EDGE_LOOP('',(#242));
#187=EDGE_LOOP('',(#243));
#188=EDGE_LOOP('',(#244));
#189=EDGE_LOOP('',(#245));
#190=EDGE_LOOP('',(#246));
#191=EDGE_LOOP('',(#247));
#192=EDGE_LOOP('',(#248));
#193=EDGE_LOOP('',(#249));
#194=EDGE_LOOP('',(#250));
#195=EDGE_LOOP('',(#251));
#196=EDGE_LOOP('',(#252));
#197=EDGE_LOOP('',(#253));
#198=EDGE_LOOP('',(#254));
#199=EDGE_LOOP('',(#255));
#200=EDGE_LOOP('',(#256));
#201=EDGE_LOOP('',(#257));
#202=EDGE_LOOP('',(#258));
#203=EDGE_LOOP('',(#259));
#204=EDGE_LOOP('',(#260));
#205=EDGE_LOOP('',(#261));
#206=EDGE_LOOP('',(#262));
#207=EDGE_LOOP('',(#263));
#208=EDGE_LOOP('',(#264));
#209=EDGE_LOOP('',(#265));
#210=EDGE_LOOP('',(#266));
#211=EDGE_LOOP('',(#267));
#212=EDGE_LOOP('',(#268));
#213=EDGE_LOOP('',(#269));
#214=EDGE_LOOP('',(#270));
#215=EDGE_LOOP('',(#271));
#216=EDGE_LOOP('',(#272));
#217=EDGE_LOOP('',(#273));
#218=EDGE_LOOP('',(#274));
#219=EDGE_LOOP('',(#275));
#220=EDGE_LOOP('',(#276));
#221=EDGE_LOOP('',(#277));
#222=EDGE_LOOP('',(#278));
#223=EDGE_LOOP('',(#279));
#224=EDGE_LOOP('',(#280));
#225=EDGE_LOOP('',(#281));
#226=EDGE_LOOP('',(#282));
#227=EDGE_LOOP('',(#283));
#228=EDGE_LOOP('',(#284));
#229=EDGE_LOOP('',(#285));
#230=EDGE_LOOP('',(#286));
#231=EDGE_LOOP('',(#287));
#232=EDGE_LOOP('',(#288));
#233=ORIENTED_EDGE('',*,*,#317,.T.);
#234=ORIENTED_EDGE('',*,*,#318,.T.);
#235=ORIENTED_EDGE('',*,*,#319,.T.);
#236=ORIENTED_EDGE('',*,*,#317,.F.);
#237=ORIENTED_EDGE('',*,*,#320,.T.);
#238=ORIENTED_EDGE('',*,*,#319,.F.);
#239=ORIENTED_EDGE('',*,*,#321,.T.);
#240=ORIENTED_EDGE('',*,*,#320,.F.);
#241=ORIENTED_EDGE('',*,*,#322,.T.);
#242=ORIENTED_EDGE('',*,*,#321,.F.);
#243=ORIENTED_EDGE('',*,*,#323,.T.);
#244=ORIENTED_EDGE('',*,*,#322,.F.);
#245=ORIENTED_EDGE('',*,*,#324,.T.);
#246=ORIENTED_EDGE('',*,*,#323,.F.);
#247=ORIENTED_EDGE('',*,*,#325,.T.);
#248=ORIENTED_EDGE('',*,*,#324,.F.);
#249=ORIENTED_EDGE('',*,*,#326,.T.);
#250=ORIENTED_EDGE('',*,*,#325,.F.);
#251=ORIENTED_EDGE('',*,*,#327,.T.);
#252=ORIENTED_EDGE('',*,*,#326,.F.);
#253=ORIENTED_EDGE('',*,*,#328,.T.);
#254=ORIENTED_EDGE('',*,*,#327,.F.);
#255=ORIENTED_EDGE('',*,*,#329,.T.);
#256=ORIENTED_EDGE('',*,*,#328,.F.);
#257=ORIENTED_EDGE('',*,*,#318,.F.);
#258=ORIENTED_EDGE('',*,*,#330,.T.);
#259=ORIENTED_EDGE('',*,*,#329,.F.);
#260=ORIENTED_EDGE('',*,*,#331,.T.);
#261=ORIENTED_EDGE('',*,*,#330,.F.);
#262=ORIENTED_EDGE('',*,*,#332,.T.);
#263=ORIENTED_EDGE('',*,*,#331,.F.);
#264=ORIENTED_EDGE('',*,*,#333,.T.);
#265=ORIENTED_EDGE('',*,*,#332,.F.);
#266=ORIENTED_EDGE('',*,*,#334,.T.);
#267=ORIENTED_EDGE('',*,*,#333,.F.);
#268=ORIENTED_EDGE('',*,*,#335,.T.);
#269=ORIENTED_EDGE('',*,*,#334,.F.);
#270=ORIENTED_EDGE('',*,*,#336,.T.);
#271=ORIENTED_EDGE('',*,*,#335,.F.);
#272=ORIENTED_EDGE('',*,*,#336,.F.);
#273=ORIENTED_EDGE('',*,*,#337,.T.);
#274=ORIENTED_EDGE('',*,*,#338,.F.);
#275=ORIENTED_EDGE('',*,*,#339,.F.);
#276=ORIENTED_EDGE('',*,*,#340,.F.);
#277=ORIENTED_EDGE('',*,*,#337,.F.);
#278=ORIENTED_EDGE('',*,*,#341,.T.);
#279=ORIENTED_EDGE('',*,*,#342,.T.);
#280=ORIENTED_EDGE('',*,*,#341,.F.);
#281=ORIENTED_EDGE('',*,*,#343,.T.);
#282=ORIENTED_EDGE('',*,*,#342,.F.);
#283=ORIENTED_EDGE('',*,*,#344,.T.);
#284=ORIENTED_EDGE('',*,*,#343,.F.);
#285=ORIENTED_EDGE('',*,*,#340,.T.);
#286=ORIENTED_EDGE('',*,*,#344,.F.);
#287=ORIENTED_EDGE('',*,*,#339,.T.);
#288=ORIENTED_EDGE('',*,*,#338,.T.);
#289=VERTEX_POINT('',#541);
#290=VERTEX_POINT('',#543);
#291=VERTEX_POINT('',#546);
#292=VERTEX_POINT('',#549);
#293=VERTEX_POINT('',#552);
#294=VERTEX_POINT('',#555);
#295=VERTEX_POINT('',#558);
#296=VERTEX_POINT('',#561);
#297=VERTEX_POINT('',#564);
#298=VERTEX_POINT('',#567);
#299=VERTEX_POINT('',#570);
#300=VERTEX_POINT('',#573);
#301=VERTEX_POINT('',#576);
#302=VERTEX_POINT('',#580);
#303=VERTEX_POINT('',#583);
#304=VERTEX_POINT('',#586);
#305=VERTEX_POINT('',#589);
#306=VERTEX_POINT('',#592);
#307=VERTEX_POINT('',#595);
#308=VERTEX_POINT('',#598);
#309=VERTEX_POINT('',#602);
#310=VERTEX_POINT('',#605);
#311=VERTEX_POINT('',#608);
#312=VERTEX_POINT('',#610);
#313=VERTEX_POINT('',#614);
#314=VERTEX_POINT('',#624);
#315=VERTEX_POINT('',#628);
#316=VERTEX_POINT('',#638);
#317=EDGE_CURVE('',#289,#289,#345,.T.);
#318=EDGE_CURVE('',#290,#290,#346,.T.);
#319=EDGE_CURVE('',#291,#291,#347,.T.);
#320=EDGE_CURVE('',#292,#292,#348,.T.);
#321=EDGE_CURVE('',#293,#293,#349,.T.);
#322=EDGE_CURVE('',#294,#294,#350,.T.);
#323=EDGE_CURVE('',#295,#295,#351,.T.);
#324=EDGE_CURVE('',#296,#296,#352,.T.);
#325=EDGE_CURVE('',#297,#297,#353,.T.);
#326=EDGE_CURVE('',#298,#298,#354,.T.);
#327=EDGE_CURVE('',#299,#299,#355,.T.);
#328=EDGE_CURVE('',#300,#300,#356,.T.);
#329=EDGE_CURVE('',#301,#301,#357,.T.);
#330=EDGE_CURVE('',#302,#302,#358,.T.);
#331=EDGE_CURVE('',#303,#303,#359,.T.);
#332=EDGE_CURVE('',#304,#304,#360,.T.);
#333=EDGE_CURVE('',#305,#305,#361,.T.);
#334=EDGE_CURVE('',#306,#306,#362,.T.);
#335=EDGE_CURVE('',#307,#307,#363,.T.);
#336=EDGE_CURVE('',#308,#308,#364,.T.);
#337=EDGE_CURVE('',#309,#309,#365,.T.);
#338=EDGE_CURVE('',#310,#310,#366,.T.);
#339=EDGE_CURVE('',#311,#311,#367,.T.);
#340=EDGE_CURVE('',#312,#312,#368,.T.);
#341=EDGE_CURVE('',#313,#313,#369,.T.);
#342=EDGE_CURVE('',#314,#314,#370,.T.);
#343=EDGE_CURVE('',#315,#315,#371,.T.);
#344=EDGE_CURVE('',#316,#316,#372,.T.);
#345=CIRCLE('',#374,12.2499999999998);
#346=CIRCLE('',#375,11.2499999999998);
#347=CIRCLE('',#377,12.2499999999998);
#348=CIRCLE('',#379,12.3103073792139);
#349=CIRCLE('',#381,12.5);
#350=CIRCLE('',#383,12.5);
#351=CIRCLE('',#385,12.2636296694842);
#352=CIRCLE('',#387,12.2499999999998);
#353=CIRCLE('',#389,12.2499999999998);
#354=CIRCLE('',#391,12.7056692403838);
#355=CIRCLE('',#393,13.5);
#356=CIRCLE('',#395,16.3);
#357=CIRCLE('',#397,17.);
#358=CIRCLE('',#400,17.);
#359=CIRCLE('',#402,16.6147266113736);
#360=CIRCLE('',#404,10.8921223143772);
#361=CIRCLE('',#406,10.25);
#362=CIRCLE('',#408,10.25);
#363=CIRCLE('',#410,10.0785041394653);
#364=CIRCLE('',#412,9.278872092132);
#365=CIRCLE('',#415,4.87933991694056);
#366=CIRCLE('',#417,5.10347554145334);
#367=CIRCLE('',#419,5.33338104983127);
#368=CIRCLE('',#420,10.3742182997281);
#369=CIRCLE('',#421,4.98009760950512);
#370=CIRCLE('',#422,10.1448647879056);
#371=CIRCLE('',#423,10.5506063080591);
#372=CIRCLE('',#424,10.750002287926);
#373=AXIS2_PLACEMENT_3D('',#539,#425,#426);
#374=AXIS2_PLACEMENT_3D('',#540,#427,#428);
#375=AXIS2_PLACEMENT_3D('',#542,#429,#430);
#376=AXIS2_PLACEMENT_3D('',#544,#431,#432);
#377=AXIS2_PLACEMENT_3D('',#545,#433,#434);
#378=AXIS2_PLACEMENT_3D('',#547,#435,#436);
#379=AXIS2_PLACEMENT_3D('',#548,#437,#438);
#380=AXIS2_PLACEMENT_3D('',#550,#439,#440);
#381=AXIS2_PLACEMENT_3D('',#551,#441,#442);
#382=AXIS2_PLACEMENT_3D('',#553,#443,#444);
#383=AXIS2_PLACEMENT_3D('',#554,#445,#446);
#384=AXIS2_PLACEMENT_3D('',#556,#447,#448);
#385=AXIS2_PLACEMENT_3D('',#557,#449,#450);
#386=AXIS2_PLACEMENT_3D('',#559,#451,#452);
#387=AXIS2_PLACEMENT_3D('',#560,#453,#454);
#388=AXIS2_PLACEMENT_3D('',#562,#455,#456);
#389=AXIS2_PLACEMENT_3D('',#563,#457,#458);
#390=AXIS2_PLACEMENT_3D('',#565,#459,#460);
#391=AXIS2_PLACEMENT_3D('',#566,#461,#462);
#392=AXIS2_PLACEMENT_3D('',#568,#463,#464);
#393=AXIS2_PLACEMENT_3D('',#569,#465,#466);
#394=AXIS2_PLACEMENT_3D('',#571,#467,#468);
#395=AXIS2_PLACEMENT_3D('',#572,#469,#470);
#396=AXIS2_PLACEMENT_3D('',#574,#471,#472);
#397=AXIS2_PLACEMENT_3D('',#575,#473,#474);
#398=AXIS2_PLACEMENT_3D('',#577,#475,#476);
#399=AXIS2_PLACEMENT_3D('',#578,#477,#478);
#400=AXIS2_PLACEMENT_3D('',#579,#479,#480);
#401=AXIS2_PLACEMENT_3D('',#581,#481,#482);
#402=AXIS2_PLACEMENT_3D('',#582,#483,#484);
#403=AXIS2_PLACEMENT_3D('',#584,#485,#486);
#404=AXIS2_PLACEMENT_3D('',#585,#487,#488);
#405=AXIS2_PLACEMENT_3D('',#587,#489,#490);
#406=AXIS2_PLACEMENT_3D('',#588,#491,#492);
#407=AXIS2_PLACEMENT_3D('',#590,#493,#494);
#408=AXIS2_PLACEMENT_3D('',#591,#495,#496);
#409=AXIS2_PLACEMENT_3D('',#593,#497,#498);
#410=AXIS2_PLACEMENT_3D('',#594,#499,#500);
#411=AXIS2_PLACEMENT_3D('',#596,#501,#502);
#412=AXIS2_PLACEMENT_3D('',#597,#503,#504);
#413=AXIS2_PLACEMENT_3D('',#599,#505,#506);
#414=AXIS2_PLACEMENT_3D('',#600,#507,#508);
#415=AXIS2_PLACEMENT_3D('',#601,#509,#510);
#416=AXIS2_PLACEMENT_3D('',#603,#511,#512);
#417=AXIS2_PLACEMENT_3D('',#604,#513,#514);
#418=AXIS2_PLACEMENT_3D('',#606,#515,#516);
#419=AXIS2_PLACEMENT_3D('',#607,#517,#518);
#420=AXIS2_PLACEMENT_3D('',#609,#519,#520);
#421=AXIS2_PLACEMENT_3D('',#613,#523,#524);
#422=AXIS2_PLACEMENT_3D('',#623,#526,#527);
#423=AXIS2_PLACEMENT_3D('',#627,#530,#531);
#424=AXIS2_PLACEMENT_3D('',#637,#533,#534);
#425=DIRECTION('',(0.,0.,1.));
#426=DIRECTION('',(1.,0.,0.));
#427=DIRECTION('',(1.,0.,0.));
#428=DIRECTION('',(0.,0.,1.));
#429=DIRECTION('',(-1.,0.,0.));
#430=DIRECTION('',(0.,0.,1.));
#431=DIRECTION('',(-1.,0.,0.));
#432=DIRECTION('',(0.,0.,1.));
#433=DIRECTION('',(1.,0.,0.));
#434=DIRECTION('',(0.,0.,1.));
#435=DIRECTION('',(-1.,0.,0.));
#436=DIRECTION('',(0.,0.,1.));
#437=DIRECTION('',(1.,0.,0.));
#438=DIRECTION('',(0.,0.,1.));
#439=DIRECTION('',(-1.,0.,0.));
#440=DIRECTION('',(0.,0.,1.));
#441=DIRECTION('',(1.,0.,0.));
#442=DIRECTION('',(0.,0.,1.));
#443=DIRECTION('',(-1.,0.,0.));
#444=DIRECTION('',(7.37629841135491E-17,0.,1.));
#445=DIRECTION('',(1.,0.,0.));
#446=DIRECTION('',(0.,0.,1.));
#447=DIRECTION('',(-1.,0.,0.));
#448=DIRECTION('',(0.,0.,1.));
#449=DIRECTION('',(1.,0.,0.));
#450=DIRECTION('',(0.,0.,1.));
#451=DIRECTION('',(1.,0.,0.));
#452=DIRECTION('',(1.97936570079049E-16,0.,-1.));
#453=DIRECTION('',(1.,0.,0.));
#454=DIRECTION('',(0.,0.,1.));
#455=DIRECTION('',(-1.,0.,0.));
#456=DIRECTION('',(0.,0.,1.));
#457=DIRECTION('',(1.,0.,0.));
#458=DIRECTION('',(0.,0.,1.));
#459=DIRECTION('',(-1.,0.,0.));
#460=DIRECTION('',(0.,0.,1.));
#461=DIRECTION('',(1.,0.,0.));
#462=DIRECTION('',(0.,0.,1.));
#463=DIRECTION('',(-1.,0.,0.));
#464=DIRECTION('',(0.,0.,1.));
#465=DIRECTION('',(1.,0.,0.));
#466=DIRECTION('',(0.,0.,1.));
#467=DIRECTION('',(1.,0.,0.));
#468=DIRECTION('',(7.78767734366012E-18,0.,-1.));
#469=DIRECTION('',(1.,0.,0.));
#470=DIRECTION('',(0.,0.,1.));
#471=DIRECTION('',(-1.,0.,0.));
#472=DIRECTION('',(0.,0.,1.));
#473=DIRECTION('',(1.,0.,0.));
#474=DIRECTION('',(0.,0.,1.));
#475=DIRECTION('',(-1.,0.,0.));
#476=DIRECTION('',(0.,0.,1.));
#477=DIRECTION('',(-1.,0.,0.));
#478=DIRECTION('',(0.,0.,1.));
#479=DIRECTION('',(1.,0.,0.));
#480=DIRECTION('',(0.,0.,1.));
#481=DIRECTION('',(-1.,0.,0.));
#482=DIRECTION('',(0.,0.,1.));
#483=DIRECTION('',(1.,0.,0.));
#484=DIRECTION('',(0.,0.,1.));
#485=DIRECTION('',(-1.,0.,0.));
#486=DIRECTION('',(0.,0.,1.));
#487=DIRECTION('',(1.,0.,0.));
#488=DIRECTION('',(0.,0.,1.));
#489=DIRECTION('',(1.,0.,0.));
#490=DIRECTION('',(1.67746579720277E-16,0.,-1.));
#491=DIRECTION('',(1.,0.,0.));
#492=DIRECTION('',(0.,0.,1.));
#493=DIRECTION('',(-1.,0.,0.));
#494=DIRECTION('',(0.,0.,1.));
#495=DIRECTION('',(1.,0.,0.));
#496=DIRECTION('',(0.,0.,1.));
#497=DIRECTION('',(-1.,0.,0.));
#498=DIRECTION('',(0.,0.,1.));
#499=DIRECTION('',(1.,0.,0.));
#500=DIRECTION('',(0.,0.,1.));
#501=DIRECTION('',(1.,0.,0.));
#502=DIRECTION('',(-1.66114103866394E-15,0.,-1.));
#503=DIRECTION('',(1.,0.,0.));
#504=DIRECTION('',(0.,0.,-1.));
#505=DIRECTION('',(-1.,0.,0.));
#506=DIRECTION('',(0.,0.,1.));
#507=DIRECTION('',(1.,0.,0.));
#508=DIRECTION('',(0.,0.,-1.));
#509=DIRECTION('',(1.,0.,0.));
#510=DIRECTION('',(0.,0.,-1.));
#511=DIRECTION('',(1.,0.,0.));
#512=DIRECTION('',(0.,0.,-1.));
#513=DIRECTION('',(1.,0.,0.));
#514=DIRECTION('',(0.,0.,-1.));
#515=DIRECTION('',(1.,0.,0.));
#516=DIRECTION('',(0.,0.,-1.));
#517=DIRECTION('',(-1.,0.,0.));
#518=DIRECTION('',(0.,0.,-1.));
#519=DIRECTION('',(1.,0.,0.));
#520=DIRECTION('',(0.,0.,-1.));
#521=DIRECTION('',(-0.0383878090875219,0.993788849599919,-0.104451417052756));
#522=DIRECTION('',(1.,0.,0.));
#523=DIRECTION('',(1.,0.,0.));
#524=DIRECTION('',(0.,0.,-1.));
#525=DIRECTION('',(1.,0.,0.));
#526=DIRECTION('',(1.,0.,0.));
#527=DIRECTION('',(0.,0.,-1.));
#528=DIRECTION('',(0.038387809087521,-0.993788849599919,0.104451417052756));
#529=DIRECTION('',(1.,0.,0.));
#530=DIRECTION('',(1.,0.,0.));
#531=DIRECTION('',(0.,0.,-1.));
#532=DIRECTION('',(1.,0.,0.));
#533=DIRECTION('',(1.,0.,0.));
#534=DIRECTION('',(0.,0.,-1.));
#535=DIRECTION('',(-0.999262916410621,-0.0381775166527567,0.00401261869213069));
#536=DIRECTION('',(1.,0.,0.));
#537=DIRECTION('',(1.,0.,0.));
#538=DIRECTION('',(1.,0.,0.));
#539=CARTESIAN_POINT('',(0.,0.,0.));
#540=CARTESIAN_POINT('',(119.,0.,0.));
#541=CARTESIAN_POINT('',(119.,0.,12.2499999999998));
#542=CARTESIAN_POINT('',(120.,0.,0.));
#543=CARTESIAN_POINT('',(120.,0.,11.2499999999998));
#544=CARTESIAN_POINT('',(119.,0.,0.));
#545=CARTESIAN_POINT('',(117.176326980708,0.,0.));
#546=CARTESIAN_POINT('',(117.176326980708,0.,12.2499999999998));
#547=CARTESIAN_POINT('',(0.,0.,0.));
#548=CARTESIAN_POINT('',(116.834306837383,0.,0.));
#549=CARTESIAN_POINT('',(116.834306837383,0.,12.3103073792139));
#550=CARTESIAN_POINT('',(117.176326980708,0.,0.));
#551=CARTESIAN_POINT('',(116.313130645136,0.,0.));
#552=CARTESIAN_POINT('',(116.313130645136,0.,12.5));
#553=CARTESIAN_POINT('',(116.834306837383,0.,0.));
#554=CARTESIAN_POINT('',(66.,0.,0.));
#555=CARTESIAN_POINT('',(66.,0.,12.5));
#556=CARTESIAN_POINT('',(0.,0.,0.));
#557=CARTESIAN_POINT('',(65.1178539171131,0.,0.));
#558=CARTESIAN_POINT('',(65.1178539171131,0.,12.2636296694842));
#559=CARTESIAN_POINT('',(66.,0.,0.));
#560=CARTESIAN_POINT('',(65.014326299072,0.,0.));
#561=CARTESIAN_POINT('',(65.014326299072,0.,12.2499999999998));
#562=CARTESIAN_POINT('',(65.014326299072,0.,0.));
#563=CARTESIAN_POINT('',(64.2844713195104,0.,0.));
#564=CARTESIAN_POINT('',(64.2844713195104,0.,12.2499999999998));
#565=CARTESIAN_POINT('',(0.,0.,0.));
#566=CARTESIAN_POINT('',(63.8883640920138,0.,0.));
#567=CARTESIAN_POINT('',(63.8883640920138,0.,12.7056692403838));
#568=CARTESIAN_POINT('',(64.2844713195104,0.,0.));
#569=CARTESIAN_POINT('',(64.,0.,0.));
#570=CARTESIAN_POINT('',(64.,0.,13.5));
#571=CARTESIAN_POINT('',(63.8883640920138,0.,0.));
#572=CARTESIAN_POINT('',(64.,0.,0.));
#573=CARTESIAN_POINT('',(64.,0.,16.3));
#574=CARTESIAN_POINT('',(64.,13.5,0.));
#575=CARTESIAN_POINT('',(63.5872983346208,0.,0.));
#576=CARTESIAN_POINT('',(63.5872983346208,0.,17.));
#577=CARTESIAN_POINT('',(63.2,0.,0.));
#578=CARTESIAN_POINT('',(120.,17.5,0.));
#579=CARTESIAN_POINT('',(59.7858532502286,0.,0.));
#580=CARTESIAN_POINT('',(59.7858532502286,0.,17.));
#581=CARTESIAN_POINT('',(0.,0.,0.));
#582=CARTESIAN_POINT('',(58.3150695313309,0.,0.));
#583=CARTESIAN_POINT('',(58.3150695313309,0.,16.6147266113736));
#584=CARTESIAN_POINT('',(59.7858532502286,0.,0.));
#585=CARTESIAN_POINT('',(48.1415507811151,0.,0.));
#586=CARTESIAN_POINT('',(48.1415507811151,0.,10.8921223143772));
#587=CARTESIAN_POINT('',(58.3150695313309,0.,0.));
#588=CARTESIAN_POINT('',(45.6902445829523,0.,0.));
#589=CARTESIAN_POINT('',(45.6902445829523,0.,10.25));
#590=CARTESIAN_POINT('',(45.6902445829523,0.,0.));
#591=CARTESIAN_POINT('',(5.,0.,0.));
#592=CARTESIAN_POINT('',(5.,0.,10.25));
#593=CARTESIAN_POINT('',(0.,0.,0.));
#594=CARTESIAN_POINT('',(1.72766404375706,0.,0.));
#595=CARTESIAN_POINT('',(1.72766404375706,0.,10.0785041394653));
#596=CARTESIAN_POINT('',(5.,0.,0.));
#597=CARTESIAN_POINT('',(0.800000000000002,0.,0.));
#598=CARTESIAN_POINT('',(0.800000000000002,0.,-9.278872092132));
#599=CARTESIAN_POINT('',(1.78,0.,0.));
#600=CARTESIAN_POINT('',(0.800000000000002,0.,0.));
#601=CARTESIAN_POINT('',(6.02811043190169,0.,0.));
#602=CARTESIAN_POINT('',(6.02811043190169,0.,-4.87933991694056));
#603=CARTESIAN_POINT('',(6.02811043190169,0.,0.));
#604=CARTESIAN_POINT('',(2.35739747514452E-6,0.,0.));
#605=CARTESIAN_POINT('',(2.35739747514452E-6,0.,-5.10347554145334));
#606=CARTESIAN_POINT('',(2.35739747514452E-6,0.,0.));
#607=CARTESIAN_POINT('',(0.054958866492206,0.,0.));
#608=CARTESIAN_POINT('',(0.054958866492206,0.,-5.33338104983127));
#609=CARTESIAN_POINT('',(0.250183557560542,0.,0.));
#610=CARTESIAN_POINT('',(0.250183557560542,0.,-10.3742182997281));
#611=CARTESIAN_POINT('',(0.250183557560542,-10.1762719930965,2.01690199388412));
#612=CARTESIAN_POINT('',(5.,0.,0.));
#613=CARTESIAN_POINT('',(6.04558021502979,0.,0.));
#614=CARTESIAN_POINT('',(6.04558021502979,0.,-4.98009760950512));
#615=CARTESIAN_POINT('',(5.63814575140052,-4.38967629058739,1.40870627778025));
#616=CARTESIAN_POINT('',(5.68950645970982,-4.38771401993311,1.40850003482375));
#617=CARTESIAN_POINT('',(5.79456539247097,-4.40381340874792,1.41019214877338));
#618=CARTESIAN_POINT('',(5.92773944359462,-4.48505699083577,1.41873119333896));
#619=CARTESIAN_POINT('',(6.01940675792307,-4.61087822512743,1.43195553794937));
#620=CARTESIAN_POINT('',(6.04360713564017,-4.7138185661048,1.44277500376579));
#621=CARTESIAN_POINT('',(6.04558021502979,-4.76489791508002,1.4481436596777));
#622=CARTESIAN_POINT('',(5.,0.,0.));
#623=CARTESIAN_POINT('',(6.24576105602426,0.,0.));
#624=CARTESIAN_POINT('',(6.24576105602426,0.,-10.1448647879056));
#625=CARTESIAN_POINT('',(6.04558021502979,-4.76489791508002,1.4481436596777));
#626=CARTESIAN_POINT('',(5.,0.,0.));
#627=CARTESIAN_POINT('',(5.86847260592565,0.,0.));
#628=CARTESIAN_POINT('',(5.86847260592565,0.,-10.5506063080591));
#629=CARTESIAN_POINT('',(6.24576105602427,-9.94720689317998,1.99282628173134));
#630=CARTESIAN_POINT('',(6.24773413541388,-9.9982862421552,1.99819493764325));
#631=CARTESIAN_POINT('',(6.23154606666469,-10.1027696510902,2.00917658643731));
#632=CARTESIAN_POINT('',(6.14985497221396,-10.2352141608275,2.0230970653484));
#633=CARTESIAN_POINT('',(6.02334067938879,-10.3263793120168,2.03267890884702));
#634=CARTESIAN_POINT('',(5.91983331423495,-10.3504471175326,2.03520853714029));
#635=CARTESIAN_POINT('',(5.86847260592565,-10.3524093881869,2.03541478009679));
#636=CARTESIAN_POINT('',(5.,0.,0.));
#637=CARTESIAN_POINT('',(0.657618021189808,0.,0.));
#638=CARTESIAN_POINT('',(0.657618021189808,0.,-10.750002287926));
#639=CARTESIAN_POINT('',(5.86847260592565,-10.3524093881869,2.03541478009679));
#640=CARTESIAN_POINT('',(5.,0.,0.));
#641=CARTESIAN_POINT('',(0.657618021189809,-10.5514936175892,2.05633937578157));
#642=CARTESIAN_POINT('',(0.606257312880506,-10.5534558882434,2.05654561873807));
#643=CARTESIAN_POINT('',(0.501198380119359,-10.5373564994286,2.05485350478844));
#644=CARTESIAN_POINT('',(0.368024328995709,-10.4561129173408,2.04631446022286));
#645=CARTESIAN_POINT('',(0.27635701466726,-10.3302916830491,2.03309011561245));
#646=CARTESIAN_POINT('',(0.252156636950158,-10.2273513420717,2.02227064979603));
#647=CARTESIAN_POINT('',(0.250183557560542,-10.1762719930965,2.01690199388412));
#648=CARTESIAN_POINT('',(5.,0.,0.));
#649=CARTESIAN_POINT('',(0.365767470506965,5.52104072730978,0.0499999999999943));
#650=CARTESIAN_POINT('',(0.314481878575238,5.51763434205214,0.0499999999999943));
#651=CARTESIAN_POINT('',(0.21169058358988,5.49055330444328,0.0499999999999943));
#652=CARTESIAN_POINT('',(0.087785118418104,5.39538924344434,0.0499999999999943));
#653=CARTESIAN_POINT('',(0.0098443118392666,5.25998616565406,0.0499999999999943));
#654=CARTESIAN_POINT('',(-0.00340402786016192,5.15451619638342,0.0499999999999943));
#655=CARTESIAN_POINT('',(2.35739747456165E-6,5.10323060445169,0.0499999999999943));
#656=CARTESIAN_POINT('',(5.,0.,0.));
#657=(
GEOMETRIC_REPRESENTATION_CONTEXT(3)
GLOBAL_UNCERTAINTY_ASSIGNED_CONTEXT((#658))
GLOBAL_UNIT_ASSIGNED_CONTEXT((#664,#660,#659))
REPRESENTATION_CONTEXT('ATUM-21','TOP_LEVEL_ASSEMBLY_PART')
);
#658=UNCERTAINTY_MEASURE_WITH_UNIT(LENGTH_MEASURE(2.E-5),#664,
'DISTANCE_ACCURACY_VALUE','Maximum Tolerance applied to model');
#659=(
NAMED_UNIT(*)
SI_UNIT($,.STERADIAN.)
SOLID_ANGLE_UNIT()
);
#660=(
CONVERSION_BASED_UNIT('DEGREE',#662)
NAMED_UNIT(#661)
PLANE_ANGLE_UNIT()
);
#661=DIMENSIONAL_EXPONENTS(0.,0.,0.,0.,0.,0.,0.);
#662=PLANE_ANGLE_MEASURE_WITH_UNIT(PLANE_ANGLE_MEASURE(0.0174532925),#663);
#663=(
NAMED_UNIT(*)
PLANE_ANGLE_UNIT()
SI_UNIT($,.RADIAN.)
);
#664=(
LENGTH_UNIT()
NAMED_UNIT(*)
SI_UNIT(.MILLI.,.METRE.)
);
ENDSEC;
END-ISO-10303-21;
