ISO-10303-21;
HEADER;
/* Generated by software containing ST-Developer
 * from STEP Tools, Inc. (www.steptools.com) 
 */
/* OPTION: using custom schema-name function */

FILE_DESCRIPTION(
/* description */ (''),
/* implementation_level */ '2;1');

FILE_NAME(
/* name */ 'ATUM-21.5XD3-SPGT-060204 -light.stp',
/* time_stamp */ '2023-10-02T18:56:02+03:00',
/* author */ (''),
/* organization */ (''),
/* preprocessor_version */ 'ST-DEVELOPER v19.4',
/* originating_system */ 'SIEMENS PLM Software NX2306.3001',
/* authorisation */ '');

FILE_SCHEMA (('AUTOMOTIVE_DESIGN { 1 0 10303 214 3 1 1 1 }'));
ENDSEC;

DATA;
#10=SHAPE_REPRESENTATION_RELATIONSHIP('None',
'relationship between STEP-ATUM 16XD3 SPGT 060204-None and STEP-ATUM 1
6XD3 SPGT 060204-None',#22,#11);
#11=ADVANCED_BREP_SHAPE_REPRESENTATION(
'STEP-ATUM 16XD3 SPGT 060204-None',(#64,#65),#668);
#12=SHAPE_DEFINITION_REPRESENTATION(#13,#22);
#13=PRODUCT_DEFINITION_SHAPE('','',#14);
#14=PRODUCT_DEFINITION(' ','',#16,#15);
#15=PRODUCT_DEFINITION_CONTEXT('part definition',#21,'design');
#16=PRODUCT_DEFINITION_FORMATION_WITH_SPECIFIED_SOURCE(' ',' ',#18,
 .NOT_KNOWN.);
#17=PRODUCT_RELATED_PRODUCT_CATEGORY('part','',(#18));
#18=PRODUCT('STEP-ATUM 16XD3 SPGT 060204','STEP-ATUM 16XD3 SPGT 060204',
' ',(#19));
#19=PRODUCT_CONTEXT(' ',#21,'mechanical');
#20=APPLICATION_PROTOCOL_DEFINITION('international standard',
'automotive_design',2010,#21);
#21=APPLICATION_CONTEXT(
'core data for automotive mechanical design processes');
#22=SHAPE_REPRESENTATION('STEP-ATUM 16XD3 SPGT 060204-None',(#387),#668);
#23=DRAUGHTING_PRE_DEFINED_COLOUR('yellow');
#24=SURFACE_OF_REVOLUTION('',#40,#32);
#25=SURFACE_OF_REVOLUTION('',#379,#33);
#26=SURFACE_OF_REVOLUTION('',#381,#34);
#27=SURFACE_OF_REVOLUTION('',#41,#35);
#28=SURFACE_OF_REVOLUTION('',#384,#36);
#29=SURFACE_OF_REVOLUTION('',#42,#37);
#30=SURFACE_OF_REVOLUTION('',#386,#38);
#31=SURFACE_OF_REVOLUTION('',#43,#39);
#32=AXIS1_PLACEMENT('',#643,#541);
#33=AXIS1_PLACEMENT('',#647,#546);
#34=AXIS1_PLACEMENT('',#651,#551);
#35=AXIS1_PLACEMENT('',#655,#555);
#36=AXIS1_PLACEMENT('',#659,#560);
#37=AXIS1_PLACEMENT('',#661,#562);
#38=AXIS1_PLACEMENT('',#665,#567);
#39=AXIS1_PLACEMENT('',#667,#569);
#40=LINE('',#642,#44);
#41=LINE('',#654,#45);
#42=LINE('',#660,#46);
#43=LINE('',#666,#47);
#44=VECTOR('',#540,5.01246194126059);
#45=VECTOR('',#554,5.2);
#46=VECTOR('',#561,5.20000000000004);
#47=VECTOR('',#568,5.2);
#48=PRESENTATION_LAYER_ASSIGNMENT('1','Layer 1',(#64,#65));
#49=STYLED_ITEM('',(#51),#64);
#50=STYLED_ITEM('',(#52),#65);
#51=PRESENTATION_STYLE_ASSIGNMENT((#53));
#52=PRESENTATION_STYLE_ASSIGNMENT((#54));
#53=SURFACE_STYLE_USAGE(.BOTH.,#55);
#54=SURFACE_STYLE_USAGE(.BOTH.,#56);
#55=SURFACE_SIDE_STYLE('',(#57));
#56=SURFACE_SIDE_STYLE('',(#58));
#57=SURFACE_STYLE_FILL_AREA(#59);
#58=SURFACE_STYLE_FILL_AREA(#60);
#59=FILL_AREA_STYLE('',(#61));
#60=FILL_AREA_STYLE('',(#62));
#61=FILL_AREA_STYLE_COLOUR('',#63);
#62=FILL_AREA_STYLE_COLOUR('',#23);
#63=COLOUR_RGB('smoke gray',0.694117647058824,0.694117647058824,0.694117647058824);
#64=MANIFOLD_SOLID_BREP('',#66);
#65=MANIFOLD_SOLID_BREP('',#67);
#66=CLOSED_SHELL('',(#87,#88,#89,#90,#91,#92,#93,#94,#95,#96,#97,#98,#99,
#100,#101,#102,#103,#104,#105,#106,#107));
#67=CLOSED_SHELL('',(#108,#109,#110,#111,#112,#113,#114,#115,#116,#117));
#68=FACE_OUTER_BOUND('',#204,.T.);
#69=FACE_OUTER_BOUND('',#219,.T.);
#70=FACE_OUTER_BOUND('',#220,.T.);
#71=FACE_OUTER_BOUND('',#221,.T.);
#72=PLANE('',#410);
#73=PLANE('',#413);
#74=PLANE('',#428);
#75=PLANE('',#430);
#76=PLANE('',#432);
#77=CONICAL_SURFACE('',#396,12.3103073792139,20.0000000000003);
#78=CONICAL_SURFACE('',#400,12.5,15.0000000000002);
#79=CONICAL_SURFACE('',#408,12.7056692403838,82.0000000000003);
#80=CONICAL_SURFACE('',#419,16.6147266113736,29.3577535427912);
#81=CONICAL_SURFACE('',#425,10.25,3.00000000000003);
#82=CYLINDRICAL_SURFACE('',#392,12.2499999999998);
#83=CYLINDRICAL_SURFACE('',#398,12.5);
#84=CYLINDRICAL_SURFACE('',#404,12.2499999999998);
#85=CYLINDRICAL_SURFACE('',#415,16.9999999999999);
#86=CYLINDRICAL_SURFACE('',#423,10.25);
#87=ADVANCED_FACE('',(#126,#127),#118,.T.);
#88=ADVANCED_FACE('',(#128,#129),#82,.T.);
#89=ADVANCED_FACE('',(#130,#131),#119,.F.);
#90=ADVANCED_FACE('',(#132,#133),#77,.T.);
#91=ADVANCED_FACE('',(#134,#135),#83,.T.);
#92=ADVANCED_FACE('',(#136,#137),#78,.T.);
#93=ADVANCED_FACE('',(#138,#139),#120,.F.);
#94=ADVANCED_FACE('',(#140,#141),#84,.T.);
#95=ADVANCED_FACE('',(#142,#143),#121,.F.);
#96=ADVANCED_FACE('',(#144,#145),#79,.F.);
#97=ADVANCED_FACE('',(#146,#147),#72,.F.);
#98=ADVANCED_FACE('',(#148,#149),#122,.T.);
#99=ADVANCED_FACE('',(#68),#73,.F.);
#100=ADVANCED_FACE('',(#150,#151),#85,.T.);
#101=ADVANCED_FACE('',(#152,#153),#123,.T.);
#102=ADVANCED_FACE('',(#154,#155),#80,.T.);
#103=ADVANCED_FACE('',(#156,#157),#124,.F.);
#104=ADVANCED_FACE('',(#158,#159),#86,.T.);
#105=ADVANCED_FACE('',(#160,#161),#81,.T.);
#106=ADVANCED_FACE('',(#162,#163),#125,.T.);
#107=ADVANCED_FACE('',(#69),#74,.F.);
#108=ADVANCED_FACE('',(#70),#75,.T.);
#109=ADVANCED_FACE('',(#71),#76,.F.);
#110=ADVANCED_FACE('',(#164,#165),#24,.T.);
#111=ADVANCED_FACE('',(#166,#167),#25,.T.);
#112=ADVANCED_FACE('',(#168,#169),#26,.T.);
#113=ADVANCED_FACE('',(#170,#171),#27,.T.);
#114=ADVANCED_FACE('',(#172,#173),#28,.T.);
#115=ADVANCED_FACE('',(#174,#175),#29,.T.);
#116=ADVANCED_FACE('',(#176,#177),#30,.T.);
#117=ADVANCED_FACE('',(#178,#179),#31,.T.);
#118=TOROIDAL_SURFACE('',#390,11.2499999999998,1.);
#119=TOROIDAL_SURFACE('',#394,13.2499999999998,1.);
#120=TOROIDAL_SURFACE('',#402,12.6499999999998,0.4);
#121=TOROIDAL_SURFACE('',#406,12.6499999999998,0.399999999999986);
#122=TOROIDAL_SURFACE('',#412,16.3,0.799999999999997);
#123=TOROIDAL_SURFACE('',#417,14.,3.);
#124=TOROIDAL_SURFACE('',#421,15.25,5.);
#125=TOROIDAL_SURFACE('',#427,9.08092276029635,1.);
#126=FACE_BOUND('',#180,.T.);
#127=FACE_BOUND('',#181,.T.);
#128=FACE_BOUND('',#182,.T.);
#129=FACE_BOUND('',#183,.T.);
#130=FACE_BOUND('',#184,.T.);
#131=FACE_BOUND('',#185,.T.);
#132=FACE_BOUND('',#186,.T.);
#133=FACE_BOUND('',#187,.T.);
#134=FACE_BOUND('',#188,.T.);
#135=FACE_BOUND('',#189,.T.);
#136=FACE_BOUND('',#190,.T.);
#137=FACE_BOUND('',#191,.T.);
#138=FACE_BOUND('',#192,.T.);
#139=FACE_BOUND('',#193,.T.);
#140=FACE_BOUND('',#194,.T.);
#141=FACE_BOUND('',#195,.T.);
#142=FACE_BOUND('',#196,.T.);
#143=FACE_BOUND('',#197,.T.);
#144=FACE_BOUND('',#198,.T.);
#145=FACE_BOUND('',#199,.T.);
#146=FACE_BOUND('',#200,.T.);
#147=FACE_BOUND('',#201,.T.);
#148=FACE_BOUND('',#202,.T.);
#149=FACE_BOUND('',#203,.T.);
#150=FACE_BOUND('',#205,.T.);
#151=FACE_BOUND('',#206,.T.);
#152=FACE_BOUND('',#207,.T.);
#153=FACE_BOUND('',#208,.T.);
#154=FACE_BOUND('',#209,.T.);
#155=FACE_BOUND('',#210,.T.);
#156=FACE_BOUND('',#211,.T.);
#157=FACE_BOUND('',#212,.T.);
#158=FACE_BOUND('',#213,.T.);
#159=FACE_BOUND('',#214,.T.);
#160=FACE_BOUND('',#215,.T.);
#161=FACE_BOUND('',#216,.T.);
#162=FACE_BOUND('',#217,.T.);
#163=FACE_BOUND('',#218,.T.);
#164=FACE_BOUND('',#222,.T.);
#165=FACE_BOUND('',#223,.T.);
#166=FACE_BOUND('',#224,.T.);
#167=FACE_BOUND('',#225,.T.);
#168=FACE_BOUND('',#226,.T.);
#169=FACE_BOUND('',#227,.T.);
#170=FACE_BOUND('',#228,.T.);
#171=FACE_BOUND('',#229,.T.);
#172=FACE_BOUND('',#230,.T.);
#173=FACE_BOUND('',#231,.T.);
#174=FACE_BOUND('',#232,.T.);
#175=FACE_BOUND('',#233,.T.);
#176=FACE_BOUND('',#234,.T.);
#177=FACE_BOUND('',#235,.T.);
#178=FACE_BOUND('',#236,.T.);
#179=FACE_BOUND('',#237,.T.);
#180=EDGE_LOOP('',(#238));
#181=EDGE_LOOP('',(#239));
#182=EDGE_LOOP('',(#240));
#183=EDGE_LOOP('',(#241));
#184=EDGE_LOOP('',(#242));
#185=EDGE_LOOP('',(#243));
#186=EDGE_LOOP('',(#244));
#187=EDGE_LOOP('',(#245));
#188=EDGE_LOOP('',(#246));
#189=EDGE_LOOP('',(#247));
#190=EDGE_LOOP('',(#248));
#191=EDGE_LOOP('',(#249));
#192=EDGE_LOOP('',(#250));
#193=EDGE_LOOP('',(#251));
#194=EDGE_LOOP('',(#252));
#195=EDGE_LOOP('',(#253));
#196=EDGE_LOOP('',(#254));
#197=EDGE_LOOP('',(#255));
#198=EDGE_LOOP('',(#256));
#199=EDGE_LOOP('',(#257));
#200=EDGE_LOOP('',(#258));
#201=EDGE_LOOP('',(#259));
#202=EDGE_LOOP('',(#260));
#203=EDGE_LOOP('',(#261));
#204=EDGE_LOOP('',(#262));
#205=EDGE_LOOP('',(#263));
#206=EDGE_LOOP('',(#264));
#207=EDGE_LOOP('',(#265));
#208=EDGE_LOOP('',(#266));
#209=EDGE_LOOP('',(#267));
#210=EDGE_LOOP('',(#268));
#211=EDGE_LOOP('',(#269));
#212=EDGE_LOOP('',(#270));
#213=EDGE_LOOP('',(#271));
#214=EDGE_LOOP('',(#272));
#215=EDGE_LOOP('',(#273));
#216=EDGE_LOOP('',(#274));
#217=EDGE_LOOP('',(#275));
#218=EDGE_LOOP('',(#276));
#219=EDGE_LOOP('',(#277));
#220=EDGE_LOOP('',(#278));
#221=EDGE_LOOP('',(#279));
#222=EDGE_LOOP('',(#280));
#223=EDGE_LOOP('',(#281));
#224=EDGE_LOOP('',(#282));
#225=EDGE_LOOP('',(#283));
#226=EDGE_LOOP('',(#284));
#227=EDGE_LOOP('',(#285));
#228=EDGE_LOOP('',(#286));
#229=EDGE_LOOP('',(#287));
#230=EDGE_LOOP('',(#288));
#231=EDGE_LOOP('',(#289));
#232=EDGE_LOOP('',(#290));
#233=EDGE_LOOP('',(#291));
#234=EDGE_LOOP('',(#292));
#235=EDGE_LOOP('',(#293));
#236=EDGE_LOOP('',(#294));
#237=EDGE_LOOP('',(#295));
#238=ORIENTED_EDGE('',*,*,#325,.T.);
#239=ORIENTED_EDGE('',*,*,#326,.T.);
#240=ORIENTED_EDGE('',*,*,#327,.T.);
#241=ORIENTED_EDGE('',*,*,#325,.F.);
#242=ORIENTED_EDGE('',*,*,#328,.T.);
#243=ORIENTED_EDGE('',*,*,#327,.F.);
#244=ORIENTED_EDGE('',*,*,#329,.T.);
#245=ORIENTED_EDGE('',*,*,#328,.F.);
#246=ORIENTED_EDGE('',*,*,#330,.T.);
#247=ORIENTED_EDGE('',*,*,#329,.F.);
#248=ORIENTED_EDGE('',*,*,#331,.T.);
#249=ORIENTED_EDGE('',*,*,#330,.F.);
#250=ORIENTED_EDGE('',*,*,#332,.T.);
#251=ORIENTED_EDGE('',*,*,#331,.F.);
#252=ORIENTED_EDGE('',*,*,#333,.T.);
#253=ORIENTED_EDGE('',*,*,#332,.F.);
#254=ORIENTED_EDGE('',*,*,#334,.T.);
#255=ORIENTED_EDGE('',*,*,#333,.F.);
#256=ORIENTED_EDGE('',*,*,#335,.T.);
#257=ORIENTED_EDGE('',*,*,#334,.F.);
#258=ORIENTED_EDGE('',*,*,#336,.T.);
#259=ORIENTED_EDGE('',*,*,#335,.F.);
#260=ORIENTED_EDGE('',*,*,#337,.T.);
#261=ORIENTED_EDGE('',*,*,#336,.F.);
#262=ORIENTED_EDGE('',*,*,#326,.F.);
#263=ORIENTED_EDGE('',*,*,#338,.T.);
#264=ORIENTED_EDGE('',*,*,#337,.F.);
#265=ORIENTED_EDGE('',*,*,#339,.T.);
#266=ORIENTED_EDGE('',*,*,#338,.F.);
#267=ORIENTED_EDGE('',*,*,#340,.T.);
#268=ORIENTED_EDGE('',*,*,#339,.F.);
#269=ORIENTED_EDGE('',*,*,#341,.T.);
#270=ORIENTED_EDGE('',*,*,#340,.F.);
#271=ORIENTED_EDGE('',*,*,#342,.T.);
#272=ORIENTED_EDGE('',*,*,#341,.F.);
#273=ORIENTED_EDGE('',*,*,#343,.T.);
#274=ORIENTED_EDGE('',*,*,#342,.F.);
#275=ORIENTED_EDGE('',*,*,#344,.T.);
#276=ORIENTED_EDGE('',*,*,#343,.F.);
#277=ORIENTED_EDGE('',*,*,#344,.F.);
#278=ORIENTED_EDGE('',*,*,#345,.T.);
#279=ORIENTED_EDGE('',*,*,#346,.F.);
#280=ORIENTED_EDGE('',*,*,#347,.F.);
#281=ORIENTED_EDGE('',*,*,#348,.F.);
#282=ORIENTED_EDGE('',*,*,#349,.T.);
#283=ORIENTED_EDGE('',*,*,#345,.F.);
#284=ORIENTED_EDGE('',*,*,#350,.F.);
#285=ORIENTED_EDGE('',*,*,#347,.T.);
#286=ORIENTED_EDGE('',*,*,#351,.F.);
#287=ORIENTED_EDGE('',*,*,#350,.T.);
#288=ORIENTED_EDGE('',*,*,#352,.F.);
#289=ORIENTED_EDGE('',*,*,#351,.T.);
#290=ORIENTED_EDGE('',*,*,#349,.F.);
#291=ORIENTED_EDGE('',*,*,#352,.T.);
#292=ORIENTED_EDGE('',*,*,#353,.T.);
#293=ORIENTED_EDGE('',*,*,#348,.T.);
#294=ORIENTED_EDGE('',*,*,#353,.F.);
#295=ORIENTED_EDGE('',*,*,#346,.T.);
#296=VERTEX_POINT('',#572);
#297=VERTEX_POINT('',#574);
#298=VERTEX_POINT('',#577);
#299=VERTEX_POINT('',#580);
#300=VERTEX_POINT('',#583);
#301=VERTEX_POINT('',#586);
#302=VERTEX_POINT('',#589);
#303=VERTEX_POINT('',#592);
#304=VERTEX_POINT('',#595);
#305=VERTEX_POINT('',#598);
#306=VERTEX_POINT('',#601);
#307=VERTEX_POINT('',#604);
#308=VERTEX_POINT('',#607);
#309=VERTEX_POINT('',#611);
#310=VERTEX_POINT('',#614);
#311=VERTEX_POINT('',#617);
#312=VERTEX_POINT('',#620);
#313=VERTEX_POINT('',#623);
#314=VERTEX_POINT('',#626);
#315=VERTEX_POINT('',#629);
#316=VERTEX_POINT('',#633);
#317=VERTEX_POINT('',#636);
#318=VERTEX_POINT('',#639);
#319=VERTEX_POINT('',#641);
#320=VERTEX_POINT('',#645);
#321=VERTEX_POINT('',#649);
#322=VERTEX_POINT('',#653);
#323=VERTEX_POINT('',#657);
#324=VERTEX_POINT('',#663);
#325=EDGE_CURVE('',#296,#296,#354,.T.);
#326=EDGE_CURVE('',#297,#297,#355,.T.);
#327=EDGE_CURVE('',#298,#298,#356,.T.);
#328=EDGE_CURVE('',#299,#299,#357,.T.);
#329=EDGE_CURVE('',#300,#300,#358,.T.);
#330=EDGE_CURVE('',#301,#301,#359,.T.);
#331=EDGE_CURVE('',#302,#302,#360,.T.);
#332=EDGE_CURVE('',#303,#303,#361,.T.);
#333=EDGE_CURVE('',#304,#304,#362,.T.);
#334=EDGE_CURVE('',#305,#305,#363,.T.);
#335=EDGE_CURVE('',#306,#306,#364,.T.);
#336=EDGE_CURVE('',#307,#307,#365,.T.);
#337=EDGE_CURVE('',#308,#308,#366,.T.);
#338=EDGE_CURVE('',#309,#309,#367,.T.);
#339=EDGE_CURVE('',#310,#310,#368,.T.);
#340=EDGE_CURVE('',#311,#311,#369,.T.);
#341=EDGE_CURVE('',#312,#312,#370,.T.);
#342=EDGE_CURVE('',#313,#313,#371,.T.);
#343=EDGE_CURVE('',#314,#314,#372,.T.);
#344=EDGE_CURVE('',#315,#315,#373,.T.);
#345=EDGE_CURVE('',#316,#316,#374,.T.);
#346=EDGE_CURVE('',#317,#317,#375,.T.);
#347=EDGE_CURVE('',#318,#318,#376,.T.);
#348=EDGE_CURVE('',#319,#319,#377,.T.);
#349=EDGE_CURVE('',#320,#320,#378,.T.);
#350=EDGE_CURVE('',#321,#321,#380,.T.);
#351=EDGE_CURVE('',#322,#322,#382,.T.);
#352=EDGE_CURVE('',#323,#323,#383,.T.);
#353=EDGE_CURVE('',#324,#324,#385,.T.);
#354=CIRCLE('',#388,12.2499999999998);
#355=CIRCLE('',#389,11.2499999999998);
#356=CIRCLE('',#391,12.2499999999998);
#357=CIRCLE('',#393,12.3103073792139);
#358=CIRCLE('',#395,12.5);
#359=CIRCLE('',#397,12.5);
#360=CIRCLE('',#399,12.2636296694842);
#361=CIRCLE('',#401,12.2499999999998);
#362=CIRCLE('',#403,12.2499999999998);
#363=CIRCLE('',#405,12.7056692403838);
#364=CIRCLE('',#407,13.5);
#365=CIRCLE('',#409,16.3);
#366=CIRCLE('',#411,16.9999999999999);
#367=CIRCLE('',#414,17.);
#368=CIRCLE('',#416,16.6147266113736);
#369=CIRCLE('',#418,10.8921223143773);
#370=CIRCLE('',#420,10.25);
#371=CIRCLE('',#422,10.25);
#372=CIRCLE('',#424,10.0795522950509);
#373=CIRCLE('',#426,9.08092276029634);
#374=CIRCLE('',#429,4.90877899516568);
#375=CIRCLE('',#431,0.101178851545171);
#376=CIRCLE('',#433,10.3675106127447);
#377=CIRCLE('',#434,5.40721669262148);
#378=CIRCLE('',#435,4.99790263400615);
#379=CIRCLE('',#436,0.399999999999999);
#380=CIRCLE('',#437,10.749998240636);
#381=CIRCLE('',#438,0.4);
#382=CIRCLE('',#439,10.551332006086);
#383=CIRCLE('',#440,10.1383673377692);
#384=CIRCLE('',#441,0.4);
#385=CIRCLE('',#442,5.17413407064788);
#386=CIRCLE('',#443,0.399999999999999);
#387=AXIS2_PLACEMENT_3D('',#570,#444,#445);
#388=AXIS2_PLACEMENT_3D('',#571,#446,#447);
#389=AXIS2_PLACEMENT_3D('',#573,#448,#449);
#390=AXIS2_PLACEMENT_3D('',#575,#450,#451);
#391=AXIS2_PLACEMENT_3D('',#576,#452,#453);
#392=AXIS2_PLACEMENT_3D('',#578,#454,#455);
#393=AXIS2_PLACEMENT_3D('',#579,#456,#457);
#394=AXIS2_PLACEMENT_3D('',#581,#458,#459);
#395=AXIS2_PLACEMENT_3D('',#582,#460,#461);
#396=AXIS2_PLACEMENT_3D('',#584,#462,#463);
#397=AXIS2_PLACEMENT_3D('',#585,#464,#465);
#398=AXIS2_PLACEMENT_3D('',#587,#466,#467);
#399=AXIS2_PLACEMENT_3D('',#588,#468,#469);
#400=AXIS2_PLACEMENT_3D('',#590,#470,#471);
#401=AXIS2_PLACEMENT_3D('',#591,#472,#473);
#402=AXIS2_PLACEMENT_3D('',#593,#474,#475);
#403=AXIS2_PLACEMENT_3D('',#594,#476,#477);
#404=AXIS2_PLACEMENT_3D('',#596,#478,#479);
#405=AXIS2_PLACEMENT_3D('',#597,#480,#481);
#406=AXIS2_PLACEMENT_3D('',#599,#482,#483);
#407=AXIS2_PLACEMENT_3D('',#600,#484,#485);
#408=AXIS2_PLACEMENT_3D('',#602,#486,#487);
#409=AXIS2_PLACEMENT_3D('',#603,#488,#489);
#410=AXIS2_PLACEMENT_3D('',#605,#490,#491);
#411=AXIS2_PLACEMENT_3D('',#606,#492,#493);
#412=AXIS2_PLACEMENT_3D('',#608,#494,#495);
#413=AXIS2_PLACEMENT_3D('',#609,#496,#497);
#414=AXIS2_PLACEMENT_3D('',#610,#498,#499);
#415=AXIS2_PLACEMENT_3D('',#612,#500,#501);
#416=AXIS2_PLACEMENT_3D('',#613,#502,#503);
#417=AXIS2_PLACEMENT_3D('',#615,#504,#505);
#418=AXIS2_PLACEMENT_3D('',#616,#506,#507);
#419=AXIS2_PLACEMENT_3D('',#618,#508,#509);
#420=AXIS2_PLACEMENT_3D('',#619,#510,#511);
#421=AXIS2_PLACEMENT_3D('',#621,#512,#513);
#422=AXIS2_PLACEMENT_3D('',#622,#514,#515);
#423=AXIS2_PLACEMENT_3D('',#624,#516,#517);
#424=AXIS2_PLACEMENT_3D('',#625,#518,#519);
#425=AXIS2_PLACEMENT_3D('',#627,#520,#521);
#426=AXIS2_PLACEMENT_3D('',#628,#522,#523);
#427=AXIS2_PLACEMENT_3D('',#630,#524,#525);
#428=AXIS2_PLACEMENT_3D('',#631,#526,#527);
#429=AXIS2_PLACEMENT_3D('',#632,#528,#529);
#430=AXIS2_PLACEMENT_3D('',#634,#530,#531);
#431=AXIS2_PLACEMENT_3D('',#635,#532,#533);
#432=AXIS2_PLACEMENT_3D('',#637,#534,#535);
#433=AXIS2_PLACEMENT_3D('',#638,#536,#537);
#434=AXIS2_PLACEMENT_3D('',#640,#538,#539);
#435=AXIS2_PLACEMENT_3D('',#644,#542,#543);
#436=AXIS2_PLACEMENT_3D('',#646,#544,#545);
#437=AXIS2_PLACEMENT_3D('',#648,#547,#548);
#438=AXIS2_PLACEMENT_3D('',#650,#549,#550);
#439=AXIS2_PLACEMENT_3D('',#652,#552,#553);
#440=AXIS2_PLACEMENT_3D('',#656,#556,#557);
#441=AXIS2_PLACEMENT_3D('',#658,#558,#559);
#442=AXIS2_PLACEMENT_3D('',#662,#563,#564);
#443=AXIS2_PLACEMENT_3D('',#664,#565,#566);
#444=DIRECTION('',(0.,0.,1.));
#445=DIRECTION('',(1.,0.,0.));
#446=DIRECTION('',(1.,0.,0.));
#447=DIRECTION('',(0.,0.,1.));
#448=DIRECTION('',(-1.,0.,0.));
#449=DIRECTION('',(0.,0.,1.));
#450=DIRECTION('',(-1.,0.,0.));
#451=DIRECTION('',(0.,0.,1.));
#452=DIRECTION('',(1.,0.,0.));
#453=DIRECTION('',(0.,0.,1.));
#454=DIRECTION('',(-1.,0.,0.));
#455=DIRECTION('',(0.,0.,1.));
#456=DIRECTION('',(1.,0.,0.));
#457=DIRECTION('',(0.,0.,1.));
#458=DIRECTION('',(-1.,0.,0.));
#459=DIRECTION('',(0.,0.,1.));
#460=DIRECTION('',(1.,0.,0.));
#461=DIRECTION('',(0.,0.,1.));
#462=DIRECTION('',(-1.,0.,0.));
#463=DIRECTION('',(1.47525968227098E-16,0.,1.));
#464=DIRECTION('',(1.,0.,0.));
#465=DIRECTION('',(0.,0.,1.));
#466=DIRECTION('',(-1.,0.,0.));
#467=DIRECTION('',(0.,0.,1.));
#468=DIRECTION('',(1.,0.,0.));
#469=DIRECTION('',(0.,0.,1.));
#470=DIRECTION('',(1.,0.,0.));
#471=DIRECTION('',(-1.4845242755929E-16,0.,-1.));
#472=DIRECTION('',(1.,0.,0.));
#473=DIRECTION('',(0.,0.,1.));
#474=DIRECTION('',(-1.,0.,0.));
#475=DIRECTION('',(0.,0.,1.));
#476=DIRECTION('',(1.,0.,0.));
#477=DIRECTION('',(0.,0.,1.));
#478=DIRECTION('',(-1.,0.,0.));
#479=DIRECTION('',(0.,0.,1.));
#480=DIRECTION('',(1.,0.,0.));
#481=DIRECTION('',(0.,0.,1.));
#482=DIRECTION('',(-1.,0.,0.));
#483=DIRECTION('',(0.,0.,1.));
#484=DIRECTION('',(1.,0.,0.));
#485=DIRECTION('',(0.,0.,1.));
#486=DIRECTION('',(1.,0.,0.));
#487=DIRECTION('',(-5.84075800774509E-18,0.,-1.));
#488=DIRECTION('',(1.,0.,0.));
#489=DIRECTION('',(0.,0.,1.));
#490=DIRECTION('',(-1.,0.,0.));
#491=DIRECTION('',(0.,0.,1.));
#492=DIRECTION('',(1.,0.,0.));
#493=DIRECTION('',(0.,0.,1.));
#494=DIRECTION('',(-1.,0.,0.));
#495=DIRECTION('',(0.,0.,1.));
#496=DIRECTION('',(-1.,0.,0.));
#497=DIRECTION('',(0.,0.,1.));
#498=DIRECTION('',(1.,0.,0.));
#499=DIRECTION('',(0.,0.,1.));
#500=DIRECTION('',(-1.,0.,0.));
#501=DIRECTION('',(0.,0.,1.));
#502=DIRECTION('',(1.,0.,0.));
#503=DIRECTION('',(0.,0.,1.));
#504=DIRECTION('',(-1.,0.,0.));
#505=DIRECTION('',(0.,0.,1.));
#506=DIRECTION('',(1.,0.,0.));
#507=DIRECTION('',(0.,0.,1.));
#508=DIRECTION('',(1.,0.,0.));
#509=DIRECTION('',(0.,0.,-1.));
#510=DIRECTION('',(1.,0.,0.));
#511=DIRECTION('',(0.,0.,1.));
#512=DIRECTION('',(-1.,0.,0.));
#513=DIRECTION('',(0.,0.,1.));
#514=DIRECTION('',(1.,0.,0.));
#515=DIRECTION('',(0.,0.,1.));
#516=DIRECTION('',(-1.,0.,0.));
#517=DIRECTION('',(0.,0.,1.));
#518=DIRECTION('',(1.,0.,0.));
#519=DIRECTION('',(0.,0.,1.));
#520=DIRECTION('',(1.,0.,0.));
#521=DIRECTION('',(-1.66114103866395E-15,0.,-1.));
#522=DIRECTION('',(1.,0.,0.));
#523=DIRECTION('',(0.,0.,1.));
#524=DIRECTION('',(-1.,0.,0.));
#525=DIRECTION('',(0.,0.,1.));
#526=DIRECTION('',(1.,0.,0.));
#527=DIRECTION('',(0.,0.,-1.));
#528=DIRECTION('',(1.,0.,0.));
#529=DIRECTION('',(0.,0.,-1.));
#530=DIRECTION('',(1.,0.,0.));
#531=DIRECTION('',(0.,0.,-1.));
#532=DIRECTION('',(1.,0.,0.));
#533=DIRECTION('',(0.,0.,-1.));
#534=DIRECTION('',(1.,0.,0.));
#535=DIRECTION('',(0.,0.,-1.));
#536=DIRECTION('',(1.,0.,0.));
#537=DIRECTION('',(0.,0.,-1.));
#538=DIRECTION('',(-1.,0.,0.));
#539=DIRECTION('',(0.,0.,-1.));
#540=DIRECTION('',(0.0383878090875202,-0.993788849599919,0.104451417052756));
#541=DIRECTION('',(1.,0.,0.));
#542=DIRECTION('',(1.,0.,0.));
#543=DIRECTION('',(0.,0.,-1.));
#544=DIRECTION('',(5.55111512312578E-17,0.104528463267653,0.994521895368273));
#545=DIRECTION('',(0.999262916410621,0.038177516652756,-0.00401261869213057));
#546=DIRECTION('',(1.,0.,0.));
#547=DIRECTION('',(1.,0.,0.));
#548=DIRECTION('',(0.,0.,-1.));
#549=DIRECTION('',(5.55111512312578E-17,0.104528463267653,0.994521895368273));
#550=DIRECTION('',(0.999262916410621,0.038177516652756,-0.00401261869213057));
#551=DIRECTION('',(1.,0.,0.));
#552=DIRECTION('',(1.,0.,0.));
#553=DIRECTION('',(0.,0.,-1.));
#554=DIRECTION('',(0.999262916410621,0.0381775166527546,-0.00401261869213062));
#555=DIRECTION('',(1.,0.,0.));
#556=DIRECTION('',(1.,0.,0.));
#557=DIRECTION('',(0.,0.,-1.));
#558=DIRECTION('',(5.55111512312578E-17,0.104528463267653,0.994521895368273));
#559=DIRECTION('',(0.999262916410621,0.038177516652756,-0.00401261869213057));
#560=DIRECTION('',(1.,0.,0.));
#561=DIRECTION('',(-0.0383878090875197,0.993788849599919,-0.104451417052756));
#562=DIRECTION('',(1.,0.,0.));
#563=DIRECTION('',(1.,0.,0.));
#564=DIRECTION('',(0.,0.,-1.));
#565=DIRECTION('',(0.,0.,-1.));
#566=DIRECTION('',(0.99780146829205,0.0662739004000001,0.));
#567=DIRECTION('',(1.,0.,0.));
#568=DIRECTION('',(-0.0662739003999998,0.99780146829205,0.));
#569=DIRECTION('',(1.,0.,0.));
#570=CARTESIAN_POINT('',(0.,0.,0.));
#571=CARTESIAN_POINT('',(140.,0.,0.));
#572=CARTESIAN_POINT('',(140.,0.,12.2499999999998));
#573=CARTESIAN_POINT('',(141.,0.,0.));
#574=CARTESIAN_POINT('',(141.,0.,11.2499999999998));
#575=CARTESIAN_POINT('',(140.,0.,0.));
#576=CARTESIAN_POINT('',(138.176326980708,0.,0.));
#577=CARTESIAN_POINT('',(138.176326980708,0.,12.2499999999998));
#578=CARTESIAN_POINT('',(0.,0.,0.));
#579=CARTESIAN_POINT('',(137.834306837383,0.,0.));
#580=CARTESIAN_POINT('',(137.834306837383,0.,12.3103073792139));
#581=CARTESIAN_POINT('',(138.176326980708,0.,0.));
#582=CARTESIAN_POINT('',(137.313130645136,0.,0.));
#583=CARTESIAN_POINT('',(137.313130645136,0.,12.5));
#584=CARTESIAN_POINT('',(137.834306837383,0.,0.));
#585=CARTESIAN_POINT('',(87.,0.,0.));
#586=CARTESIAN_POINT('',(87.,0.,12.5));
#587=CARTESIAN_POINT('',(0.,0.,0.));
#588=CARTESIAN_POINT('',(86.1178539171131,0.,0.));
#589=CARTESIAN_POINT('',(86.1178539171131,0.,12.2636296694842));
#590=CARTESIAN_POINT('',(87.,0.,0.));
#591=CARTESIAN_POINT('',(86.014326299072,0.,0.));
#592=CARTESIAN_POINT('',(86.014326299072,0.,12.2499999999998));
#593=CARTESIAN_POINT('',(86.014326299072,0.,0.));
#594=CARTESIAN_POINT('',(85.2844713195104,0.,0.));
#595=CARTESIAN_POINT('',(85.2844713195104,0.,12.2499999999998));
#596=CARTESIAN_POINT('',(0.,0.,0.));
#597=CARTESIAN_POINT('',(84.8883640920138,0.,0.));
#598=CARTESIAN_POINT('',(84.8883640920138,0.,12.7056692403838));
#599=CARTESIAN_POINT('',(85.2844713195104,0.,0.));
#600=CARTESIAN_POINT('',(85.,0.,0.));
#601=CARTESIAN_POINT('',(85.,0.,13.5));
#602=CARTESIAN_POINT('',(84.8883640920138,0.,0.));
#603=CARTESIAN_POINT('',(85.,0.,0.));
#604=CARTESIAN_POINT('',(85.,0.,16.3));
#605=CARTESIAN_POINT('',(85.,13.5,0.));
#606=CARTESIAN_POINT('',(84.5872983346209,0.,0.));
#607=CARTESIAN_POINT('',(84.5872983346209,0.,16.9999999999999));
#608=CARTESIAN_POINT('',(84.2,0.,0.));
#609=CARTESIAN_POINT('',(141.,17.5,0.));
#610=CARTESIAN_POINT('',(80.7858532502286,0.,0.));
#611=CARTESIAN_POINT('',(80.7858532502286,0.,17.));
#612=CARTESIAN_POINT('',(0.,0.,0.));
#613=CARTESIAN_POINT('',(79.3150695313309,0.,0.));
#614=CARTESIAN_POINT('',(79.3150695313309,0.,16.6147266113736));
#615=CARTESIAN_POINT('',(80.7858532502286,0.,0.));
#616=CARTESIAN_POINT('',(69.1415507811151,0.,0.));
#617=CARTESIAN_POINT('',(69.1415507811151,0.,10.8921223143773));
#618=CARTESIAN_POINT('',(79.3150695313309,0.,0.));
#619=CARTESIAN_POINT('',(66.6902445829523,0.,0.));
#620=CARTESIAN_POINT('',(66.6902445829523,0.,10.25));
#621=CARTESIAN_POINT('',(66.6902445829523,0.,0.));
#622=CARTESIAN_POINT('',(5.,0.,0.));
#623=CARTESIAN_POINT('',(5.,0.,10.25));
#624=CARTESIAN_POINT('',(0.,0.,0.));
#625=CARTESIAN_POINT('',(1.74766404375706,0.,0.));
#626=CARTESIAN_POINT('',(1.74766404375706,0.,10.0795522950509));
#627=CARTESIAN_POINT('',(5.,0.,0.));
#628=CARTESIAN_POINT('',(0.8,0.,0.));
#629=CARTESIAN_POINT('',(0.8,0.,9.08092276029634));
#630=CARTESIAN_POINT('',(1.8,0.,0.));
#631=CARTESIAN_POINT('',(0.8,9.08092276029634,0.));
#632=CARTESIAN_POINT('',(6.03172800341614,0.,0.));
#633=CARTESIAN_POINT('',(6.03172800341614,0.,-4.90877899516568));
#634=CARTESIAN_POINT('',(6.03172800341614,0.,0.));
#635=CARTESIAN_POINT('',(0.345503694763182,0.,0.));
#636=CARTESIAN_POINT('',(0.345503694763182,0.,-0.101178851545171));
#637=CARTESIAN_POINT('',(0.345503694763182,0.,0.));
#638=CARTESIAN_POINT('',(0.249911440690833,0.,0.));
#639=CARTESIAN_POINT('',(0.249911440690833,0.,-10.3675106127447));
#640=CARTESIAN_POINT('',(0.0574940086283563,0.,0.));
#641=CARTESIAN_POINT('',(0.0574940086283563,0.,-5.40721669262148));
#642=CARTESIAN_POINT('',(0.0574940086312609,-5.16907581255794,1.58702476508455));
#643=CARTESIAN_POINT('',(5.,0.,0.));
#644=CARTESIAN_POINT('',(6.04587233189948,0.,0.));
#645=CARTESIAN_POINT('',(6.04587233189948,0.,-4.99790263400615));
#646=CARTESIAN_POINT('',(5.64616716533523,-4.76890848765167,1.54496548442197));
#647=CARTESIAN_POINT('',(5.,0.,0.));
#648=CARTESIAN_POINT('',(0.664971730890106,0.,0.));
#649=CARTESIAN_POINT('',(0.664971730890106,0.,-10.749998240636));
#650=CARTESIAN_POINT('',(0.649616607255099,-10.1351335921656,2.10897847029538));
#651=CARTESIAN_POINT('',(5.,0.,0.));
#652=CARTESIAN_POINT('',(5.86113889622533,0.,0.));
#653=CARTESIAN_POINT('',(5.86113889622533,0.,-10.551332006086));
#654=CARTESIAN_POINT('',(0.664971730890103,-10.5326491320055,2.15075903711647));
#655=CARTESIAN_POINT('',(5.,0.,0.));
#656=CARTESIAN_POINT('',(6.2454889391546,0.,0.));
#657=CARTESIAN_POINT('',(6.2454889391546,0.,-10.1383673377692));
#658=CARTESIAN_POINT('',(5.84578377259035,-9.93661050557128,2.0881128530963));
#659=CARTESIAN_POINT('',(5.,0.,0.));
#660=CARTESIAN_POINT('',(6.24548893915458,-9.92133949891018,2.08650780561944));
#661=CARTESIAN_POINT('',(5.,0.,0.));
#662=CARTESIAN_POINT('',(0.000879412683183053,0.,0.));
#663=CARTESIAN_POINT('',(0.000879412683183053,0.,-5.17413407064788));
#664=CARTESIAN_POINT('',(0.400000000000001,5.19967719527866,0.0999999999999981));
#665=CARTESIAN_POINT('',(0.664971730890123,0.,0.));
#666=CARTESIAN_POINT('',(0.345503694763182,-0.015400000000006,0.0999999999999981));
#667=CARTESIAN_POINT('',(0.664971730890123,0.,0.));
#668=(
GEOMETRIC_REPRESENTATION_CONTEXT(3)
GLOBAL_UNCERTAINTY_ASSIGNED_CONTEXT((#669))
GLOBAL_UNIT_ASSIGNED_CONTEXT((#675,#671,#670))
REPRESENTATION_CONTEXT('ATUM-21','TOP_LEVEL_ASSEMBLY_PART')
);
#669=UNCERTAINTY_MEASURE_WITH_UNIT(LENGTH_MEASURE(2.E-5),#675,
'DISTANCE_ACCURACY_VALUE','Maximum Tolerance applied to model');
#670=(
NAMED_UNIT(*)
SI_UNIT($,.STERADIAN.)
SOLID_ANGLE_UNIT()
);
#671=(
CONVERSION_BASED_UNIT('DEGREE',#673)
NAMED_UNIT(#672)
PLANE_ANGLE_UNIT()
);
#672=DIMENSIONAL_EXPONENTS(0.,0.,0.,0.,0.,0.,0.);
#673=PLANE_ANGLE_MEASURE_WITH_UNIT(PLANE_ANGLE_MEASURE(0.0174532925),#674);
#674=(
NAMED_UNIT(*)
PLANE_ANGLE_UNIT()
SI_UNIT($,.RADIAN.)
);
#675=(
LENGTH_UNIT()
NAMED_UNIT(*)
SI_UNIT(.MILLI.,.METRE.)
);
ENDSEC;
END-ISO-10303-21;
