ISO-10303-21;
HEADER;
/* Generated by software containing ST-Developer
 * from STEP Tools, Inc. (www.steptools.com) 
 */
/* OPTION: using custom schema-name function */

FILE_DESCRIPTION(
/* description */ (''),
/* implementation_level */ '2;1');

FILE_NAME(
/* name */ 'ATUM-21XD3-SP- 060204-light.stp',
/* time_stamp */ '2023-10-11T21:24:03+03:00',
/* author */ (''),
/* organization */ (''),
/* preprocessor_version */ 'ST-DEVELOPER v19.4',
/* originating_system */ 'SIEMENS PLM Software NX2306.3001',
/* authorisation */ '');

FILE_SCHEMA (('AUTOMOTIVE_DESIGN { 1 0 10303 214 3 1 1 1 }'));
ENDSEC;

DATA;
#10=SHAPE_REPRESENTATION_RELATIONSHIP('None',
'relationship between STP_ATUM 15.5XD3 SP.. 060204-None and STP_ATUM 1
5.5XD3 SP.. 060204-None',#22,#11);
#11=ADVANCED_BREP_SHAPE_REPRESENTATION(
'STP_ATUM 15.5XD3 SP.. 060204-None',(#66,#67),#674);
#12=SHAPE_DEFINITION_REPRESENTATION(#13,#22);
#13=PRODUCT_DEFINITION_SHAPE('','',#14);
#14=PRODUCT_DEFINITION(' ','',#16,#15);
#15=PRODUCT_DEFINITION_CONTEXT('part definition',#21,'design');
#16=PRODUCT_DEFINITION_FORMATION_WITH_SPECIFIED_SOURCE(' ',' ',#18,
 .NOT_KNOWN.);
#17=PRODUCT_RELATED_PRODUCT_CATEGORY('part','',(#18));
#18=PRODUCT('STP_ATUM 15.5XD3 SP.. 060204',
'STP_ATUM 15.5XD3 SP.. 060204',' ',(#19));
#19=PRODUCT_CONTEXT(' ',#21,'mechanical');
#20=APPLICATION_PROTOCOL_DEFINITION('international standard',
'automotive_design',2010,#21);
#21=APPLICATION_CONTEXT(
'core data for automotive mechanical design processes');
#22=SHAPE_REPRESENTATION('STP_ATUM 15.5XD3 SP.. 060204-None',(#374),#674);
#23=DRAUGHTING_PRE_DEFINED_COLOUR('yellow');
#24=SURFACE_OF_REVOLUTION('',#38,#31);
#25=SURFACE_OF_REVOLUTION('',#39,#32);
#26=SURFACE_OF_REVOLUTION('',#47,#33);
#27=SURFACE_OF_REVOLUTION('',#40,#34);
#28=SURFACE_OF_REVOLUTION('',#48,#35);
#29=SURFACE_OF_REVOLUTION('',#41,#36);
#30=SURFACE_OF_REVOLUTION('',#49,#37);
#31=AXIS1_PLACEMENT('',#635,#520);
#32=AXIS1_PLACEMENT('',#639,#524);
#33=AXIS1_PLACEMENT('',#649,#527);
#34=AXIS1_PLACEMENT('',#653,#531);
#35=AXIS1_PLACEMENT('',#661,#532);
#36=AXIS1_PLACEMENT('',#665,#536);
#37=AXIS1_PLACEMENT('',#673,#537);
#38=LINE('',#634,#42);
#39=LINE('',#638,#43);
#40=LINE('',#652,#44);
#41=LINE('',#664,#45);
#42=VECTOR('',#519,4.70900338879848);
#43=VECTOR('',#523,5.21469825324187);
#44=VECTOR('',#530,5.21469825324187);
#45=VECTOR('',#535,5.21469825324188);
#46=B_SPLINE_CURVE_WITH_KNOTS('',3,(#603,#604,#605,#606,#607,#608,#609,
#610,#611,#612,#613,#614,#615,#616,#617,#618,#619,#620,#621,#622,#623,#624,
#625,#626,#627),.UNSPECIFIED.,.T.,.F.,(1,3,3,3,3,3,3,3,3,3,1),(-0.125,0.,
0.125,0.25,0.375,0.5,0.625,0.75,0.875,1.,1.125),.UNSPECIFIED.);
#47=B_SPLINE_CURVE_WITH_KNOTS('',3,(#642,#643,#644,#645,#646,#647,#648),
 .UNSPECIFIED.,.F.,.F.,(4,1,1,1,4),(0.,0.25,0.5,0.75,1.),.UNSPECIFIED.);
#48=B_SPLINE_CURVE_WITH_KNOTS('',3,(#654,#655,#656,#657,#658,#659,#660),
 .UNSPECIFIED.,.F.,.F.,(4,1,1,1,4),(0.,0.25,0.5,0.75,1.),.UNSPECIFIED.);
#49=B_SPLINE_CURVE_WITH_KNOTS('',3,(#666,#667,#668,#669,#670,#671,#672),
 .UNSPECIFIED.,.F.,.F.,(4,1,1,1,4),(0.,0.25,0.5,0.75,1.),.UNSPECIFIED.);
#50=PRESENTATION_LAYER_ASSIGNMENT('1','Layer 1',(#66,#67));
#51=STYLED_ITEM('',(#53),#66);
#52=STYLED_ITEM('',(#54),#67);
#53=PRESENTATION_STYLE_ASSIGNMENT((#55));
#54=PRESENTATION_STYLE_ASSIGNMENT((#56));
#55=SURFACE_STYLE_USAGE(.BOTH.,#57);
#56=SURFACE_STYLE_USAGE(.BOTH.,#58);
#57=SURFACE_SIDE_STYLE('',(#59));
#58=SURFACE_SIDE_STYLE('',(#60));
#59=SURFACE_STYLE_FILL_AREA(#61);
#60=SURFACE_STYLE_FILL_AREA(#62);
#61=FILL_AREA_STYLE('',(#63));
#62=FILL_AREA_STYLE('',(#64));
#63=FILL_AREA_STYLE_COLOUR('',#65);
#64=FILL_AREA_STYLE_COLOUR('',#23);
#65=COLOUR_RGB('smoke gray',0.694117647058824,0.694117647058824,0.694117647058824);
#66=MANIFOLD_SOLID_BREP('',#68);
#67=MANIFOLD_SOLID_BREP('',#69);
#68=CLOSED_SHELL('',(#89,#90,#91,#92,#93,#94,#95,#96,#97,#98,#99,#100,#101,
#102,#103,#104,#105,#106,#107,#108,#109));
#69=CLOSED_SHELL('',(#110,#111,#112,#113,#114,#115,#116,#117,#118));
#70=FACE_OUTER_BOUND('',#203,.T.);
#71=FACE_OUTER_BOUND('',#218,.T.);
#72=FACE_OUTER_BOUND('',#219,.T.);
#73=FACE_OUTER_BOUND('',#220,.T.);
#74=PLANE('',#397);
#75=PLANE('',#400);
#76=PLANE('',#415);
#77=PLANE('',#417);
#78=PLANE('',#418);
#79=CONICAL_SURFACE('',#383,12.3103073792139,20.0000000000003);
#80=CONICAL_SURFACE('',#387,12.5,15.0000000000009);
#81=CONICAL_SURFACE('',#395,12.7056692403838,82.0000000000003);
#82=CONICAL_SURFACE('',#406,16.5913367026953,30.2564371635293);
#83=CONICAL_SURFACE('',#412,10.,2.99999999999997);
#84=CYLINDRICAL_SURFACE('',#379,12.2499999999998);
#85=CYLINDRICAL_SURFACE('',#385,12.5);
#86=CYLINDRICAL_SURFACE('',#391,12.2499999999998);
#87=CYLINDRICAL_SURFACE('',#402,16.9999999999999);
#88=CYLINDRICAL_SURFACE('',#410,10.);
#89=ADVANCED_FACE('',(#127,#128),#119,.T.);
#90=ADVANCED_FACE('',(#129,#130),#84,.T.);
#91=ADVANCED_FACE('',(#131,#132),#120,.F.);
#92=ADVANCED_FACE('',(#133,#134),#79,.T.);
#93=ADVANCED_FACE('',(#135,#136),#85,.T.);
#94=ADVANCED_FACE('',(#137,#138),#80,.T.);
#95=ADVANCED_FACE('',(#139,#140),#121,.F.);
#96=ADVANCED_FACE('',(#141,#142),#86,.T.);
#97=ADVANCED_FACE('',(#143,#144),#122,.F.);
#98=ADVANCED_FACE('',(#145,#146),#81,.F.);
#99=ADVANCED_FACE('',(#147,#148),#74,.F.);
#100=ADVANCED_FACE('',(#149,#150),#123,.T.);
#101=ADVANCED_FACE('',(#70),#75,.F.);
#102=ADVANCED_FACE('',(#151,#152),#87,.T.);
#103=ADVANCED_FACE('',(#153,#154),#124,.T.);
#104=ADVANCED_FACE('',(#155,#156),#82,.T.);
#105=ADVANCED_FACE('',(#157,#158),#125,.F.);
#106=ADVANCED_FACE('',(#159,#160),#88,.T.);
#107=ADVANCED_FACE('',(#161,#162),#83,.T.);
#108=ADVANCED_FACE('',(#163,#164),#126,.T.);
#109=ADVANCED_FACE('',(#71),#76,.F.);
#110=ADVANCED_FACE('',(#72),#77,.F.);
#111=ADVANCED_FACE('',(#73),#78,.T.);
#112=ADVANCED_FACE('',(#165,#166),#24,.F.);
#113=ADVANCED_FACE('',(#167,#168),#25,.F.);
#114=ADVANCED_FACE('',(#169,#170),#26,.F.);
#115=ADVANCED_FACE('',(#171,#172),#27,.F.);
#116=ADVANCED_FACE('',(#173,#174),#28,.F.);
#117=ADVANCED_FACE('',(#175,#176),#29,.F.);
#118=ADVANCED_FACE('',(#177,#178),#30,.F.);
#119=TOROIDAL_SURFACE('',#377,11.2499999999998,1.);
#120=TOROIDAL_SURFACE('',#381,13.2499999999998,0.999999999999994);
#121=TOROIDAL_SURFACE('',#389,12.6499999999998,0.4);
#122=TOROIDAL_SURFACE('',#393,12.6499999999998,0.399999999999986);
#123=TOROIDAL_SURFACE('',#399,16.3,0.799999999999997);
#124=TOROIDAL_SURFACE('',#404,14.,3.);
#125=TOROIDAL_SURFACE('',#408,15.,5.);
#126=TOROIDAL_SURFACE('',#414,8.83092276029635,1.);
#127=FACE_BOUND('',#179,.T.);
#128=FACE_BOUND('',#180,.T.);
#129=FACE_BOUND('',#181,.T.);
#130=FACE_BOUND('',#182,.T.);
#131=FACE_BOUND('',#183,.T.);
#132=FACE_BOUND('',#184,.T.);
#133=FACE_BOUND('',#185,.T.);
#134=FACE_BOUND('',#186,.T.);
#135=FACE_BOUND('',#187,.T.);
#136=FACE_BOUND('',#188,.T.);
#137=FACE_BOUND('',#189,.T.);
#138=FACE_BOUND('',#190,.T.);
#139=FACE_BOUND('',#191,.T.);
#140=FACE_BOUND('',#192,.T.);
#141=FACE_BOUND('',#193,.T.);
#142=FACE_BOUND('',#194,.T.);
#143=FACE_BOUND('',#195,.T.);
#144=FACE_BOUND('',#196,.T.);
#145=FACE_BOUND('',#197,.T.);
#146=FACE_BOUND('',#198,.T.);
#147=FACE_BOUND('',#199,.T.);
#148=FACE_BOUND('',#200,.T.);
#149=FACE_BOUND('',#201,.T.);
#150=FACE_BOUND('',#202,.T.);
#151=FACE_BOUND('',#204,.T.);
#152=FACE_BOUND('',#205,.T.);
#153=FACE_BOUND('',#206,.T.);
#154=FACE_BOUND('',#207,.T.);
#155=FACE_BOUND('',#208,.T.);
#156=FACE_BOUND('',#209,.T.);
#157=FACE_BOUND('',#210,.T.);
#158=FACE_BOUND('',#211,.T.);
#159=FACE_BOUND('',#212,.T.);
#160=FACE_BOUND('',#213,.T.);
#161=FACE_BOUND('',#214,.T.);
#162=FACE_BOUND('',#215,.T.);
#163=FACE_BOUND('',#216,.T.);
#164=FACE_BOUND('',#217,.T.);
#165=FACE_BOUND('',#221,.T.);
#166=FACE_BOUND('',#222,.T.);
#167=FACE_BOUND('',#223,.T.);
#168=FACE_BOUND('',#224,.T.);
#169=FACE_BOUND('',#225,.T.);
#170=FACE_BOUND('',#226,.T.);
#171=FACE_BOUND('',#227,.T.);
#172=FACE_BOUND('',#228,.T.);
#173=FACE_BOUND('',#229,.T.);
#174=FACE_BOUND('',#230,.T.);
#175=FACE_BOUND('',#231,.T.);
#176=FACE_BOUND('',#232,.T.);
#177=FACE_BOUND('',#233,.T.);
#178=FACE_BOUND('',#234,.T.);
#179=EDGE_LOOP('',(#235));
#180=EDGE_LOOP('',(#236));
#181=EDGE_LOOP('',(#237));
#182=EDGE_LOOP('',(#238));
#183=EDGE_LOOP('',(#239));
#184=EDGE_LOOP('',(#240));
#185=EDGE_LOOP('',(#241));
#186=EDGE_LOOP('',(#242));
#187=EDGE_LOOP('',(#243));
#188=EDGE_LOOP('',(#244));
#189=EDGE_LOOP('',(#245));
#190=EDGE_LOOP('',(#246));
#191=EDGE_LOOP('',(#247));
#192=EDGE_LOOP('',(#248));
#193=EDGE_LOOP('',(#249));
#194=EDGE_LOOP('',(#250));
#195=EDGE_LOOP('',(#251));
#196=EDGE_LOOP('',(#252));
#197=EDGE_LOOP('',(#253));
#198=EDGE_LOOP('',(#254));
#199=EDGE_LOOP('',(#255));
#200=EDGE_LOOP('',(#256));
#201=EDGE_LOOP('',(#257));
#202=EDGE_LOOP('',(#258));
#203=EDGE_LOOP('',(#259));
#204=EDGE_LOOP('',(#260));
#205=EDGE_LOOP('',(#261));
#206=EDGE_LOOP('',(#262));
#207=EDGE_LOOP('',(#263));
#208=EDGE_LOOP('',(#264));
#209=EDGE_LOOP('',(#265));
#210=EDGE_LOOP('',(#266));
#211=EDGE_LOOP('',(#267));
#212=EDGE_LOOP('',(#268));
#213=EDGE_LOOP('',(#269));
#214=EDGE_LOOP('',(#270));
#215=EDGE_LOOP('',(#271));
#216=EDGE_LOOP('',(#272));
#217=EDGE_LOOP('',(#273));
#218=EDGE_LOOP('',(#274));
#219=EDGE_LOOP('',(#275));
#220=EDGE_LOOP('',(#276));
#221=EDGE_LOOP('',(#277));
#222=EDGE_LOOP('',(#278));
#223=EDGE_LOOP('',(#279));
#224=EDGE_LOOP('',(#280));
#225=EDGE_LOOP('',(#281));
#226=EDGE_LOOP('',(#282));
#227=EDGE_LOOP('',(#283));
#228=EDGE_LOOP('',(#284));
#229=EDGE_LOOP('',(#285));
#230=EDGE_LOOP('',(#286));
#231=EDGE_LOOP('',(#287));
#232=EDGE_LOOP('',(#288));
#233=EDGE_LOOP('',(#289));
#234=EDGE_LOOP('',(#290));
#235=ORIENTED_EDGE('',*,*,#319,.T.);
#236=ORIENTED_EDGE('',*,*,#320,.T.);
#237=ORIENTED_EDGE('',*,*,#321,.T.);
#238=ORIENTED_EDGE('',*,*,#319,.F.);
#239=ORIENTED_EDGE('',*,*,#322,.T.);
#240=ORIENTED_EDGE('',*,*,#321,.F.);
#241=ORIENTED_EDGE('',*,*,#323,.T.);
#242=ORIENTED_EDGE('',*,*,#322,.F.);
#243=ORIENTED_EDGE('',*,*,#324,.T.);
#244=ORIENTED_EDGE('',*,*,#323,.F.);
#245=ORIENTED_EDGE('',*,*,#325,.T.);
#246=ORIENTED_EDGE('',*,*,#324,.F.);
#247=ORIENTED_EDGE('',*,*,#326,.T.);
#248=ORIENTED_EDGE('',*,*,#325,.F.);
#249=ORIENTED_EDGE('',*,*,#327,.T.);
#250=ORIENTED_EDGE('',*,*,#326,.F.);
#251=ORIENTED_EDGE('',*,*,#328,.T.);
#252=ORIENTED_EDGE('',*,*,#327,.F.);
#253=ORIENTED_EDGE('',*,*,#329,.T.);
#254=ORIENTED_EDGE('',*,*,#328,.F.);
#255=ORIENTED_EDGE('',*,*,#330,.T.);
#256=ORIENTED_EDGE('',*,*,#329,.F.);
#257=ORIENTED_EDGE('',*,*,#331,.T.);
#258=ORIENTED_EDGE('',*,*,#330,.F.);
#259=ORIENTED_EDGE('',*,*,#320,.F.);
#260=ORIENTED_EDGE('',*,*,#332,.T.);
#261=ORIENTED_EDGE('',*,*,#331,.F.);
#262=ORIENTED_EDGE('',*,*,#333,.T.);
#263=ORIENTED_EDGE('',*,*,#332,.F.);
#264=ORIENTED_EDGE('',*,*,#334,.T.);
#265=ORIENTED_EDGE('',*,*,#333,.F.);
#266=ORIENTED_EDGE('',*,*,#335,.T.);
#267=ORIENTED_EDGE('',*,*,#334,.F.);
#268=ORIENTED_EDGE('',*,*,#336,.T.);
#269=ORIENTED_EDGE('',*,*,#335,.F.);
#270=ORIENTED_EDGE('',*,*,#337,.T.);
#271=ORIENTED_EDGE('',*,*,#336,.F.);
#272=ORIENTED_EDGE('',*,*,#338,.T.);
#273=ORIENTED_EDGE('',*,*,#337,.F.);
#274=ORIENTED_EDGE('',*,*,#338,.F.);
#275=ORIENTED_EDGE('',*,*,#339,.F.);
#276=ORIENTED_EDGE('',*,*,#340,.T.);
#277=ORIENTED_EDGE('',*,*,#341,.F.);
#278=ORIENTED_EDGE('',*,*,#342,.F.);
#279=ORIENTED_EDGE('',*,*,#343,.T.);
#280=ORIENTED_EDGE('',*,*,#340,.F.);
#281=ORIENTED_EDGE('',*,*,#344,.T.);
#282=ORIENTED_EDGE('',*,*,#343,.F.);
#283=ORIENTED_EDGE('',*,*,#345,.T.);
#284=ORIENTED_EDGE('',*,*,#344,.F.);
#285=ORIENTED_EDGE('',*,*,#342,.T.);
#286=ORIENTED_EDGE('',*,*,#345,.F.);
#287=ORIENTED_EDGE('',*,*,#339,.T.);
#288=ORIENTED_EDGE('',*,*,#346,.F.);
#289=ORIENTED_EDGE('',*,*,#341,.T.);
#290=ORIENTED_EDGE('',*,*,#346,.T.);
#291=VERTEX_POINT('',#540);
#292=VERTEX_POINT('',#542);
#293=VERTEX_POINT('',#545);
#294=VERTEX_POINT('',#548);
#295=VERTEX_POINT('',#551);
#296=VERTEX_POINT('',#554);
#297=VERTEX_POINT('',#557);
#298=VERTEX_POINT('',#560);
#299=VERTEX_POINT('',#563);
#300=VERTEX_POINT('',#566);
#301=VERTEX_POINT('',#569);
#302=VERTEX_POINT('',#572);
#303=VERTEX_POINT('',#575);
#304=VERTEX_POINT('',#579);
#305=VERTEX_POINT('',#582);
#306=VERTEX_POINT('',#585);
#307=VERTEX_POINT('',#588);
#308=VERTEX_POINT('',#591);
#309=VERTEX_POINT('',#594);
#310=VERTEX_POINT('',#597);
#311=VERTEX_POINT('',#601);
#312=VERTEX_POINT('',#628);
#313=VERTEX_POINT('',#631);
#314=VERTEX_POINT('',#633);
#315=VERTEX_POINT('',#637);
#316=VERTEX_POINT('',#641);
#317=VERTEX_POINT('',#651);
#318=VERTEX_POINT('',#663);
#319=EDGE_CURVE('',#291,#291,#347,.T.);
#320=EDGE_CURVE('',#292,#292,#348,.T.);
#321=EDGE_CURVE('',#293,#293,#349,.T.);
#322=EDGE_CURVE('',#294,#294,#350,.T.);
#323=EDGE_CURVE('',#295,#295,#351,.T.);
#324=EDGE_CURVE('',#296,#296,#352,.T.);
#325=EDGE_CURVE('',#297,#297,#353,.T.);
#326=EDGE_CURVE('',#298,#298,#354,.T.);
#327=EDGE_CURVE('',#299,#299,#355,.T.);
#328=EDGE_CURVE('',#300,#300,#356,.T.);
#329=EDGE_CURVE('',#301,#301,#357,.T.);
#330=EDGE_CURVE('',#302,#302,#358,.T.);
#331=EDGE_CURVE('',#303,#303,#359,.T.);
#332=EDGE_CURVE('',#304,#304,#360,.T.);
#333=EDGE_CURVE('',#305,#305,#361,.T.);
#334=EDGE_CURVE('',#306,#306,#362,.T.);
#335=EDGE_CURVE('',#307,#307,#363,.T.);
#336=EDGE_CURVE('',#308,#308,#364,.T.);
#337=EDGE_CURVE('',#309,#309,#365,.T.);
#338=EDGE_CURVE('',#310,#310,#366,.T.);
#339=EDGE_CURVE('',#311,#311,#367,.T.);
#340=EDGE_CURVE('',#312,#312,#46,.T.);
#341=EDGE_CURVE('',#313,#313,#368,.T.);
#342=EDGE_CURVE('',#314,#314,#369,.T.);
#343=EDGE_CURVE('',#315,#315,#370,.T.);
#344=EDGE_CURVE('',#316,#316,#371,.T.);
#345=EDGE_CURVE('',#317,#317,#372,.T.);
#346=EDGE_CURVE('',#318,#318,#373,.T.);
#347=CIRCLE('',#375,12.2499999999998);
#348=CIRCLE('',#376,11.2499999999998);
#349=CIRCLE('',#378,12.2499999999998);
#350=CIRCLE('',#380,12.3103073792139);
#351=CIRCLE('',#382,12.5);
#352=CIRCLE('',#384,12.5);
#353=CIRCLE('',#386,12.2636296694841);
#354=CIRCLE('',#388,12.2499999999998);
#355=CIRCLE('',#390,12.2499999999998);
#356=CIRCLE('',#392,12.7056692403838);
#357=CIRCLE('',#394,13.5);
#358=CIRCLE('',#396,16.3);
#359=CIRCLE('',#398,16.9999999999999);
#360=CIRCLE('',#401,17.);
#361=CIRCLE('',#403,16.5913367026953);
#362=CIRCLE('',#405,10.6811054955078);
#363=CIRCLE('',#407,10.);
#364=CIRCLE('',#409,10.);
#365=CIRCLE('',#411,9.82955229505092);
#366=CIRCLE('',#413,8.83092276029635);
#367=CIRCLE('',#416,0.0500000000881607);
#368=CIRCLE('',#419,5.45494883507458);
#369=CIRCLE('',#420,10.1242000294335);
#370=CIRCLE('',#421,9.89484900562518);
#371=CIRCLE('',#422,10.3005869000405);
#372=CIRCLE('',#423,10.4999823183209);
#373=CIRCLE('',#424,5.20347083427041);
#374=AXIS2_PLACEMENT_3D('',#538,#425,#426);
#375=AXIS2_PLACEMENT_3D('',#539,#427,#428);
#376=AXIS2_PLACEMENT_3D('',#541,#429,#430);
#377=AXIS2_PLACEMENT_3D('',#543,#431,#432);
#378=AXIS2_PLACEMENT_3D('',#544,#433,#434);
#379=AXIS2_PLACEMENT_3D('',#546,#435,#436);
#380=AXIS2_PLACEMENT_3D('',#547,#437,#438);
#381=AXIS2_PLACEMENT_3D('',#549,#439,#440);
#382=AXIS2_PLACEMENT_3D('',#550,#441,#442);
#383=AXIS2_PLACEMENT_3D('',#552,#443,#444);
#384=AXIS2_PLACEMENT_3D('',#553,#445,#446);
#385=AXIS2_PLACEMENT_3D('',#555,#447,#448);
#386=AXIS2_PLACEMENT_3D('',#556,#449,#450);
#387=AXIS2_PLACEMENT_3D('',#558,#451,#452);
#388=AXIS2_PLACEMENT_3D('',#559,#453,#454);
#389=AXIS2_PLACEMENT_3D('',#561,#455,#456);
#390=AXIS2_PLACEMENT_3D('',#562,#457,#458);
#391=AXIS2_PLACEMENT_3D('',#564,#459,#460);
#392=AXIS2_PLACEMENT_3D('',#565,#461,#462);
#393=AXIS2_PLACEMENT_3D('',#567,#463,#464);
#394=AXIS2_PLACEMENT_3D('',#568,#465,#466);
#395=AXIS2_PLACEMENT_3D('',#570,#467,#468);
#396=AXIS2_PLACEMENT_3D('',#571,#469,#470);
#397=AXIS2_PLACEMENT_3D('',#573,#471,#472);
#398=AXIS2_PLACEMENT_3D('',#574,#473,#474);
#399=AXIS2_PLACEMENT_3D('',#576,#475,#476);
#400=AXIS2_PLACEMENT_3D('',#577,#477,#478);
#401=AXIS2_PLACEMENT_3D('',#578,#479,#480);
#402=AXIS2_PLACEMENT_3D('',#580,#481,#482);
#403=AXIS2_PLACEMENT_3D('',#581,#483,#484);
#404=AXIS2_PLACEMENT_3D('',#583,#485,#486);
#405=AXIS2_PLACEMENT_3D('',#584,#487,#488);
#406=AXIS2_PLACEMENT_3D('',#586,#489,#490);
#407=AXIS2_PLACEMENT_3D('',#587,#491,#492);
#408=AXIS2_PLACEMENT_3D('',#589,#493,#494);
#409=AXIS2_PLACEMENT_3D('',#590,#495,#496);
#410=AXIS2_PLACEMENT_3D('',#592,#497,#498);
#411=AXIS2_PLACEMENT_3D('',#593,#499,#500);
#412=AXIS2_PLACEMENT_3D('',#595,#501,#502);
#413=AXIS2_PLACEMENT_3D('',#596,#503,#504);
#414=AXIS2_PLACEMENT_3D('',#598,#505,#506);
#415=AXIS2_PLACEMENT_3D('',#599,#507,#508);
#416=AXIS2_PLACEMENT_3D('',#600,#509,#510);
#417=AXIS2_PLACEMENT_3D('',#602,#511,#512);
#418=AXIS2_PLACEMENT_3D('',#629,#513,#514);
#419=AXIS2_PLACEMENT_3D('',#630,#515,#516);
#420=AXIS2_PLACEMENT_3D('',#632,#517,#518);
#421=AXIS2_PLACEMENT_3D('',#636,#521,#522);
#422=AXIS2_PLACEMENT_3D('',#640,#525,#526);
#423=AXIS2_PLACEMENT_3D('',#650,#528,#529);
#424=AXIS2_PLACEMENT_3D('',#662,#533,#534);
#425=DIRECTION('',(0.,0.,1.));
#426=DIRECTION('',(1.,0.,0.));
#427=DIRECTION('',(1.,0.,0.));
#428=DIRECTION('',(0.,0.,1.));
#429=DIRECTION('',(-1.,0.,0.));
#430=DIRECTION('',(0.,0.,1.));
#431=DIRECTION('',(-1.,0.,0.));
#432=DIRECTION('',(0.,0.,1.));
#433=DIRECTION('',(1.,0.,0.));
#434=DIRECTION('',(0.,0.,1.));
#435=DIRECTION('',(-1.,0.,0.));
#436=DIRECTION('',(0.,0.,1.));
#437=DIRECTION('',(1.,0.,0.));
#438=DIRECTION('',(0.,0.,1.));
#439=DIRECTION('',(-1.,0.,0.));
#440=DIRECTION('',(0.,0.,1.));
#441=DIRECTION('',(1.,0.,0.));
#442=DIRECTION('',(0.,0.,1.));
#443=DIRECTION('',(-1.,0.,0.));
#444=DIRECTION('',(-7.37629841135493E-17,0.,1.));
#445=DIRECTION('',(1.,0.,0.));
#446=DIRECTION('',(0.,0.,1.));
#447=DIRECTION('',(-1.,0.,0.));
#448=DIRECTION('',(0.,0.,1.));
#449=DIRECTION('',(1.,0.,0.));
#450=DIRECTION('',(0.,0.,1.));
#451=DIRECTION('',(1.,0.,0.));
#452=DIRECTION('',(-1.48452427559284E-16,0.,-1.));
#453=DIRECTION('',(1.,0.,0.));
#454=DIRECTION('',(0.,0.,1.));
#455=DIRECTION('',(-1.,0.,0.));
#456=DIRECTION('',(0.,0.,1.));
#457=DIRECTION('',(1.,0.,0.));
#458=DIRECTION('',(0.,0.,1.));
#459=DIRECTION('',(-1.,0.,0.));
#460=DIRECTION('',(0.,0.,1.));
#461=DIRECTION('',(1.,0.,0.));
#462=DIRECTION('',(0.,0.,1.));
#463=DIRECTION('',(-1.,0.,0.));
#464=DIRECTION('',(0.,0.,1.));
#465=DIRECTION('',(1.,0.,0.));
#466=DIRECTION('',(0.,0.,1.));
#467=DIRECTION('',(1.,0.,0.));
#468=DIRECTION('',(-5.84075800774509E-18,0.,-1.));
#469=DIRECTION('',(1.,0.,0.));
#470=DIRECTION('',(0.,0.,1.));
#471=DIRECTION('',(-1.,0.,0.));
#472=DIRECTION('',(0.,0.,1.));
#473=DIRECTION('',(1.,0.,0.));
#474=DIRECTION('',(0.,0.,1.));
#475=DIRECTION('',(-1.,0.,0.));
#476=DIRECTION('',(0.,0.,1.));
#477=DIRECTION('',(-1.,0.,0.));
#478=DIRECTION('',(0.,0.,1.));
#479=DIRECTION('',(1.,0.,0.));
#480=DIRECTION('',(0.,0.,1.));
#481=DIRECTION('',(-1.,0.,0.));
#482=DIRECTION('',(0.,0.,1.));
#483=DIRECTION('',(1.,0.,0.));
#484=DIRECTION('',(0.,0.,1.));
#485=DIRECTION('',(-1.,0.,0.));
#486=DIRECTION('',(0.,0.,1.));
#487=DIRECTION('',(1.,0.,0.));
#488=DIRECTION('',(0.,0.,1.));
#489=DIRECTION('',(1.,0.,0.));
#490=DIRECTION('',(1.85060405093606E-16,0.,-1.));
#491=DIRECTION('',(1.,0.,0.));
#492=DIRECTION('',(0.,0.,1.));
#493=DIRECTION('',(-1.,0.,0.));
#494=DIRECTION('',(0.,0.,1.));
#495=DIRECTION('',(1.,0.,0.));
#496=DIRECTION('',(0.,0.,1.));
#497=DIRECTION('',(-1.,0.,0.));
#498=DIRECTION('',(0.,0.,1.));
#499=DIRECTION('',(1.,0.,0.));
#500=DIRECTION('',(0.,0.,1.));
#501=DIRECTION('',(1.,0.,0.));
#502=DIRECTION('',(-1.66779542157003E-15,0.,-1.));
#503=DIRECTION('',(1.,0.,0.));
#504=DIRECTION('',(0.,0.,1.));
#505=DIRECTION('',(-1.,0.,0.));
#506=DIRECTION('',(0.,0.,1.));
#507=DIRECTION('',(1.,0.,0.));
#508=DIRECTION('',(0.,0.,-1.));
#509=DIRECTION('',(1.,0.,0.));
#510=DIRECTION('',(0.,0.,-1.));
#511=DIRECTION('',(1.,0.,0.));
#512=DIRECTION('',(0.,0.,-1.));
#513=DIRECTION('',(1.,0.,0.));
#514=DIRECTION('',(0.,0.,-1.));
#515=DIRECTION('',(-1.,0.,0.));
#516=DIRECTION('',(0.,0.,-1.));
#517=DIRECTION('',(1.,0.,0.));
#518=DIRECTION('',(0.,0.,-1.));
#519=DIRECTION('',(-0.0383878090875221,0.993788849599919,-0.104451417052757));
#520=DIRECTION('',(1.,0.,0.));
#521=DIRECTION('',(1.,0.,0.));
#522=DIRECTION('',(0.,0.,-1.));
#523=DIRECTION('',(0.0383878090875212,-0.993788849599919,0.104451417052757));
#524=DIRECTION('',(1.,0.,0.));
#525=DIRECTION('',(1.,0.,0.));
#526=DIRECTION('',(0.,0.,-1.));
#527=DIRECTION('',(1.,0.,0.));
#528=DIRECTION('',(1.,0.,0.));
#529=DIRECTION('',(0.,0.,-1.));
#530=DIRECTION('',(-0.999262916410621,-0.038177516652757,0.00401261869212994));
#531=DIRECTION('',(1.,0.,0.));
#532=DIRECTION('',(1.,0.,0.));
#533=DIRECTION('',(1.,0.,0.));
#534=DIRECTION('',(0.,0.,-1.));
#535=DIRECTION('',(0.0662739004000007,-0.99780146829205,-1.29945458950031E-18));
#536=DIRECTION('',(1.,0.,0.));
#537=DIRECTION('',(1.,0.,0.));
#538=CARTESIAN_POINT('',(0.,0.,0.));
#539=CARTESIAN_POINT('',(140.,0.,0.));
#540=CARTESIAN_POINT('',(140.,0.,12.2499999999998));
#541=CARTESIAN_POINT('',(141.,0.,0.));
#542=CARTESIAN_POINT('',(141.,0.,11.2499999999998));
#543=CARTESIAN_POINT('',(140.,0.,0.));
#544=CARTESIAN_POINT('',(138.176326980708,0.,0.));
#545=CARTESIAN_POINT('',(138.176326980708,0.,12.2499999999998));
#546=CARTESIAN_POINT('',(0.,0.,0.));
#547=CARTESIAN_POINT('',(137.834306837383,0.,0.));
#548=CARTESIAN_POINT('',(137.834306837383,0.,12.3103073792139));
#549=CARTESIAN_POINT('',(138.176326980708,0.,0.));
#550=CARTESIAN_POINT('',(137.313130645136,0.,0.));
#551=CARTESIAN_POINT('',(137.313130645136,0.,12.5));
#552=CARTESIAN_POINT('',(137.834306837383,0.,0.));
#553=CARTESIAN_POINT('',(87.,0.,0.));
#554=CARTESIAN_POINT('',(87.,0.,12.5));
#555=CARTESIAN_POINT('',(0.,0.,0.));
#556=CARTESIAN_POINT('',(86.1178539171131,0.,0.));
#557=CARTESIAN_POINT('',(86.1178539171131,0.,12.2636296694841));
#558=CARTESIAN_POINT('',(87.,0.,0.));
#559=CARTESIAN_POINT('',(86.0143262990721,0.,0.));
#560=CARTESIAN_POINT('',(86.0143262990721,0.,12.2499999999998));
#561=CARTESIAN_POINT('',(86.0143262990721,0.,0.));
#562=CARTESIAN_POINT('',(85.2844713195104,0.,0.));
#563=CARTESIAN_POINT('',(85.2844713195104,0.,12.2499999999998));
#564=CARTESIAN_POINT('',(0.,0.,0.));
#565=CARTESIAN_POINT('',(84.8883640920138,0.,0.));
#566=CARTESIAN_POINT('',(84.8883640920138,0.,12.7056692403838));
#567=CARTESIAN_POINT('',(85.2844713195104,0.,0.));
#568=CARTESIAN_POINT('',(85.,0.,0.));
#569=CARTESIAN_POINT('',(85.,0.,13.5));
#570=CARTESIAN_POINT('',(84.8883640920138,0.,0.));
#571=CARTESIAN_POINT('',(85.,0.,0.));
#572=CARTESIAN_POINT('',(85.,0.,16.3));
#573=CARTESIAN_POINT('',(85.,13.5,0.));
#574=CARTESIAN_POINT('',(84.5872983346209,0.,0.));
#575=CARTESIAN_POINT('',(84.5872983346209,0.,16.9999999999999));
#576=CARTESIAN_POINT('',(84.2,0.,0.));
#577=CARTESIAN_POINT('',(141.,17.5,0.));
#578=CARTESIAN_POINT('',(80.8110474240499,0.,0.));
#579=CARTESIAN_POINT('',(80.8110474240499,0.,17.));
#580=CARTESIAN_POINT('',(0.,0.,0.));
#581=CARTESIAN_POINT('',(79.2994343474777,0.,0.));
#582=CARTESIAN_POINT('',(79.2994343474777,0.,16.5913367026953));
#583=CARTESIAN_POINT('',(80.8110474240499,0.,0.));
#584=CARTESIAN_POINT('',(69.1676094208706,0.,0.));
#585=CARTESIAN_POINT('',(69.1676094208706,0.,10.6811054955078));
#586=CARTESIAN_POINT('',(79.2994343474777,0.,0.));
#587=CARTESIAN_POINT('',(66.6482542932501,0.,0.));
#588=CARTESIAN_POINT('',(66.6482542932501,0.,10.));
#589=CARTESIAN_POINT('',(66.6482542932501,0.,0.));
#590=CARTESIAN_POINT('',(5.,0.,0.));
#591=CARTESIAN_POINT('',(5.,0.,10.));
#592=CARTESIAN_POINT('',(0.,0.,0.));
#593=CARTESIAN_POINT('',(1.74766404375706,0.,0.));
#594=CARTESIAN_POINT('',(1.74766404375706,0.,9.82955229505092));
#595=CARTESIAN_POINT('',(5.,0.,0.));
#596=CARTESIAN_POINT('',(0.799999999999998,0.,0.));
#597=CARTESIAN_POINT('',(0.799999999999998,0.,8.83092276029635));
#598=CARTESIAN_POINT('',(1.8,0.,0.));
#599=CARTESIAN_POINT('',(0.799999999999999,8.83092276029635,0.));
#600=CARTESIAN_POINT('',(0.346260750048884,0.,0.));
#601=CARTESIAN_POINT('',(0.346260750048884,0.,-0.0500000000881607));
#602=CARTESIAN_POINT('',(0.346260750048884,0.,0.));
#603=CARTESIAN_POINT('',(6.0457402150298,-8.67361737988404E-16,-4.73147418627458));
#604=CARTESIAN_POINT('',(6.0457402150298,1.25417157755062,-4.73147418627458));
#605=CARTESIAN_POINT('',(6.0457402150298,2.45908946004853,-4.23185082998052));
#606=CARTESIAN_POINT('',(6.0457402150298,3.34565748212385,-3.34565748212385));
#607=CARTESIAN_POINT('',(6.0457402150298,4.23222550419918,-2.45946413426719));
#608=CARTESIAN_POINT('',(6.0457402150298,4.73120925159183,-1.25353158609845));
#609=CARTESIAN_POINT('',(6.0457402150298,4.73147418627458,0.));
#610=CARTESIAN_POINT('',(6.0457402150298,4.73173912095732,1.25353158609845));
#611=CARTESIAN_POINT('',(6.0457402150298,4.2318508299785,2.45908946005));
#612=CARTESIAN_POINT('',(6.0457402150298,3.34565748212386,3.34565748212385));
#613=CARTESIAN_POINT('',(6.0457402150298,2.45946413426921,4.2322255041977));
#614=CARTESIAN_POINT('',(6.0457402150298,1.25353158610058,4.73120925159292));
#615=CARTESIAN_POINT('',(6.0457402150298,0.,4.73147418627458));
#616=CARTESIAN_POINT('',(6.0457402150298,-1.25353158610058,4.73173912095624));
#617=CARTESIAN_POINT('',(6.0457402150298,-2.45908946005007,4.23185082997844));
#618=CARTESIAN_POINT('',(6.0457402150298,-3.34565748212385,3.34565748212385));
#619=CARTESIAN_POINT('',(6.0457402150298,-4.23222550419764,2.45946413426927));
#620=CARTESIAN_POINT('',(6.0457402150298,-4.73120925159292,1.25353158610249));
#621=CARTESIAN_POINT('',(6.0457402150298,-4.73147418627458,3.46944695195361E-15));
#622=CARTESIAN_POINT('',(6.0457402150298,-4.73173912095624,-1.25353158610248));
#623=CARTESIAN_POINT('',(6.0457402150298,-4.23185082997991,-2.45908946004914));
#624=CARTESIAN_POINT('',(6.0457402150298,-3.34565748212385,-3.34565748212385));
#625=CARTESIAN_POINT('',(6.0457402150298,-2.4594641342678,-4.23222550419857));
#626=CARTESIAN_POINT('',(6.0457402150298,-1.2555576661049,-4.73147418627458));
#627=CARTESIAN_POINT('',(6.0457402150298,-8.67361737988404E-16,-4.73147418627458));
#628=CARTESIAN_POINT('',(6.0457402150298,-8.67361737988404E-16,-4.73147418627458));
#629=CARTESIAN_POINT('',(6.0457402150298,-4.73147418627458,3.25260651745651E-15));
#630=CARTESIAN_POINT('',(0.0695752344788605,0.,0.));
#631=CARTESIAN_POINT('',(0.0695752344788605,0.,-5.45494883507458));
#632=CARTESIAN_POINT('',(0.250343557560551,0.,0.));
#633=CARTESIAN_POINT('',(0.250343557560551,0.,-10.1242000294335));
#634=CARTESIAN_POINT('',(0.250343557560551,-9.93084556469094,1.96919592886008));
#635=CARTESIAN_POINT('',(5.,0.,0.));
#636=CARTESIAN_POINT('',(6.24592105602428,0.,0.));
#637=CARTESIAN_POINT('',(6.24592105602428,0.,-9.89484900562518));
#638=CARTESIAN_POINT('',(6.0457402150298,-4.51947148667445,1.40043759465365));
#639=CARTESIAN_POINT('',(5.,0.,0.));
#640=CARTESIAN_POINT('',(5.86863260592566,0.,0.));
#641=CARTESIAN_POINT('',(5.86863260592566,0.,-10.3005869000405));
#642=CARTESIAN_POINT('',(6.24592105602428,-9.7017804647744,1.9451202167073));
#643=CARTESIAN_POINT('',(6.24789413541389,-9.75285981374963,1.95048887261921));
#644=CARTESIAN_POINT('',(6.2317060666647,-9.85734322268461,1.96147052141327));
#645=CARTESIAN_POINT('',(6.15001497221396,-9.98978773242197,1.97539100032436));
#646=CARTESIAN_POINT('',(6.0235006793888,-10.0809528836112,1.98497284382298));
#647=CARTESIAN_POINT('',(5.91999331423496,-10.1050206891271,1.98750247211625));
#648=CARTESIAN_POINT('',(5.86863260592566,-10.1069829597813,1.98770871507275));
#649=CARTESIAN_POINT('',(5.,0.,0.));
#650=CARTESIAN_POINT('',(0.657778021189817,0.,0.));
#651=CARTESIAN_POINT('',(0.657778021189817,0.,-10.4999823183209));
#652=CARTESIAN_POINT('',(5.86863260592566,-10.1069829597813,1.98770871507275));
#653=CARTESIAN_POINT('',(5.,0.,0.));
#654=CARTESIAN_POINT('',(0.657778021189816,-10.3060671891836,2.00863331075752));
#655=CARTESIAN_POINT('',(0.606417312880513,-10.3080294598379,2.00883955371403));
#656=CARTESIAN_POINT('',(0.501358380119367,-10.291930071023,2.0071474397644));
#657=CARTESIAN_POINT('',(0.368184328995718,-10.2106864889352,1.99860839519881));
#658=CARTESIAN_POINT('',(0.276517014667269,-10.0848652546435,1.98538405058841));
#659=CARTESIAN_POINT('',(0.252316636950167,-9.98192491366617,1.97456458477199));
#660=CARTESIAN_POINT('',(0.250343557560551,-9.93084556469094,1.96919592886008));
#661=CARTESIAN_POINT('',(5.,0.,0.));
#662=CARTESIAN_POINT('',(0.000662357397474694,0.,0.));
#663=CARTESIAN_POINT('',(0.000662357397474694,0.,-5.20347083427041));
#664=CARTESIAN_POINT('',(0.000662357397474354,5.2032306044517,0.0499999999999913));
#665=CARTESIAN_POINT('',(5.,0.,0.));
#666=CARTESIAN_POINT('',(0.366427470506965,5.62104072730979,0.0499999999999911));
#667=CARTESIAN_POINT('',(0.315141878575238,5.61763434205215,0.0499999999999911));
#668=CARTESIAN_POINT('',(0.212350583589879,5.59055330444329,0.0499999999999912));
#669=CARTESIAN_POINT('',(0.0884451184181022,5.49538924344435,0.0499999999999912));
#670=CARTESIAN_POINT('',(0.0105043118392624,5.35998616565406,0.0499999999999913));
#671=CARTESIAN_POINT('',(-0.00274402786016281,5.25451619638343,0.0499999999999913));
#672=CARTESIAN_POINT('',(0.000662357397474111,5.2032306044517,0.0499999999999913));
#673=CARTESIAN_POINT('',(5.,0.,0.));
#674=(
GEOMETRIC_REPRESENTATION_CONTEXT(3)
GLOBAL_UNCERTAINTY_ASSIGNED_CONTEXT((#675))
GLOBAL_UNIT_ASSIGNED_CONTEXT((#681,#677,#676))
REPRESENTATION_CONTEXT('ATUM-21XD3-SP- 060204-light',
'TOP_LEVEL_ASSEMBLY_PART')
);
#675=UNCERTAINTY_MEASURE_WITH_UNIT(LENGTH_MEASURE(0.0508),#681,
'DISTANCE_ACCURACY_VALUE','Maximum Tolerance applied to model');
#676=(
NAMED_UNIT(*)
SI_UNIT($,.STERADIAN.)
SOLID_ANGLE_UNIT()
);
#677=(
CONVERSION_BASED_UNIT('DEGREE',#679)
NAMED_UNIT(#678)
PLANE_ANGLE_UNIT()
);
#678=DIMENSIONAL_EXPONENTS(0.,0.,0.,0.,0.,0.,0.);
#679=PLANE_ANGLE_MEASURE_WITH_UNIT(PLANE_ANGLE_MEASURE(0.0174532925),#680);
#680=(
NAMED_UNIT(*)
PLANE_ANGLE_UNIT()
SI_UNIT($,.RADIAN.)
);
#681=(
LENGTH_UNIT()
NAMED_UNIT(*)
SI_UNIT(.MILLI.,.METRE.)
);
ENDSEC;
END-ISO-10303-21;
