ISO-10303-21;
HEADER;
/* Generated by software containing ST-Developer
 * from STEP Tools, Inc. (www.steptools.com) 
 */
/* OPTION: using custom schema-name function */

FILE_DESCRIPTION(
/* description */ (''),
/* implementation_level */ '2;1');

FILE_NAME(
/* name */ 'ATUM-25XD3-SPGT-07T308-light.stp',
/* time_stamp */ '2023-10-02T19:16:52+03:00',
/* author */ (''),
/* organization */ (''),
/* preprocessor_version */ 'ST-DEVELOPER v19.4',
/* originating_system */ 'SIEMENS PLM Software NX2306.3001',
/* authorisation */ '');

FILE_SCHEMA (('AUTOMOTIVE_DESIGN { 1 0 10303 214 3 1 1 1 }'));
ENDSEC;

DATA;
#10=SHAPE_REPRESENTATION_RELATIONSHIP('None',
'relationship between STEP-ATUM 22XD3 SPGT 07T308-None and STEP-ATUM 2
2XD3 SPGT 07T308-None',#22,#11);
#11=ADVANCED_BREP_SHAPE_REPRESENTATION(
'STEP-ATUM 22XD3 SPGT 07T308-None',(#72,#73),#714);
#12=SHAPE_DEFINITION_REPRESENTATION(#13,#22);
#13=PRODUCT_DEFINITION_SHAPE('','',#14);
#14=PRODUCT_DEFINITION(' ','',#16,#15);
#15=PRODUCT_DEFINITION_CONTEXT('part definition',#21,'design');
#16=PRODUCT_DEFINITION_FORMATION_WITH_SPECIFIED_SOURCE(' ',' ',#18,
 .NOT_KNOWN.);
#17=PRODUCT_RELATED_PRODUCT_CATEGORY('part','',(#18));
#18=PRODUCT('STEP-ATUM 22XD3 SPGT 07T308','STEP-ATUM 22XD3 SPGT 07T308',
' ',(#19));
#19=PRODUCT_CONTEXT(' ',#21,'mechanical');
#20=APPLICATION_PROTOCOL_DEFINITION('international standard',
'automotive_design',2010,#21);
#21=APPLICATION_CONTEXT(
'core data for automotive mechanical design processes');
#22=SHAPE_REPRESENTATION('STEP-ATUM 22XD3 SPGT 07T308-None',(#415),#714);
#23=DRAUGHTING_PRE_DEFINED_COLOUR('yellow');
#24=SURFACE_OF_REVOLUTION('',#44,#34);
#25=SURFACE_OF_REVOLUTION('',#45,#35);
#26=SURFACE_OF_REVOLUTION('',#407,#36);
#27=SURFACE_OF_REVOLUTION('',#46,#37);
#28=SURFACE_OF_REVOLUTION('',#409,#38);
#29=SURFACE_OF_REVOLUTION('',#47,#39);
#30=SURFACE_OF_REVOLUTION('',#411,#40);
#31=SURFACE_OF_REVOLUTION('',#48,#41);
#32=SURFACE_OF_REVOLUTION('',#414,#42);
#33=SURFACE_OF_REVOLUTION('',#49,#43);
#34=AXIS1_PLACEMENT('',#681,#571);
#35=AXIS1_PLACEMENT('',#687,#577);
#36=AXIS1_PLACEMENT('',#691,#582);
#37=AXIS1_PLACEMENT('',#695,#586);
#38=AXIS1_PLACEMENT('',#697,#589);
#39=AXIS1_PLACEMENT('',#699,#591);
#40=AXIS1_PLACEMENT('',#703,#596);
#41=AXIS1_PLACEMENT('',#707,#600);
#42=AXIS1_PLACEMENT('',#711,#605);
#43=AXIS1_PLACEMENT('',#713,#607);
#44=LINE('',#680,#50);
#45=LINE('',#686,#51);
#46=LINE('',#694,#52);
#47=LINE('',#698,#53);
#48=LINE('',#706,#54);
#49=LINE('',#712,#55);
#50=VECTOR('',#570,4.94662766205124);
#51=VECTOR('',#576,5.55716431859138);
#52=VECTOR('',#585,6.34000000000001);
#53=VECTOR('',#590,5.02757895315117);
#54=VECTOR('',#599,0.157429222945495);
#55=VECTOR('',#606,0.687117381304986);
#56=PRESENTATION_LAYER_ASSIGNMENT('1','Layer 1',(#72,#73));
#57=STYLED_ITEM('',(#59),#72);
#58=STYLED_ITEM('',(#60),#73);
#59=PRESENTATION_STYLE_ASSIGNMENT((#61));
#60=PRESENTATION_STYLE_ASSIGNMENT((#62));
#61=SURFACE_STYLE_USAGE(.BOTH.,#63);
#62=SURFACE_STYLE_USAGE(.BOTH.,#64);
#63=SURFACE_SIDE_STYLE('',(#65));
#64=SURFACE_SIDE_STYLE('',(#66));
#65=SURFACE_STYLE_FILL_AREA(#67);
#66=SURFACE_STYLE_FILL_AREA(#68);
#67=FILL_AREA_STYLE('',(#69));
#68=FILL_AREA_STYLE('',(#70));
#69=FILL_AREA_STYLE_COLOUR('',#71);
#70=FILL_AREA_STYLE_COLOUR('',#23);
#71=COLOUR_RGB('smoke gray',0.694117647058824,0.694117647058824,0.694117647058824);
#72=MANIFOLD_SOLID_BREP('',#74);
#73=MANIFOLD_SOLID_BREP('',#75);
#74=CLOSED_SHELL('',(#95,#96,#97,#98,#99,#100,#101,#102,#103,#104,#105,
#106,#107,#108,#109,#110,#111,#112,#113,#114,#115));
#75=CLOSED_SHELL('',(#116,#117,#118,#119,#120,#121,#122,#123,#124,#125,
#126,#127));
#76=FACE_OUTER_BOUND('',#218,.T.);
#77=FACE_OUTER_BOUND('',#233,.T.);
#78=FACE_OUTER_BOUND('',#234,.T.);
#79=FACE_OUTER_BOUND('',#235,.T.);
#80=PLANE('',#438);
#81=PLANE('',#441);
#82=PLANE('',#456);
#83=PLANE('',#458);
#84=PLANE('',#460);
#85=CONICAL_SURFACE('',#424,12.3103073792139,20.0000000000001);
#86=CONICAL_SURFACE('',#428,12.5,15.0000000000001);
#87=CONICAL_SURFACE('',#436,12.7056692403838,81.9999999999991);
#88=CONICAL_SURFACE('',#447,16.7692307692308,22.6198649480404);
#89=CONICAL_SURFACE('',#453,12.,3.00000000000001);
#90=CYLINDRICAL_SURFACE('',#420,12.2500000000003);
#91=CYLINDRICAL_SURFACE('',#426,12.5);
#92=CYLINDRICAL_SURFACE('',#432,12.2499999999998);
#93=CYLINDRICAL_SURFACE('',#443,17.);
#94=CYLINDRICAL_SURFACE('',#451,12.);
#95=ADVANCED_FACE('',(#136,#137),#128,.T.);
#96=ADVANCED_FACE('',(#138,#139),#90,.T.);
#97=ADVANCED_FACE('',(#140,#141),#129,.F.);
#98=ADVANCED_FACE('',(#142,#143),#85,.T.);
#99=ADVANCED_FACE('',(#144,#145),#91,.T.);
#100=ADVANCED_FACE('',(#146,#147),#86,.T.);
#101=ADVANCED_FACE('',(#148,#149),#130,.F.);
#102=ADVANCED_FACE('',(#150,#151),#92,.T.);
#103=ADVANCED_FACE('',(#152,#153),#131,.F.);
#104=ADVANCED_FACE('',(#154,#155),#87,.F.);
#105=ADVANCED_FACE('',(#156,#157),#80,.F.);
#106=ADVANCED_FACE('',(#158,#159),#132,.T.);
#107=ADVANCED_FACE('',(#76),#81,.F.);
#108=ADVANCED_FACE('',(#160,#161),#93,.T.);
#109=ADVANCED_FACE('',(#162,#163),#133,.T.);
#110=ADVANCED_FACE('',(#164,#165),#88,.T.);
#111=ADVANCED_FACE('',(#166,#167),#134,.F.);
#112=ADVANCED_FACE('',(#168,#169),#94,.T.);
#113=ADVANCED_FACE('',(#170,#171),#89,.T.);
#114=ADVANCED_FACE('',(#172,#173),#135,.T.);
#115=ADVANCED_FACE('',(#77),#82,.F.);
#116=ADVANCED_FACE('',(#78),#83,.T.);
#117=ADVANCED_FACE('',(#79),#84,.F.);
#118=ADVANCED_FACE('',(#174,#175),#24,.T.);
#119=ADVANCED_FACE('',(#176,#177),#25,.T.);
#120=ADVANCED_FACE('',(#178,#179),#26,.T.);
#121=ADVANCED_FACE('',(#180,#181),#27,.T.);
#122=ADVANCED_FACE('',(#182,#183),#28,.T.);
#123=ADVANCED_FACE('',(#184,#185),#29,.T.);
#124=ADVANCED_FACE('',(#186,#187),#30,.T.);
#125=ADVANCED_FACE('',(#188,#189),#31,.T.);
#126=ADVANCED_FACE('',(#190,#191),#32,.T.);
#127=ADVANCED_FACE('',(#192,#193),#33,.T.);
#128=TOROIDAL_SURFACE('',#418,11.2500000000008,1.00000000000003);
#129=TOROIDAL_SURFACE('',#422,13.2499999999998,0.999999999999997);
#130=TOROIDAL_SURFACE('',#430,12.6499999999998,0.4);
#131=TOROIDAL_SURFACE('',#434,12.6499999999998,0.400000000000015);
#132=TOROIDAL_SURFACE('',#440,16.3,0.799999999999997);
#133=TOROIDAL_SURFACE('',#445,14.,3.);
#134=TOROIDAL_SURFACE('',#449,17.,5.);
#135=TOROIDAL_SURFACE('',#455,10.6149259573118,1.2);
#136=FACE_BOUND('',#194,.T.);
#137=FACE_BOUND('',#195,.T.);
#138=FACE_BOUND('',#196,.T.);
#139=FACE_BOUND('',#197,.T.);
#140=FACE_BOUND('',#198,.T.);
#141=FACE_BOUND('',#199,.T.);
#142=FACE_BOUND('',#200,.T.);
#143=FACE_BOUND('',#201,.T.);
#144=FACE_BOUND('',#202,.T.);
#145=FACE_BOUND('',#203,.T.);
#146=FACE_BOUND('',#204,.T.);
#147=FACE_BOUND('',#205,.T.);
#148=FACE_BOUND('',#206,.T.);
#149=FACE_BOUND('',#207,.T.);
#150=FACE_BOUND('',#208,.T.);
#151=FACE_BOUND('',#209,.T.);
#152=FACE_BOUND('',#210,.T.);
#153=FACE_BOUND('',#211,.T.);
#154=FACE_BOUND('',#212,.T.);
#155=FACE_BOUND('',#213,.T.);
#156=FACE_BOUND('',#214,.T.);
#157=FACE_BOUND('',#215,.T.);
#158=FACE_BOUND('',#216,.T.);
#159=FACE_BOUND('',#217,.T.);
#160=FACE_BOUND('',#219,.T.);
#161=FACE_BOUND('',#220,.T.);
#162=FACE_BOUND('',#221,.T.);
#163=FACE_BOUND('',#222,.T.);
#164=FACE_BOUND('',#223,.T.);
#165=FACE_BOUND('',#224,.T.);
#166=FACE_BOUND('',#225,.T.);
#167=FACE_BOUND('',#226,.T.);
#168=FACE_BOUND('',#227,.T.);
#169=FACE_BOUND('',#228,.T.);
#170=FACE_BOUND('',#229,.T.);
#171=FACE_BOUND('',#230,.T.);
#172=FACE_BOUND('',#231,.T.);
#173=FACE_BOUND('',#232,.T.);
#174=FACE_BOUND('',#236,.T.);
#175=FACE_BOUND('',#237,.T.);
#176=FACE_BOUND('',#238,.T.);
#177=FACE_BOUND('',#239,.T.);
#178=FACE_BOUND('',#240,.T.);
#179=FACE_BOUND('',#241,.T.);
#180=FACE_BOUND('',#242,.T.);
#181=FACE_BOUND('',#243,.T.);
#182=FACE_BOUND('',#244,.T.);
#183=FACE_BOUND('',#245,.T.);
#184=FACE_BOUND('',#246,.T.);
#185=FACE_BOUND('',#247,.T.);
#186=FACE_BOUND('',#248,.T.);
#187=FACE_BOUND('',#249,.T.);
#188=FACE_BOUND('',#250,.T.);
#189=FACE_BOUND('',#251,.T.);
#190=FACE_BOUND('',#252,.T.);
#191=FACE_BOUND('',#253,.T.);
#192=FACE_BOUND('',#254,.T.);
#193=FACE_BOUND('',#255,.T.);
#194=EDGE_LOOP('',(#256));
#195=EDGE_LOOP('',(#257));
#196=EDGE_LOOP('',(#258));
#197=EDGE_LOOP('',(#259));
#198=EDGE_LOOP('',(#260));
#199=EDGE_LOOP('',(#261));
#200=EDGE_LOOP('',(#262));
#201=EDGE_LOOP('',(#263));
#202=EDGE_LOOP('',(#264));
#203=EDGE_LOOP('',(#265));
#204=EDGE_LOOP('',(#266));
#205=EDGE_LOOP('',(#267));
#206=EDGE_LOOP('',(#268));
#207=EDGE_LOOP('',(#269));
#208=EDGE_LOOP('',(#270));
#209=EDGE_LOOP('',(#271));
#210=EDGE_LOOP('',(#272));
#211=EDGE_LOOP('',(#273));
#212=EDGE_LOOP('',(#274));
#213=EDGE_LOOP('',(#275));
#214=EDGE_LOOP('',(#276));
#215=EDGE_LOOP('',(#277));
#216=EDGE_LOOP('',(#278));
#217=EDGE_LOOP('',(#279));
#218=EDGE_LOOP('',(#280));
#219=EDGE_LOOP('',(#281));
#220=EDGE_LOOP('',(#282));
#221=EDGE_LOOP('',(#283));
#222=EDGE_LOOP('',(#284));
#223=EDGE_LOOP('',(#285));
#224=EDGE_LOOP('',(#286));
#225=EDGE_LOOP('',(#287));
#226=EDGE_LOOP('',(#288));
#227=EDGE_LOOP('',(#289));
#228=EDGE_LOOP('',(#290));
#229=EDGE_LOOP('',(#291));
#230=EDGE_LOOP('',(#292));
#231=EDGE_LOOP('',(#293));
#232=EDGE_LOOP('',(#294));
#233=EDGE_LOOP('',(#295));
#234=EDGE_LOOP('',(#296));
#235=EDGE_LOOP('',(#297));
#236=EDGE_LOOP('',(#298));
#237=EDGE_LOOP('',(#299));
#238=EDGE_LOOP('',(#300));
#239=EDGE_LOOP('',(#301));
#240=EDGE_LOOP('',(#302));
#241=EDGE_LOOP('',(#303));
#242=EDGE_LOOP('',(#304));
#243=EDGE_LOOP('',(#305));
#244=EDGE_LOOP('',(#306));
#245=EDGE_LOOP('',(#307));
#246=EDGE_LOOP('',(#308));
#247=EDGE_LOOP('',(#309));
#248=EDGE_LOOP('',(#310));
#249=EDGE_LOOP('',(#311));
#250=EDGE_LOOP('',(#312));
#251=EDGE_LOOP('',(#313));
#252=EDGE_LOOP('',(#314));
#253=EDGE_LOOP('',(#315));
#254=EDGE_LOOP('',(#316));
#255=EDGE_LOOP('',(#317));
#256=ORIENTED_EDGE('',*,*,#349,.T.);
#257=ORIENTED_EDGE('',*,*,#350,.T.);
#258=ORIENTED_EDGE('',*,*,#351,.T.);
#259=ORIENTED_EDGE('',*,*,#349,.F.);
#260=ORIENTED_EDGE('',*,*,#352,.T.);
#261=ORIENTED_EDGE('',*,*,#351,.F.);
#262=ORIENTED_EDGE('',*,*,#353,.T.);
#263=ORIENTED_EDGE('',*,*,#352,.F.);
#264=ORIENTED_EDGE('',*,*,#354,.T.);
#265=ORIENTED_EDGE('',*,*,#353,.F.);
#266=ORIENTED_EDGE('',*,*,#355,.T.);
#267=ORIENTED_EDGE('',*,*,#354,.F.);
#268=ORIENTED_EDGE('',*,*,#356,.T.);
#269=ORIENTED_EDGE('',*,*,#355,.F.);
#270=ORIENTED_EDGE('',*,*,#357,.T.);
#271=ORIENTED_EDGE('',*,*,#356,.F.);
#272=ORIENTED_EDGE('',*,*,#358,.T.);
#273=ORIENTED_EDGE('',*,*,#357,.F.);
#274=ORIENTED_EDGE('',*,*,#359,.T.);
#275=ORIENTED_EDGE('',*,*,#358,.F.);
#276=ORIENTED_EDGE('',*,*,#360,.T.);
#277=ORIENTED_EDGE('',*,*,#359,.F.);
#278=ORIENTED_EDGE('',*,*,#361,.T.);
#279=ORIENTED_EDGE('',*,*,#360,.F.);
#280=ORIENTED_EDGE('',*,*,#350,.F.);
#281=ORIENTED_EDGE('',*,*,#362,.T.);
#282=ORIENTED_EDGE('',*,*,#361,.F.);
#283=ORIENTED_EDGE('',*,*,#363,.T.);
#284=ORIENTED_EDGE('',*,*,#362,.F.);
#285=ORIENTED_EDGE('',*,*,#364,.T.);
#286=ORIENTED_EDGE('',*,*,#363,.F.);
#287=ORIENTED_EDGE('',*,*,#365,.T.);
#288=ORIENTED_EDGE('',*,*,#364,.F.);
#289=ORIENTED_EDGE('',*,*,#366,.T.);
#290=ORIENTED_EDGE('',*,*,#365,.F.);
#291=ORIENTED_EDGE('',*,*,#367,.T.);
#292=ORIENTED_EDGE('',*,*,#366,.F.);
#293=ORIENTED_EDGE('',*,*,#368,.T.);
#294=ORIENTED_EDGE('',*,*,#367,.F.);
#295=ORIENTED_EDGE('',*,*,#368,.F.);
#296=ORIENTED_EDGE('',*,*,#369,.T.);
#297=ORIENTED_EDGE('',*,*,#370,.T.);
#298=ORIENTED_EDGE('',*,*,#371,.F.);
#299=ORIENTED_EDGE('',*,*,#372,.F.);
#300=ORIENTED_EDGE('',*,*,#373,.T.);
#301=ORIENTED_EDGE('',*,*,#374,.F.);
#302=ORIENTED_EDGE('',*,*,#375,.F.);
#303=ORIENTED_EDGE('',*,*,#371,.T.);
#304=ORIENTED_EDGE('',*,*,#376,.F.);
#305=ORIENTED_EDGE('',*,*,#375,.T.);
#306=ORIENTED_EDGE('',*,*,#373,.F.);
#307=ORIENTED_EDGE('',*,*,#376,.T.);
#308=ORIENTED_EDGE('',*,*,#369,.F.);
#309=ORIENTED_EDGE('',*,*,#374,.T.);
#310=ORIENTED_EDGE('',*,*,#377,.F.);
#311=ORIENTED_EDGE('',*,*,#370,.F.);
#312=ORIENTED_EDGE('',*,*,#377,.T.);
#313=ORIENTED_EDGE('',*,*,#378,.F.);
#314=ORIENTED_EDGE('',*,*,#379,.T.);
#315=ORIENTED_EDGE('',*,*,#372,.T.);
#316=ORIENTED_EDGE('',*,*,#379,.F.);
#317=ORIENTED_EDGE('',*,*,#378,.T.);
#318=VERTEX_POINT('',#610);
#319=VERTEX_POINT('',#612);
#320=VERTEX_POINT('',#615);
#321=VERTEX_POINT('',#618);
#322=VERTEX_POINT('',#621);
#323=VERTEX_POINT('',#624);
#324=VERTEX_POINT('',#627);
#325=VERTEX_POINT('',#630);
#326=VERTEX_POINT('',#633);
#327=VERTEX_POINT('',#636);
#328=VERTEX_POINT('',#639);
#329=VERTEX_POINT('',#642);
#330=VERTEX_POINT('',#645);
#331=VERTEX_POINT('',#649);
#332=VERTEX_POINT('',#652);
#333=VERTEX_POINT('',#655);
#334=VERTEX_POINT('',#658);
#335=VERTEX_POINT('',#661);
#336=VERTEX_POINT('',#664);
#337=VERTEX_POINT('',#667);
#338=VERTEX_POINT('',#671);
#339=VERTEX_POINT('',#674);
#340=VERTEX_POINT('',#677);
#341=VERTEX_POINT('',#679);
#342=VERTEX_POINT('',#683);
#343=VERTEX_POINT('',#685);
#344=VERTEX_POINT('',#689);
#345=VERTEX_POINT('',#693);
#346=VERTEX_POINT('',#701);
#347=VERTEX_POINT('',#705);
#348=VERTEX_POINT('',#709);
#349=EDGE_CURVE('',#318,#318,#380,.T.);
#350=EDGE_CURVE('',#319,#319,#381,.T.);
#351=EDGE_CURVE('',#320,#320,#382,.T.);
#352=EDGE_CURVE('',#321,#321,#383,.T.);
#353=EDGE_CURVE('',#322,#322,#384,.T.);
#354=EDGE_CURVE('',#323,#323,#385,.T.);
#355=EDGE_CURVE('',#324,#324,#386,.T.);
#356=EDGE_CURVE('',#325,#325,#387,.T.);
#357=EDGE_CURVE('',#326,#326,#388,.T.);
#358=EDGE_CURVE('',#327,#327,#389,.T.);
#359=EDGE_CURVE('',#328,#328,#390,.T.);
#360=EDGE_CURVE('',#329,#329,#391,.T.);
#361=EDGE_CURVE('',#330,#330,#392,.T.);
#362=EDGE_CURVE('',#331,#331,#393,.T.);
#363=EDGE_CURVE('',#332,#332,#394,.T.);
#364=EDGE_CURVE('',#333,#333,#395,.T.);
#365=EDGE_CURVE('',#334,#334,#396,.T.);
#366=EDGE_CURVE('',#335,#335,#397,.T.);
#367=EDGE_CURVE('',#336,#336,#398,.T.);
#368=EDGE_CURVE('',#337,#337,#399,.T.);
#369=EDGE_CURVE('',#338,#338,#400,.T.);
#370=EDGE_CURVE('',#339,#339,#401,.T.);
#371=EDGE_CURVE('',#340,#340,#402,.T.);
#372=EDGE_CURVE('',#341,#341,#403,.T.);
#373=EDGE_CURVE('',#342,#342,#404,.T.);
#374=EDGE_CURVE('',#343,#343,#405,.T.);
#375=EDGE_CURVE('',#344,#344,#406,.T.);
#376=EDGE_CURVE('',#345,#345,#408,.T.);
#377=EDGE_CURVE('',#346,#346,#410,.T.);
#378=EDGE_CURVE('',#347,#347,#412,.T.);
#379=EDGE_CURVE('',#348,#348,#413,.T.);
#380=CIRCLE('',#416,12.2500000000009);
#381=CIRCLE('',#417,11.2500000000008);
#382=CIRCLE('',#419,12.2499999999998);
#383=CIRCLE('',#421,12.3103073792139);
#384=CIRCLE('',#423,12.5);
#385=CIRCLE('',#425,12.5);
#386=CIRCLE('',#427,12.2636296694842);
#387=CIRCLE('',#429,12.2499999999998);
#388=CIRCLE('',#431,12.2499999999998);
#389=CIRCLE('',#433,12.7056692403838);
#390=CIRCLE('',#435,13.5);
#391=CIRCLE('',#437,16.3);
#392=CIRCLE('',#439,17.);
#393=CIRCLE('',#442,17.);
#394=CIRCLE('',#444,16.7692307692308);
#395=CIRCLE('',#446,12.3846153846154);
#396=CIRCLE('',#448,12.);
#397=CIRCLE('',#450,12.);
#398=CIRCLE('',#452,11.8132813990173);
#399=CIRCLE('',#454,10.6149259573119);
#400=CIRCLE('',#457,0.699204527373618);
#401=CIRCLE('',#459,5.13089867194089);
#402=CIRCLE('',#461,11.7599065332823);
#403=CIRCLE('',#462,6.85150447373341);
#404=CIRCLE('',#463,11.2078329023039);
#405=CIRCLE('',#464,5.70134114888005);
#406=CIRCLE('',#465,12.4999987858428);
#407=CIRCLE('',#466,0.800000000000001);
#408=CIRCLE('',#467,12.0589941780043);
#409=CIRCLE('',#468,0.800000000000001);
#410=CIRCLE('',#469,5.4773972140955);
#411=CIRCLE('',#470,0.800000000000002);
#412=CIRCLE('',#471,5.63225950683814);
#413=CIRCLE('',#472,6.31666599231657);
#414=CIRCLE('',#473,0.800000000000001);
#415=AXIS2_PLACEMENT_3D('',#608,#474,#475);
#416=AXIS2_PLACEMENT_3D('',#609,#476,#477);
#417=AXIS2_PLACEMENT_3D('',#611,#478,#479);
#418=AXIS2_PLACEMENT_3D('',#613,#480,#481);
#419=AXIS2_PLACEMENT_3D('',#614,#482,#483);
#420=AXIS2_PLACEMENT_3D('',#616,#484,#485);
#421=AXIS2_PLACEMENT_3D('',#617,#486,#487);
#422=AXIS2_PLACEMENT_3D('',#619,#488,#489);
#423=AXIS2_PLACEMENT_3D('',#620,#490,#491);
#424=AXIS2_PLACEMENT_3D('',#622,#492,#493);
#425=AXIS2_PLACEMENT_3D('',#623,#494,#495);
#426=AXIS2_PLACEMENT_3D('',#625,#496,#497);
#427=AXIS2_PLACEMENT_3D('',#626,#498,#499);
#428=AXIS2_PLACEMENT_3D('',#628,#500,#501);
#429=AXIS2_PLACEMENT_3D('',#629,#502,#503);
#430=AXIS2_PLACEMENT_3D('',#631,#504,#505);
#431=AXIS2_PLACEMENT_3D('',#632,#506,#507);
#432=AXIS2_PLACEMENT_3D('',#634,#508,#509);
#433=AXIS2_PLACEMENT_3D('',#635,#510,#511);
#434=AXIS2_PLACEMENT_3D('',#637,#512,#513);
#435=AXIS2_PLACEMENT_3D('',#638,#514,#515);
#436=AXIS2_PLACEMENT_3D('',#640,#516,#517);
#437=AXIS2_PLACEMENT_3D('',#641,#518,#519);
#438=AXIS2_PLACEMENT_3D('',#643,#520,#521);
#439=AXIS2_PLACEMENT_3D('',#644,#522,#523);
#440=AXIS2_PLACEMENT_3D('',#646,#524,#525);
#441=AXIS2_PLACEMENT_3D('',#647,#526,#527);
#442=AXIS2_PLACEMENT_3D('',#648,#528,#529);
#443=AXIS2_PLACEMENT_3D('',#650,#530,#531);
#444=AXIS2_PLACEMENT_3D('',#651,#532,#533);
#445=AXIS2_PLACEMENT_3D('',#653,#534,#535);
#446=AXIS2_PLACEMENT_3D('',#654,#536,#537);
#447=AXIS2_PLACEMENT_3D('',#656,#538,#539);
#448=AXIS2_PLACEMENT_3D('',#657,#540,#541);
#449=AXIS2_PLACEMENT_3D('',#659,#542,#543);
#450=AXIS2_PLACEMENT_3D('',#660,#544,#545);
#451=AXIS2_PLACEMENT_3D('',#662,#546,#547);
#452=AXIS2_PLACEMENT_3D('',#663,#548,#549);
#453=AXIS2_PLACEMENT_3D('',#665,#550,#551);
#454=AXIS2_PLACEMENT_3D('',#666,#552,#553);
#455=AXIS2_PLACEMENT_3D('',#668,#554,#555);
#456=AXIS2_PLACEMENT_3D('',#669,#556,#557);
#457=AXIS2_PLACEMENT_3D('',#670,#558,#559);
#458=AXIS2_PLACEMENT_3D('',#672,#560,#561);
#459=AXIS2_PLACEMENT_3D('',#673,#562,#563);
#460=AXIS2_PLACEMENT_3D('',#675,#564,#565);
#461=AXIS2_PLACEMENT_3D('',#676,#566,#567);
#462=AXIS2_PLACEMENT_3D('',#678,#568,#569);
#463=AXIS2_PLACEMENT_3D('',#682,#572,#573);
#464=AXIS2_PLACEMENT_3D('',#684,#574,#575);
#465=AXIS2_PLACEMENT_3D('',#688,#578,#579);
#466=AXIS2_PLACEMENT_3D('',#690,#580,#581);
#467=AXIS2_PLACEMENT_3D('',#692,#583,#584);
#468=AXIS2_PLACEMENT_3D('',#696,#587,#588);
#469=AXIS2_PLACEMENT_3D('',#700,#592,#593);
#470=AXIS2_PLACEMENT_3D('',#702,#594,#595);
#471=AXIS2_PLACEMENT_3D('',#704,#597,#598);
#472=AXIS2_PLACEMENT_3D('',#708,#601,#602);
#473=AXIS2_PLACEMENT_3D('',#710,#603,#604);
#474=DIRECTION('',(0.,0.,1.));
#475=DIRECTION('',(1.,0.,0.));
#476=DIRECTION('',(1.,0.,0.));
#477=DIRECTION('',(0.,0.,1.));
#478=DIRECTION('',(-1.,0.,0.));
#479=DIRECTION('',(0.,0.,1.));
#480=DIRECTION('',(-1.,0.,0.));
#481=DIRECTION('',(0.,0.,1.));
#482=DIRECTION('',(1.,0.,0.));
#483=DIRECTION('',(0.,0.,1.));
#484=DIRECTION('',(-1.,0.,0.));
#485=DIRECTION('',(0.,0.,1.));
#486=DIRECTION('',(1.,0.,0.));
#487=DIRECTION('',(0.,0.,1.));
#488=DIRECTION('',(-1.,0.,0.));
#489=DIRECTION('',(0.,0.,1.));
#490=DIRECTION('',(1.,0.,0.));
#491=DIRECTION('',(0.,0.,1.));
#492=DIRECTION('',(-1.,0.,0.));
#493=DIRECTION('',(1.475259682271E-16,0.,1.));
#494=DIRECTION('',(1.,0.,0.));
#495=DIRECTION('',(0.,0.,1.));
#496=DIRECTION('',(-1.,0.,0.));
#497=DIRECTION('',(0.,0.,1.));
#498=DIRECTION('',(1.,0.,0.));
#499=DIRECTION('',(0.,0.,1.));
#500=DIRECTION('',(1.,0.,0.));
#501=DIRECTION('',(-9.8968285039528E-17,0.,-1.));
#502=DIRECTION('',(1.,0.,0.));
#503=DIRECTION('',(0.,0.,1.));
#504=DIRECTION('',(-1.,0.,0.));
#505=DIRECTION('',(0.,0.,1.));
#506=DIRECTION('',(1.,0.,0.));
#507=DIRECTION('',(0.,0.,1.));
#508=DIRECTION('',(-1.,0.,0.));
#509=DIRECTION('',(0.,0.,1.));
#510=DIRECTION('',(1.,0.,0.));
#511=DIRECTION('',(0.,0.,1.));
#512=DIRECTION('',(-1.,0.,0.));
#513=DIRECTION('',(0.,0.,1.));
#514=DIRECTION('',(1.,0.,0.));
#515=DIRECTION('',(0.,0.,1.));
#516=DIRECTION('',(1.,0.,0.));
#517=DIRECTION('',(-1.94691933591531E-18,0.,-1.));
#518=DIRECTION('',(1.,0.,0.));
#519=DIRECTION('',(0.,0.,1.));
#520=DIRECTION('',(-1.,0.,0.));
#521=DIRECTION('',(0.,0.,1.));
#522=DIRECTION('',(1.,0.,0.));
#523=DIRECTION('',(0.,0.,1.));
#524=DIRECTION('',(-1.,0.,0.));
#525=DIRECTION('',(0.,0.,1.));
#526=DIRECTION('',(-1.,0.,0.));
#527=DIRECTION('',(0.,0.,1.));
#528=DIRECTION('',(1.,0.,0.));
#529=DIRECTION('',(0.,0.,1.));
#530=DIRECTION('',(-1.,0.,0.));
#531=DIRECTION('',(0.,0.,1.));
#532=DIRECTION('',(1.,0.,0.));
#533=DIRECTION('',(0.,0.,1.));
#534=DIRECTION('',(-1.,0.,0.));
#535=DIRECTION('',(0.,0.,1.));
#536=DIRECTION('',(1.,0.,0.));
#537=DIRECTION('',(0.,0.,1.));
#538=DIRECTION('',(1.,0.,0.));
#539=DIRECTION('',(2.56144687413519E-16,0.,-1.));
#540=DIRECTION('',(1.,0.,0.));
#541=DIRECTION('',(0.,0.,1.));
#542=DIRECTION('',(-1.,0.,0.));
#543=DIRECTION('',(0.,0.,1.));
#544=DIRECTION('',(1.,0.,0.));
#545=DIRECTION('',(0.,0.,1.));
#546=DIRECTION('',(-1.,0.,0.));
#547=DIRECTION('',(0.,0.,1.));
#548=DIRECTION('',(1.,0.,0.));
#549=DIRECTION('',(0.,0.,1.));
#550=DIRECTION('',(1.,0.,0.));
#551=DIRECTION('',(0.,0.,-1.));
#552=DIRECTION('',(1.,0.,0.));
#553=DIRECTION('',(0.,0.,1.));
#554=DIRECTION('',(-1.,0.,0.));
#555=DIRECTION('',(0.,0.,1.));
#556=DIRECTION('',(1.,0.,0.));
#557=DIRECTION('',(0.,0.,-1.));
#558=DIRECTION('',(1.,0.,0.));
#559=DIRECTION('',(0.,0.,-1.));
#560=DIRECTION('',(1.,0.,0.));
#561=DIRECTION('',(0.,0.,-1.));
#562=DIRECTION('',(-1.,0.,0.));
#563=DIRECTION('',(0.,0.,-1.));
#564=DIRECTION('',(1.,0.,0.));
#565=DIRECTION('',(0.,0.,-1.));
#566=DIRECTION('',(1.,0.,0.));
#567=DIRECTION('',(0.,0.,-1.));
#568=DIRECTION('',(-1.,0.,0.));
#569=DIRECTION('',(0.,0.,-1.));
#570=DIRECTION('',(0.0697564737441263,-0.992099290015652,0.104273837184717));
#571=DIRECTION('',(1.,0.,0.));
#572=DIRECTION('',(1.,0.,0.));
#573=DIRECTION('',(0.,0.,-1.));
#574=DIRECTION('',(1.,0.,0.));
#575=DIRECTION('',(0.,0.,-1.));
#576=DIRECTION('',(-0.0697564737441253,0.992099290015652,-0.104273837184717));
#577=DIRECTION('',(1.,0.,0.));
#578=DIRECTION('',(1.,0.,0.));
#579=DIRECTION('',(0.,0.,-1.));
#580=DIRECTION('',(9.71445146547012E-17,0.104528463267653,0.994521895368273));
#581=DIRECTION('',(0.997564050259824,0.0693743404822147,-0.0072915370034439));
#582=DIRECTION('',(1.,0.,0.));
#583=DIRECTION('',(1.,0.,0.));
#584=DIRECTION('',(0.,0.,-1.));
#585=DIRECTION('',(0.997564050259824,0.0693743404822149,-0.00729153700344386));
#586=DIRECTION('',(1.,0.,0.));
#587=DIRECTION('',(9.71445146547012E-17,0.104528463267653,0.994521895368273));
#588=DIRECTION('',(0.997564050259824,0.0693743404822147,-0.0072915370034439));
#589=DIRECTION('',(1.,0.,0.));
#590=DIRECTION('',(0.0871557427476579,-0.996194698091746,0.));
#591=DIRECTION('',(1.,0.,0.));
#592=DIRECTION('',(1.,0.,0.));
#593=DIRECTION('',(0.,0.,-1.));
#594=DIRECTION('',(9.71445146547012E-17,0.104528463267653,0.994521895368273));
#595=DIRECTION('',(0.997564050259824,0.0693743404822147,-0.0072915370034439));
#596=DIRECTION('',(1.,0.,0.));
#597=DIRECTION('',(1.,0.,0.));
#598=DIRECTION('',(0.,0.,-1.));
#599=DIRECTION('',(0.0697564737441263,-0.992099290015652,0.104273837184717));
#600=DIRECTION('',(1.,0.,0.));
#601=DIRECTION('',(1.,0.,0.));
#602=DIRECTION('',(0.,0.,-1.));
#603=DIRECTION('',(0.,0.,-1.));
#604=DIRECTION('',(0.996194698091746,0.0871557427476582,0.));
#605=DIRECTION('',(1.,0.,0.));
#606=DIRECTION('',(-0.0871557427476579,0.996194698091746,0.));
#607=DIRECTION('',(1.,0.,0.));
#608=CARTESIAN_POINT('',(0.,0.,0.));
#609=CARTESIAN_POINT('',(152.,0.,0.));
#610=CARTESIAN_POINT('',(152.,0.,12.2500000000009));
#611=CARTESIAN_POINT('',(153.,0.,0.));
#612=CARTESIAN_POINT('',(153.,0.,11.2500000000008));
#613=CARTESIAN_POINT('',(152.,0.,0.));
#614=CARTESIAN_POINT('',(150.176326980708,0.,0.));
#615=CARTESIAN_POINT('',(150.176326980708,0.,12.2499999999998));
#616=CARTESIAN_POINT('',(0.,0.,0.));
#617=CARTESIAN_POINT('',(149.834306837383,0.,0.));
#618=CARTESIAN_POINT('',(149.834306837383,0.,12.3103073792139));
#619=CARTESIAN_POINT('',(150.176326980708,0.,0.));
#620=CARTESIAN_POINT('',(149.313130645136,0.,0.));
#621=CARTESIAN_POINT('',(149.313130645136,0.,12.5));
#622=CARTESIAN_POINT('',(149.834306837383,0.,0.));
#623=CARTESIAN_POINT('',(99.,0.,0.));
#624=CARTESIAN_POINT('',(99.,0.,12.5));
#625=CARTESIAN_POINT('',(0.,0.,0.));
#626=CARTESIAN_POINT('',(98.1178539171131,0.,0.));
#627=CARTESIAN_POINT('',(98.1178539171131,0.,12.2636296694842));
#628=CARTESIAN_POINT('',(99.,0.,0.));
#629=CARTESIAN_POINT('',(98.0143262990721,0.,0.));
#630=CARTESIAN_POINT('',(98.0143262990721,0.,12.2499999999998));
#631=CARTESIAN_POINT('',(98.0143262990721,0.,0.));
#632=CARTESIAN_POINT('',(97.2844713195104,0.,0.));
#633=CARTESIAN_POINT('',(97.2844713195104,0.,12.2499999999998));
#634=CARTESIAN_POINT('',(0.,0.,0.));
#635=CARTESIAN_POINT('',(96.8883640920137,0.,0.));
#636=CARTESIAN_POINT('',(96.8883640920137,0.,12.7056692403838));
#637=CARTESIAN_POINT('',(97.2844713195104,0.,0.));
#638=CARTESIAN_POINT('',(97.,0.,0.));
#639=CARTESIAN_POINT('',(97.,0.,13.5));
#640=CARTESIAN_POINT('',(96.8883640920137,0.,0.));
#641=CARTESIAN_POINT('',(97.,0.,0.));
#642=CARTESIAN_POINT('',(97.,0.,16.3));
#643=CARTESIAN_POINT('',(97.,13.5,0.));
#644=CARTESIAN_POINT('',(96.5872983346207,0.,0.));
#645=CARTESIAN_POINT('',(96.5872983346207,0.,17.));
#646=CARTESIAN_POINT('',(96.2,0.,0.));
#647=CARTESIAN_POINT('',(153.,17.5,0.));
#648=CARTESIAN_POINT('',(92.6,0.,0.));
#649=CARTESIAN_POINT('',(92.6,0.,17.));
#650=CARTESIAN_POINT('',(0.,0.,0.));
#651=CARTESIAN_POINT('',(91.4461538461538,0.,0.));
#652=CARTESIAN_POINT('',(91.4461538461538,0.,16.7692307692308));
#653=CARTESIAN_POINT('',(92.6,0.,0.));
#654=CARTESIAN_POINT('',(80.9230769230769,0.,0.));
#655=CARTESIAN_POINT('',(80.9230769230769,0.,12.3846153846154));
#656=CARTESIAN_POINT('',(91.4461538461538,0.,0.));
#657=CARTESIAN_POINT('',(79.,0.,0.));
#658=CARTESIAN_POINT('',(79.,0.,12.));
#659=CARTESIAN_POINT('',(79.,0.,0.));
#660=CARTESIAN_POINT('',(6.00000000000001,0.,0.));
#661=CARTESIAN_POINT('',(6.00000000000001,0.,12.));
#662=CARTESIAN_POINT('',(0.,0.,0.));
#663=CARTESIAN_POINT('',(2.43719685250847,0.,0.));
#664=CARTESIAN_POINT('',(2.43719685250847,0.,11.8132813990173));
#665=CARTESIAN_POINT('',(6.00000000000001,0.,0.));
#666=CARTESIAN_POINT('',(1.3,0.,0.));
#667=CARTESIAN_POINT('',(1.3,0.,10.6149259573119));
#668=CARTESIAN_POINT('',(2.5,0.,0.));
#669=CARTESIAN_POINT('',(1.3,10.6149259573119,0.));
#670=CARTESIAN_POINT('',(8.46539755339523,0.,0.));
#671=CARTESIAN_POINT('',(8.46539755339523,0.,-0.699204527373618));
#672=CARTESIAN_POINT('',(8.46539755339523,0.,0.));
#673=CARTESIAN_POINT('',(0.106801447816095,0.,0.));
#674=CARTESIAN_POINT('',(0.106801447816095,0.,-5.13089867194089));
#675=CARTESIAN_POINT('',(0.106801447816095,0.,0.));
#676=CARTESIAN_POINT('',(0.494204803329876,0.,0.));
#677=CARTESIAN_POINT('',(0.494204803329876,0.,-11.7599065332823));
#678=CARTESIAN_POINT('',(0.14914550070003,0.,0.));
#679=CARTESIAN_POINT('',(0.14914550070003,0.,-6.85150447373341));
#680=CARTESIAN_POINT('',(0.14914550070003,-6.65538645378478,1.62755789585718));
#681=CARTESIAN_POINT('',(6.00000000000001,0.,0.));
#682=CARTESIAN_POINT('',(8.41486336239291,0.,0.));
#683=CARTESIAN_POINT('',(8.41486336239291,0.,-11.2078329023039));
#684=CARTESIAN_POINT('',(8.02721517551084,0.,0.));
#685=CARTESIAN_POINT('',(8.02721517551084,0.,-5.70134114888005));
#686=CARTESIAN_POINT('',(8.41486336239289,-11.0120999818488,2.08546693949598));
#687=CARTESIAN_POINT('',(6.00000000000001,0.,0.));
#688=CARTESIAN_POINT('',(1.34806122253304,0.,0.));
#689=CARTESIAN_POINT('',(1.34806122253304,0.,-12.4999987858428));
#690=CARTESIAN_POINT('',(1.29225604353774,-11.5074327728918,2.13752851370056));
#691=CARTESIAN_POINT('',(6.00000000000001,0.,0.));
#692=CARTESIAN_POINT('',(7.67261730118033,0.,0.));
#693=CARTESIAN_POINT('',(7.67261730118033,0.,-12.0589941780043));
#694=CARTESIAN_POINT('',(1.34806122253304,-12.3011122049043,2.22094758344834));
#695=CARTESIAN_POINT('',(6.00000000000001,0.,0.));
#696=CARTESIAN_POINT('',(7.61681212218505,-11.0675994542346,2.09130016909873));
#697=CARTESIAN_POINT('',(6.00000000000001,0.,0.));
#698=CARTESIAN_POINT('',(8.02721517551084,5.70046409478324,0.0999999999999986));
#699=CARTESIAN_POINT('',(6.00000000000001,0.,0.));
#700=CARTESIAN_POINT('',(0.0519487597921142,0.,0.));
#701=CARTESIAN_POINT('',(0.0519487597921142,0.,-5.4773972140955));
#702=CARTESIAN_POINT('',(0.849999999999978,-5.21752327419259,1.47643238594946));
#703=CARTESIAN_POINT('',(6.00000000000001,0.,0.));
#704=CARTESIAN_POINT('',(0.0629304672490694,0.,0.));
#705=CARTESIAN_POINT('',(0.0629304672490694,0.,-5.63225950683814));
#706=CARTESIAN_POINT('',(0.0519487597921143,-5.27302274657835,1.48226561555222));
#707=CARTESIAN_POINT('',(6.00000000000001,0.,0.));
#708=CARTESIAN_POINT('',(0.0030442415266084,0.,0.));
#709=CARTESIAN_POINT('',(0.0030442415266084,0.,-6.31666599231657));
#710=CARTESIAN_POINT('',(0.800000000000007,6.3855989800998,0.0999999999999986));
#711=CARTESIAN_POINT('',(6.00000000000001,0.,0.));
#712=CARTESIAN_POINT('',(0.0629304672490697,5.63137169367895,0.0999999999999986));
#713=CARTESIAN_POINT('',(6.00000000000001,0.,0.));
#714=(
GEOMETRIC_REPRESENTATION_CONTEXT(3)
GLOBAL_UNCERTAINTY_ASSIGNED_CONTEXT((#715))
GLOBAL_UNIT_ASSIGNED_CONTEXT((#721,#717,#716))
REPRESENTATION_CONTEXT('ATUM-25XD3-SPGT-07T308-light',
'TOP_LEVEL_ASSEMBLY_PART')
);
#715=UNCERTAINTY_MEASURE_WITH_UNIT(LENGTH_MEASURE(2.E-5),#721,
'DISTANCE_ACCURACY_VALUE','Maximum Tolerance applied to model');
#716=(
NAMED_UNIT(*)
SI_UNIT($,.STERADIAN.)
SOLID_ANGLE_UNIT()
);
#717=(
CONVERSION_BASED_UNIT('DEGREE',#719)
NAMED_UNIT(#718)
PLANE_ANGLE_UNIT()
);
#718=DIMENSIONAL_EXPONENTS(0.,0.,0.,0.,0.,0.,0.);
#719=PLANE_ANGLE_MEASURE_WITH_UNIT(PLANE_ANGLE_MEASURE(0.0174532925),#720);
#720=(
NAMED_UNIT(*)
PLANE_ANGLE_UNIT()
SI_UNIT($,.RADIAN.)
);
#721=(
LENGTH_UNIT()
NAMED_UNIT(*)
SI_UNIT(.MILLI.,.METRE.)
);
ENDSEC;
END-ISO-10303-21;
