ISO-10303-21;
HEADER;
/* Generated by software containing ST-Developer
 * from STEP Tools, Inc. (www.steptools.com) 
 */
/* OPTION: using custom schema-name function */

FILE_DESCRIPTION(
/* description */ (''),
/* implementation_level */ '2;1');

FILE_NAME(
/* name */ 'ATUM-27XD2-SP-07T308-32-light.stp',
/* time_stamp */ '2023-10-19T19:17:05+03:00',
/* author */ (''),
/* organization */ (''),
/* preprocessor_version */ 'ST-DEVELOPER v19.4',
/* originating_system */ 'SIEMENS PLM Software NX2306.3001',
/* authorisation */ '');

FILE_SCHEMA (('AUTOMOTIVE_DESIGN { 1 0 10303 214 3 1 1 1 }'));
ENDSEC;

DATA;
#10=SHAPE_REPRESENTATION_RELATIONSHIP('None',
'relationship between STP_ATUM 22XD2 SP.. 07T308-32-None and STP_ATUM 
22XD2 SP.. 07T308-32-None',#22,#11);
#11=ADVANCED_BREP_SHAPE_REPRESENTATION(
'STP_ATUM 22XD2 SP.. 07T308-32-None',(#65,#66),#653);
#12=SHAPE_DEFINITION_REPRESENTATION(#13,#22);
#13=PRODUCT_DEFINITION_SHAPE('','',#14);
#14=PRODUCT_DEFINITION(' ','',#16,#15);
#15=PRODUCT_DEFINITION_CONTEXT('part definition',#21,'design');
#16=PRODUCT_DEFINITION_FORMATION_WITH_SPECIFIED_SOURCE(' ',' ',#18,
 .NOT_KNOWN.);
#17=PRODUCT_RELATED_PRODUCT_CATEGORY('part','',(#18));
#18=PRODUCT('STP_ATUM 22XD2 SP.. 07T308-32',
'STP_ATUM 22XD2 SP.. 07T308-32',' ',(#19));
#19=PRODUCT_CONTEXT(' ',#21,'mechanical');
#20=APPLICATION_PROTOCOL_DEFINITION('international standard',
'automotive_design',2010,#21);
#21=APPLICATION_CONTEXT(
'core data for automotive mechanical design processes');
#22=SHAPE_REPRESENTATION('STP_ATUM 22XD2 SP.. 07T308-32-None',(#374),#653);
#23=DRAUGHTING_PRE_DEFINED_COLOUR('yellow');
#24=B_SPLINE_CURVE_WITH_KNOTS('',3,(#615,#616,#617,#618,#619,#620,#621),
 .UNSPECIFIED.,.F.,.F.,(4,1,1,1,4),(0.,0.25,0.5,0.75,1.),.UNSPECIFIED.);
#25=B_SPLINE_CURVE_WITH_KNOTS('',3,(#633,#634,#635,#636,#637,#638,#639),
 .UNSPECIFIED.,.F.,.F.,(4,1,1,1,4),(0.,0.25,0.5,0.75,1.),.UNSPECIFIED.);
#26=B_SPLINE_CURVE_WITH_KNOTS('',3,(#645,#646,#647,#648,#649,#650,#651),
 .UNSPECIFIED.,.F.,.F.,(4,1,1,1,4),(0.,0.25,0.5,0.75,1.),.UNSPECIFIED.);
#27=SURFACE_OF_REVOLUTION('',#41,#34);
#28=SURFACE_OF_REVOLUTION('',#24,#35);
#29=SURFACE_OF_REVOLUTION('',#42,#36);
#30=SURFACE_OF_REVOLUTION('',#43,#37);
#31=SURFACE_OF_REVOLUTION('',#25,#38);
#32=SURFACE_OF_REVOLUTION('',#44,#39);
#33=SURFACE_OF_REVOLUTION('',#26,#40);
#34=AXIS1_PLACEMENT('',#612,#521);
#35=AXIS1_PLACEMENT('',#622,#524);
#36=AXIS1_PLACEMENT('',#626,#528);
#37=AXIS1_PLACEMENT('',#630,#532);
#38=AXIS1_PLACEMENT('',#640,#535);
#39=AXIS1_PLACEMENT('',#644,#539);
#40=AXIS1_PLACEMENT('',#652,#540);
#41=LINE('',#611,#45);
#42=LINE('',#625,#46);
#43=LINE('',#629,#47);
#44=LINE('',#643,#48);
#45=VECTOR('',#520,6.37496383882591);
#46=VECTOR('',#527,6.1425495481336);
#47=VECTOR('',#531,5.9313019387804);
#48=VECTOR('',#538,6.37496383882591);
#49=PRESENTATION_LAYER_ASSIGNMENT('1','Layer 1',(#65,#66));
#50=STYLED_ITEM('',(#52),#65);
#51=STYLED_ITEM('',(#53),#66);
#52=PRESENTATION_STYLE_ASSIGNMENT((#54));
#53=PRESENTATION_STYLE_ASSIGNMENT((#55));
#54=SURFACE_STYLE_USAGE(.BOTH.,#56);
#55=SURFACE_STYLE_USAGE(.BOTH.,#57);
#56=SURFACE_SIDE_STYLE('',(#58));
#57=SURFACE_SIDE_STYLE('',(#59));
#58=SURFACE_STYLE_FILL_AREA(#60);
#59=SURFACE_STYLE_FILL_AREA(#61);
#60=FILL_AREA_STYLE('',(#62));
#61=FILL_AREA_STYLE('',(#63));
#62=FILL_AREA_STYLE_COLOUR('',#64);
#63=FILL_AREA_STYLE_COLOUR('',#23);
#64=COLOUR_RGB('smoke gray',0.694117647058824,0.694117647058824,0.694117647058824);
#65=MANIFOLD_SOLID_BREP('',#67);
#66=MANIFOLD_SOLID_BREP('',#68);
#67=CLOSED_SHELL('',(#88,#89,#90,#91,#92,#93,#94,#95,#96,#97,#98,#99,#100,
#101,#102,#103,#104,#105,#106,#107,#108));
#68=CLOSED_SHELL('',(#109,#110,#111,#112,#113,#114,#115,#116,#117));
#69=FACE_OUTER_BOUND('',#202,.T.);
#70=FACE_OUTER_BOUND('',#217,.T.);
#71=FACE_OUTER_BOUND('',#218,.T.);
#72=FACE_OUTER_BOUND('',#219,.T.);
#73=PLANE('',#397);
#74=PLANE('',#400);
#75=PLANE('',#415);
#76=PLANE('',#417);
#77=PLANE('',#419);
#78=CONICAL_SURFACE('',#383,15.8103073792138,20.0000000000006);
#79=CONICAL_SURFACE('',#387,16.,15.0000000000011);
#80=CONICAL_SURFACE('',#395,16.2056692403838,82.0000000000008);
#81=CONICAL_SURFACE('',#406,21.6513637490412,27.8972710309476);
#82=CONICAL_SURFACE('',#412,13.,3.0000000000001);
#83=CYLINDRICAL_SURFACE('',#379,15.7499999999998);
#84=CYLINDRICAL_SURFACE('',#385,16.);
#85=CYLINDRICAL_SURFACE('',#391,15.7499999999997);
#86=CYLINDRICAL_SURFACE('',#402,22.);
#87=CYLINDRICAL_SURFACE('',#410,13.);
#88=ADVANCED_FACE('',(#126,#127),#118,.T.);
#89=ADVANCED_FACE('',(#128,#129),#83,.T.);
#90=ADVANCED_FACE('',(#130,#131),#119,.F.);
#91=ADVANCED_FACE('',(#132,#133),#78,.T.);
#92=ADVANCED_FACE('',(#134,#135),#84,.T.);
#93=ADVANCED_FACE('',(#136,#137),#79,.T.);
#94=ADVANCED_FACE('',(#138,#139),#120,.F.);
#95=ADVANCED_FACE('',(#140,#141),#85,.T.);
#96=ADVANCED_FACE('',(#142,#143),#121,.F.);
#97=ADVANCED_FACE('',(#144,#145),#80,.F.);
#98=ADVANCED_FACE('',(#146,#147),#73,.F.);
#99=ADVANCED_FACE('',(#148,#149),#122,.T.);
#100=ADVANCED_FACE('',(#69),#74,.F.);
#101=ADVANCED_FACE('',(#150,#151),#86,.T.);
#102=ADVANCED_FACE('',(#152,#153),#123,.T.);
#103=ADVANCED_FACE('',(#154,#155),#81,.T.);
#104=ADVANCED_FACE('',(#156,#157),#124,.F.);
#105=ADVANCED_FACE('',(#158,#159),#87,.T.);
#106=ADVANCED_FACE('',(#160,#161),#82,.T.);
#107=ADVANCED_FACE('',(#162,#163),#125,.T.);
#108=ADVANCED_FACE('',(#70),#75,.F.);
#109=ADVANCED_FACE('',(#71),#76,.F.);
#110=ADVANCED_FACE('',(#72),#77,.T.);
#111=ADVANCED_FACE('',(#164,#165),#27,.F.);
#112=ADVANCED_FACE('',(#166,#167),#28,.F.);
#113=ADVANCED_FACE('',(#168,#169),#29,.F.);
#114=ADVANCED_FACE('',(#170,#171),#30,.F.);
#115=ADVANCED_FACE('',(#172,#173),#31,.F.);
#116=ADVANCED_FACE('',(#174,#175),#32,.F.);
#117=ADVANCED_FACE('',(#176,#177),#33,.F.);
#118=TOROIDAL_SURFACE('',#377,14.7499999999998,1.);
#119=TOROIDAL_SURFACE('',#381,16.7499999999997,1.00000000000001);
#120=TOROIDAL_SURFACE('',#389,16.1499999999997,0.399999999999999);
#121=TOROIDAL_SURFACE('',#393,16.1499999999997,0.4);
#122=TOROIDAL_SURFACE('',#399,21.3,0.799999999999997);
#123=TOROIDAL_SURFACE('',#404,19.,3.);
#124=TOROIDAL_SURFACE('',#408,18.,5.);
#125=TOROIDAL_SURFACE('',#414,11.617546346276,1.2);
#126=FACE_BOUND('',#178,.T.);
#127=FACE_BOUND('',#179,.T.);
#128=FACE_BOUND('',#180,.T.);
#129=FACE_BOUND('',#181,.T.);
#130=FACE_BOUND('',#182,.T.);
#131=FACE_BOUND('',#183,.T.);
#132=FACE_BOUND('',#184,.T.);
#133=FACE_BOUND('',#185,.T.);
#134=FACE_BOUND('',#186,.T.);
#135=FACE_BOUND('',#187,.T.);
#136=FACE_BOUND('',#188,.T.);
#137=FACE_BOUND('',#189,.T.);
#138=FACE_BOUND('',#190,.T.);
#139=FACE_BOUND('',#191,.T.);
#140=FACE_BOUND('',#192,.T.);
#141=FACE_BOUND('',#193,.T.);
#142=FACE_BOUND('',#194,.T.);
#143=FACE_BOUND('',#195,.T.);
#144=FACE_BOUND('',#196,.T.);
#145=FACE_BOUND('',#197,.T.);
#146=FACE_BOUND('',#198,.T.);
#147=FACE_BOUND('',#199,.T.);
#148=FACE_BOUND('',#200,.T.);
#149=FACE_BOUND('',#201,.T.);
#150=FACE_BOUND('',#203,.T.);
#151=FACE_BOUND('',#204,.T.);
#152=FACE_BOUND('',#205,.T.);
#153=FACE_BOUND('',#206,.T.);
#154=FACE_BOUND('',#207,.T.);
#155=FACE_BOUND('',#208,.T.);
#156=FACE_BOUND('',#209,.T.);
#157=FACE_BOUND('',#210,.T.);
#158=FACE_BOUND('',#211,.T.);
#159=FACE_BOUND('',#212,.T.);
#160=FACE_BOUND('',#213,.T.);
#161=FACE_BOUND('',#214,.T.);
#162=FACE_BOUND('',#215,.T.);
#163=FACE_BOUND('',#216,.T.);
#164=FACE_BOUND('',#220,.T.);
#165=FACE_BOUND('',#221,.T.);
#166=FACE_BOUND('',#222,.T.);
#167=FACE_BOUND('',#223,.T.);
#168=FACE_BOUND('',#224,.T.);
#169=FACE_BOUND('',#225,.T.);
#170=FACE_BOUND('',#226,.T.);
#171=FACE_BOUND('',#227,.T.);
#172=FACE_BOUND('',#228,.T.);
#173=FACE_BOUND('',#229,.T.);
#174=FACE_BOUND('',#230,.T.);
#175=FACE_BOUND('',#231,.T.);
#176=FACE_BOUND('',#232,.T.);
#177=FACE_BOUND('',#233,.T.);
#178=EDGE_LOOP('',(#234));
#179=EDGE_LOOP('',(#235));
#180=EDGE_LOOP('',(#236));
#181=EDGE_LOOP('',(#237));
#182=EDGE_LOOP('',(#238));
#183=EDGE_LOOP('',(#239));
#184=EDGE_LOOP('',(#240));
#185=EDGE_LOOP('',(#241));
#186=EDGE_LOOP('',(#242));
#187=EDGE_LOOP('',(#243));
#188=EDGE_LOOP('',(#244));
#189=EDGE_LOOP('',(#245));
#190=EDGE_LOOP('',(#246));
#191=EDGE_LOOP('',(#247));
#192=EDGE_LOOP('',(#248));
#193=EDGE_LOOP('',(#249));
#194=EDGE_LOOP('',(#250));
#195=EDGE_LOOP('',(#251));
#196=EDGE_LOOP('',(#252));
#197=EDGE_LOOP('',(#253));
#198=EDGE_LOOP('',(#254));
#199=EDGE_LOOP('',(#255));
#200=EDGE_LOOP('',(#256));
#201=EDGE_LOOP('',(#257));
#202=EDGE_LOOP('',(#258));
#203=EDGE_LOOP('',(#259));
#204=EDGE_LOOP('',(#260));
#205=EDGE_LOOP('',(#261));
#206=EDGE_LOOP('',(#262));
#207=EDGE_LOOP('',(#263));
#208=EDGE_LOOP('',(#264));
#209=EDGE_LOOP('',(#265));
#210=EDGE_LOOP('',(#266));
#211=EDGE_LOOP('',(#267));
#212=EDGE_LOOP('',(#268));
#213=EDGE_LOOP('',(#269));
#214=EDGE_LOOP('',(#270));
#215=EDGE_LOOP('',(#271));
#216=EDGE_LOOP('',(#272));
#217=EDGE_LOOP('',(#273));
#218=EDGE_LOOP('',(#274));
#219=EDGE_LOOP('',(#275));
#220=EDGE_LOOP('',(#276));
#221=EDGE_LOOP('',(#277));
#222=EDGE_LOOP('',(#278));
#223=EDGE_LOOP('',(#279));
#224=EDGE_LOOP('',(#280));
#225=EDGE_LOOP('',(#281));
#226=EDGE_LOOP('',(#282));
#227=EDGE_LOOP('',(#283));
#228=EDGE_LOOP('',(#284));
#229=EDGE_LOOP('',(#285));
#230=EDGE_LOOP('',(#286));
#231=EDGE_LOOP('',(#287));
#232=EDGE_LOOP('',(#288));
#233=EDGE_LOOP('',(#289));
#234=ORIENTED_EDGE('',*,*,#318,.T.);
#235=ORIENTED_EDGE('',*,*,#319,.T.);
#236=ORIENTED_EDGE('',*,*,#320,.T.);
#237=ORIENTED_EDGE('',*,*,#318,.F.);
#238=ORIENTED_EDGE('',*,*,#321,.T.);
#239=ORIENTED_EDGE('',*,*,#320,.F.);
#240=ORIENTED_EDGE('',*,*,#322,.T.);
#241=ORIENTED_EDGE('',*,*,#321,.F.);
#242=ORIENTED_EDGE('',*,*,#323,.T.);
#243=ORIENTED_EDGE('',*,*,#322,.F.);
#244=ORIENTED_EDGE('',*,*,#324,.T.);
#245=ORIENTED_EDGE('',*,*,#323,.F.);
#246=ORIENTED_EDGE('',*,*,#325,.T.);
#247=ORIENTED_EDGE('',*,*,#324,.F.);
#248=ORIENTED_EDGE('',*,*,#326,.T.);
#249=ORIENTED_EDGE('',*,*,#325,.F.);
#250=ORIENTED_EDGE('',*,*,#327,.T.);
#251=ORIENTED_EDGE('',*,*,#326,.F.);
#252=ORIENTED_EDGE('',*,*,#328,.T.);
#253=ORIENTED_EDGE('',*,*,#327,.F.);
#254=ORIENTED_EDGE('',*,*,#329,.T.);
#255=ORIENTED_EDGE('',*,*,#328,.F.);
#256=ORIENTED_EDGE('',*,*,#330,.T.);
#257=ORIENTED_EDGE('',*,*,#329,.F.);
#258=ORIENTED_EDGE('',*,*,#319,.F.);
#259=ORIENTED_EDGE('',*,*,#331,.T.);
#260=ORIENTED_EDGE('',*,*,#330,.F.);
#261=ORIENTED_EDGE('',*,*,#332,.T.);
#262=ORIENTED_EDGE('',*,*,#331,.F.);
#263=ORIENTED_EDGE('',*,*,#333,.T.);
#264=ORIENTED_EDGE('',*,*,#332,.F.);
#265=ORIENTED_EDGE('',*,*,#334,.T.);
#266=ORIENTED_EDGE('',*,*,#333,.F.);
#267=ORIENTED_EDGE('',*,*,#335,.T.);
#268=ORIENTED_EDGE('',*,*,#334,.F.);
#269=ORIENTED_EDGE('',*,*,#336,.T.);
#270=ORIENTED_EDGE('',*,*,#335,.F.);
#271=ORIENTED_EDGE('',*,*,#337,.T.);
#272=ORIENTED_EDGE('',*,*,#336,.F.);
#273=ORIENTED_EDGE('',*,*,#337,.F.);
#274=ORIENTED_EDGE('',*,*,#338,.F.);
#275=ORIENTED_EDGE('',*,*,#339,.F.);
#276=ORIENTED_EDGE('',*,*,#338,.T.);
#277=ORIENTED_EDGE('',*,*,#340,.F.);
#278=ORIENTED_EDGE('',*,*,#341,.F.);
#279=ORIENTED_EDGE('',*,*,#340,.T.);
#280=ORIENTED_EDGE('',*,*,#341,.T.);
#281=ORIENTED_EDGE('',*,*,#342,.F.);
#282=ORIENTED_EDGE('',*,*,#339,.T.);
#283=ORIENTED_EDGE('',*,*,#343,.T.);
#284=ORIENTED_EDGE('',*,*,#344,.T.);
#285=ORIENTED_EDGE('',*,*,#343,.F.);
#286=ORIENTED_EDGE('',*,*,#345,.T.);
#287=ORIENTED_EDGE('',*,*,#344,.F.);
#288=ORIENTED_EDGE('',*,*,#342,.T.);
#289=ORIENTED_EDGE('',*,*,#345,.F.);
#290=VERTEX_POINT('',#543);
#291=VERTEX_POINT('',#545);
#292=VERTEX_POINT('',#548);
#293=VERTEX_POINT('',#551);
#294=VERTEX_POINT('',#554);
#295=VERTEX_POINT('',#557);
#296=VERTEX_POINT('',#560);
#297=VERTEX_POINT('',#563);
#298=VERTEX_POINT('',#566);
#299=VERTEX_POINT('',#569);
#300=VERTEX_POINT('',#572);
#301=VERTEX_POINT('',#575);
#302=VERTEX_POINT('',#578);
#303=VERTEX_POINT('',#582);
#304=VERTEX_POINT('',#585);
#305=VERTEX_POINT('',#588);
#306=VERTEX_POINT('',#591);
#307=VERTEX_POINT('',#594);
#308=VERTEX_POINT('',#597);
#309=VERTEX_POINT('',#600);
#310=VERTEX_POINT('',#604);
#311=VERTEX_POINT('',#607);
#312=VERTEX_POINT('',#610);
#313=VERTEX_POINT('',#614);
#314=VERTEX_POINT('',#624);
#315=VERTEX_POINT('',#628);
#316=VERTEX_POINT('',#632);
#317=VERTEX_POINT('',#642);
#318=EDGE_CURVE('',#290,#290,#346,.T.);
#319=EDGE_CURVE('',#291,#291,#347,.T.);
#320=EDGE_CURVE('',#292,#292,#348,.T.);
#321=EDGE_CURVE('',#293,#293,#349,.T.);
#322=EDGE_CURVE('',#294,#294,#350,.T.);
#323=EDGE_CURVE('',#295,#295,#351,.T.);
#324=EDGE_CURVE('',#296,#296,#352,.T.);
#325=EDGE_CURVE('',#297,#297,#353,.T.);
#326=EDGE_CURVE('',#298,#298,#354,.T.);
#327=EDGE_CURVE('',#299,#299,#355,.T.);
#328=EDGE_CURVE('',#300,#300,#356,.T.);
#329=EDGE_CURVE('',#301,#301,#357,.T.);
#330=EDGE_CURVE('',#302,#302,#358,.T.);
#331=EDGE_CURVE('',#303,#303,#359,.T.);
#332=EDGE_CURVE('',#304,#304,#360,.T.);
#333=EDGE_CURVE('',#305,#305,#361,.T.);
#334=EDGE_CURVE('',#306,#306,#362,.T.);
#335=EDGE_CURVE('',#307,#307,#363,.T.);
#336=EDGE_CURVE('',#308,#308,#364,.T.);
#337=EDGE_CURVE('',#309,#309,#365,.T.);
#338=EDGE_CURVE('',#310,#310,#366,.T.);
#339=EDGE_CURVE('',#311,#311,#367,.T.);
#340=EDGE_CURVE('',#312,#312,#368,.T.);
#341=EDGE_CURVE('',#313,#313,#369,.T.);
#342=EDGE_CURVE('',#314,#314,#370,.T.);
#343=EDGE_CURVE('',#315,#315,#371,.T.);
#344=EDGE_CURVE('',#316,#316,#372,.T.);
#345=EDGE_CURVE('',#317,#317,#373,.T.);
#346=CIRCLE('',#375,15.7499999999998);
#347=CIRCLE('',#376,14.7499999999998);
#348=CIRCLE('',#378,15.7499999999997);
#349=CIRCLE('',#380,15.8103073792138);
#350=CIRCLE('',#382,16.);
#351=CIRCLE('',#384,16.);
#352=CIRCLE('',#386,15.7636296694841);
#353=CIRCLE('',#388,15.7499999999997);
#354=CIRCLE('',#390,15.7499999999997);
#355=CIRCLE('',#392,16.2056692403838);
#356=CIRCLE('',#394,17.);
#357=CIRCLE('',#396,21.3);
#358=CIRCLE('',#398,22.);
#359=CIRCLE('',#401,22.);
#360=CIRCLE('',#403,21.6513637490412);
#361=CIRCLE('',#405,13.5810604182647);
#362=CIRCLE('',#407,13.);
#363=CIRCLE('',#409,13.);
#364=CIRCLE('',#411,12.8159017879815);
#365=CIRCLE('',#413,11.617546346276);
#366=CIRCLE('',#416,0.100000000001044);
#367=CIRCLE('',#418,6.29132559109222);
#368=CIRCLE('',#420,6.33477445136379);
#369=CIRCLE('',#421,6.75925377984698);
#370=CIRCLE('',#422,12.7935432143819);
#371=CIRCLE('',#423,12.106853661663);
#372=CIRCLE('',#424,12.9481473605159);
#373=CIRCLE('',#425,13.4999738868519);
#374=AXIS2_PLACEMENT_3D('',#541,#426,#427);
#375=AXIS2_PLACEMENT_3D('',#542,#428,#429);
#376=AXIS2_PLACEMENT_3D('',#544,#430,#431);
#377=AXIS2_PLACEMENT_3D('',#546,#432,#433);
#378=AXIS2_PLACEMENT_3D('',#547,#434,#435);
#379=AXIS2_PLACEMENT_3D('',#549,#436,#437);
#380=AXIS2_PLACEMENT_3D('',#550,#438,#439);
#381=AXIS2_PLACEMENT_3D('',#552,#440,#441);
#382=AXIS2_PLACEMENT_3D('',#553,#442,#443);
#383=AXIS2_PLACEMENT_3D('',#555,#444,#445);
#384=AXIS2_PLACEMENT_3D('',#556,#446,#447);
#385=AXIS2_PLACEMENT_3D('',#558,#448,#449);
#386=AXIS2_PLACEMENT_3D('',#559,#450,#451);
#387=AXIS2_PLACEMENT_3D('',#561,#452,#453);
#388=AXIS2_PLACEMENT_3D('',#562,#454,#455);
#389=AXIS2_PLACEMENT_3D('',#564,#456,#457);
#390=AXIS2_PLACEMENT_3D('',#565,#458,#459);
#391=AXIS2_PLACEMENT_3D('',#567,#460,#461);
#392=AXIS2_PLACEMENT_3D('',#568,#462,#463);
#393=AXIS2_PLACEMENT_3D('',#570,#464,#465);
#394=AXIS2_PLACEMENT_3D('',#571,#466,#467);
#395=AXIS2_PLACEMENT_3D('',#573,#468,#469);
#396=AXIS2_PLACEMENT_3D('',#574,#470,#471);
#397=AXIS2_PLACEMENT_3D('',#576,#472,#473);
#398=AXIS2_PLACEMENT_3D('',#577,#474,#475);
#399=AXIS2_PLACEMENT_3D('',#579,#476,#477);
#400=AXIS2_PLACEMENT_3D('',#580,#478,#479);
#401=AXIS2_PLACEMENT_3D('',#581,#480,#481);
#402=AXIS2_PLACEMENT_3D('',#583,#482,#483);
#403=AXIS2_PLACEMENT_3D('',#584,#484,#485);
#404=AXIS2_PLACEMENT_3D('',#586,#486,#487);
#405=AXIS2_PLACEMENT_3D('',#587,#488,#489);
#406=AXIS2_PLACEMENT_3D('',#589,#490,#491);
#407=AXIS2_PLACEMENT_3D('',#590,#492,#493);
#408=AXIS2_PLACEMENT_3D('',#592,#494,#495);
#409=AXIS2_PLACEMENT_3D('',#593,#496,#497);
#410=AXIS2_PLACEMENT_3D('',#595,#498,#499);
#411=AXIS2_PLACEMENT_3D('',#596,#500,#501);
#412=AXIS2_PLACEMENT_3D('',#598,#502,#503);
#413=AXIS2_PLACEMENT_3D('',#599,#504,#505);
#414=AXIS2_PLACEMENT_3D('',#601,#506,#507);
#415=AXIS2_PLACEMENT_3D('',#602,#508,#509);
#416=AXIS2_PLACEMENT_3D('',#603,#510,#511);
#417=AXIS2_PLACEMENT_3D('',#605,#512,#513);
#418=AXIS2_PLACEMENT_3D('',#606,#514,#515);
#419=AXIS2_PLACEMENT_3D('',#608,#516,#517);
#420=AXIS2_PLACEMENT_3D('',#609,#518,#519);
#421=AXIS2_PLACEMENT_3D('',#613,#522,#523);
#422=AXIS2_PLACEMENT_3D('',#623,#525,#526);
#423=AXIS2_PLACEMENT_3D('',#627,#529,#530);
#424=AXIS2_PLACEMENT_3D('',#631,#533,#534);
#425=AXIS2_PLACEMENT_3D('',#641,#536,#537);
#426=DIRECTION('',(0.,0.,1.));
#427=DIRECTION('',(1.,0.,0.));
#428=DIRECTION('',(1.,0.,0.));
#429=DIRECTION('',(0.,0.,1.));
#430=DIRECTION('',(-1.,0.,0.));
#431=DIRECTION('',(0.,0.,1.));
#432=DIRECTION('',(-1.,0.,0.));
#433=DIRECTION('',(0.,0.,1.));
#434=DIRECTION('',(1.,0.,0.));
#435=DIRECTION('',(0.,0.,1.));
#436=DIRECTION('',(-1.,0.,0.));
#437=DIRECTION('',(0.,0.,1.));
#438=DIRECTION('',(1.,0.,0.));
#439=DIRECTION('',(0.,0.,1.));
#440=DIRECTION('',(-1.,0.,0.));
#441=DIRECTION('',(0.,0.,1.));
#442=DIRECTION('',(1.,0.,0.));
#443=DIRECTION('',(0.,0.,1.));
#444=DIRECTION('',(-1.,0.,0.));
#445=DIRECTION('',(1.4616639122887E-16,0.,1.));
#446=DIRECTION('',(1.,0.,0.));
#447=DIRECTION('',(0.,0.,1.));
#448=DIRECTION('',(-1.,0.,0.));
#449=DIRECTION('',(0.,0.,1.));
#450=DIRECTION('',(1.,0.,0.));
#451=DIRECTION('',(0.,0.,1.));
#452=DIRECTION('',(1.,0.,0.));
#453=DIRECTION('',(-1.46622580846182E-16,0.,-1.));
#454=DIRECTION('',(1.,0.,0.));
#455=DIRECTION('',(0.,0.,1.));
#456=DIRECTION('',(-1.,0.,0.));
#457=DIRECTION('',(0.,0.,1.));
#458=DIRECTION('',(1.,0.,0.));
#459=DIRECTION('',(0.,0.,1.));
#460=DIRECTION('',(-1.,0.,0.));
#461=DIRECTION('',(0.,0.,1.));
#462=DIRECTION('',(1.,0.,0.));
#463=DIRECTION('',(0.,0.,1.));
#464=DIRECTION('',(-1.,0.,0.));
#465=DIRECTION('',(0.,0.,1.));
#466=DIRECTION('',(1.,0.,0.));
#467=DIRECTION('',(0.,0.,1.));
#468=DIRECTION('',(1.,0.,0.));
#469=DIRECTION('',(-5.83789150884307E-18,0.,-1.));
#470=DIRECTION('',(1.,0.,0.));
#471=DIRECTION('',(0.,0.,1.));
#472=DIRECTION('',(-1.,0.,0.));
#473=DIRECTION('',(0.,0.,1.));
#474=DIRECTION('',(1.,0.,0.));
#475=DIRECTION('',(0.,0.,1.));
#476=DIRECTION('',(-1.,0.,0.));
#477=DIRECTION('',(0.,0.,1.));
#478=DIRECTION('',(-1.,0.,0.));
#479=DIRECTION('',(0.,0.,1.));
#480=DIRECTION('',(1.,0.,0.));
#481=DIRECTION('',(0.,0.,1.));
#482=DIRECTION('',(-1.,0.,0.));
#483=DIRECTION('',(0.,0.,1.));
#484=DIRECTION('',(1.,0.,0.));
#485=DIRECTION('',(0.,0.,1.));
#486=DIRECTION('',(-1.,0.,0.));
#487=DIRECTION('',(0.,0.,1.));
#488=DIRECTION('',(1.,0.,0.));
#489=DIRECTION('',(0.,0.,1.));
#490=DIRECTION('',(1.,0.,0.));
#491=DIRECTION('',(7.55509873073443E-17,0.,-1.));
#492=DIRECTION('',(1.,0.,0.));
#493=DIRECTION('',(0.,0.,1.));
#494=DIRECTION('',(-1.,0.,0.));
#495=DIRECTION('',(0.,0.,1.));
#496=DIRECTION('',(1.,0.,0.));
#497=DIRECTION('',(0.,0.,1.));
#498=DIRECTION('',(-1.,0.,0.));
#499=DIRECTION('',(0.,0.,1.));
#500=DIRECTION('',(1.,0.,0.));
#501=DIRECTION('',(0.,0.,1.));
#502=DIRECTION('',(1.,0.,0.));
#503=DIRECTION('',(1.06086676232809E-16,0.,-1.));
#504=DIRECTION('',(1.,0.,0.));
#505=DIRECTION('',(0.,0.,1.));
#506=DIRECTION('',(-1.,0.,0.));
#507=DIRECTION('',(0.,0.,1.));
#508=DIRECTION('',(1.,0.,0.));
#509=DIRECTION('',(0.,0.,-1.));
#510=DIRECTION('',(1.,0.,0.));
#511=DIRECTION('',(0.,0.,-1.));
#512=DIRECTION('',(1.,0.,0.));
#513=DIRECTION('',(0.,0.,-1.));
#514=DIRECTION('',(-1.,0.,0.));
#515=DIRECTION('',(0.,0.,-1.));
#516=DIRECTION('',(1.,0.,0.));
#517=DIRECTION('',(0.,0.,-1.));
#518=DIRECTION('',(1.,0.,0.));
#519=DIRECTION('',(0.,0.,-1.));
#520=DIRECTION('',(0.113203213767907,-0.993571855676587,6.80287574892462E-17));
#521=DIRECTION('',(1.,0.,0.));
#522=DIRECTION('',(1.,0.,0.));
#523=DIRECTION('',(0.,0.,-1.));
#524=DIRECTION('',(1.,0.,0.));
#525=DIRECTION('',(1.,0.,0.));
#526=DIRECTION('',(0.,0.,-1.));
#527=DIRECTION('',(-0.0871557427476583,0.993768017875764,-0.0694910293014736));
#528=DIRECTION('',(1.,0.,0.));
#529=DIRECTION('',(1.,0.,0.));
#530=DIRECTION('',(0.,0.,-1.));
#531=DIRECTION('',(0.0871557427476581,-0.993768017875764,0.0694910293014735));
#532=DIRECTION('',(1.,0.,0.));
#533=DIRECTION('',(1.,0.,0.));
#534=DIRECTION('',(0.,0.,-1.));
#535=DIRECTION('',(1.,0.,0.));
#536=DIRECTION('',(1.,0.,0.));
#537=DIRECTION('',(0.,0.,-1.));
#538=DIRECTION('',(-0.996194698091746,-0.0869434357387568,0.00607967728062674));
#539=DIRECTION('',(1.,0.,0.));
#540=DIRECTION('',(1.,0.,0.));
#541=CARTESIAN_POINT('',(0.,0.,0.));
#542=CARTESIAN_POINT('',(140.,0.,0.));
#543=CARTESIAN_POINT('',(140.,0.,15.7499999999998));
#544=CARTESIAN_POINT('',(141.,0.,0.));
#545=CARTESIAN_POINT('',(141.,0.,14.7499999999998));
#546=CARTESIAN_POINT('',(140.,0.,0.));
#547=CARTESIAN_POINT('',(138.176326980708,0.,0.));
#548=CARTESIAN_POINT('',(138.176326980708,0.,15.7499999999997));
#549=CARTESIAN_POINT('',(0.,0.,0.));
#550=CARTESIAN_POINT('',(137.834306837383,0.,0.));
#551=CARTESIAN_POINT('',(137.834306837383,0.,15.8103073792138));
#552=CARTESIAN_POINT('',(138.176326980708,0.,0.));
#553=CARTESIAN_POINT('',(137.313130645136,0.,0.));
#554=CARTESIAN_POINT('',(137.313130645136,0.,16.));
#555=CARTESIAN_POINT('',(137.834306837383,0.,0.));
#556=CARTESIAN_POINT('',(83.,0.,0.));
#557=CARTESIAN_POINT('',(83.,0.,16.));
#558=CARTESIAN_POINT('',(0.,0.,0.));
#559=CARTESIAN_POINT('',(82.1178539171129,0.,0.));
#560=CARTESIAN_POINT('',(82.1178539171129,0.,15.7636296694841));
#561=CARTESIAN_POINT('',(83.,0.,0.));
#562=CARTESIAN_POINT('',(82.0143262990719,0.,0.));
#563=CARTESIAN_POINT('',(82.0143262990719,0.,15.7499999999997));
#564=CARTESIAN_POINT('',(82.0143262990719,0.,0.));
#565=CARTESIAN_POINT('',(81.2844713195104,0.,0.));
#566=CARTESIAN_POINT('',(81.2844713195104,0.,15.7499999999997));
#567=CARTESIAN_POINT('',(0.,0.,0.));
#568=CARTESIAN_POINT('',(80.8883640920138,0.,0.));
#569=CARTESIAN_POINT('',(80.8883640920138,0.,16.2056692403838));
#570=CARTESIAN_POINT('',(81.2844713195104,0.,0.));
#571=CARTESIAN_POINT('',(81.,0.,0.));
#572=CARTESIAN_POINT('',(81.,0.,17.));
#573=CARTESIAN_POINT('',(80.8883640920138,0.,0.));
#574=CARTESIAN_POINT('',(81.,0.,0.));
#575=CARTESIAN_POINT('',(81.,0.,21.3));
#576=CARTESIAN_POINT('',(81.,17.,0.));
#577=CARTESIAN_POINT('',(80.5872983346208,0.,0.));
#578=CARTESIAN_POINT('',(80.5872983346208,0.,22.));
#579=CARTESIAN_POINT('',(80.2,0.,0.));
#580=CARTESIAN_POINT('',(141.,22.5,0.));
#581=CARTESIAN_POINT('',(76.7451280205571,0.,0.));
#582=CARTESIAN_POINT('',(76.7451280205571,0.,22.));
#583=CARTESIAN_POINT('',(0.,0.,0.));
#584=CARTESIAN_POINT('',(75.3414648593,0.,0.));
#585=CARTESIAN_POINT('',(75.3414648593,0.,21.6513637490412));
#586=CARTESIAN_POINT('',(76.7451280205571,0.,0.));
#587=CARTESIAN_POINT('',(60.0975585678333,0.,0.));
#588=CARTESIAN_POINT('',(60.0975585678333,0.,13.5810604182647));
#589=CARTESIAN_POINT('',(75.3414648593,0.,0.));
#590=CARTESIAN_POINT('',(57.7581199657381,0.,0.));
#591=CARTESIAN_POINT('',(57.7581199657381,0.,13.));
#592=CARTESIAN_POINT('',(57.7581199657381,0.,0.));
#593=CARTESIAN_POINT('',(6.,0.,0.));
#594=CARTESIAN_POINT('',(6.,0.,13.));
#595=CARTESIAN_POINT('',(0.,0.,0.));
#596=CARTESIAN_POINT('',(2.48719685250847,0.,0.));
#597=CARTESIAN_POINT('',(2.48719685250847,0.,12.8159017879815));
#598=CARTESIAN_POINT('',(6.,0.,0.));
#599=CARTESIAN_POINT('',(1.35,0.,0.));
#600=CARTESIAN_POINT('',(1.35,0.,11.617546346276));
#601=CARTESIAN_POINT('',(2.55,0.,0.));
#602=CARTESIAN_POINT('',(1.35,11.617546346276,0.));
#603=CARTESIAN_POINT('',(0.726889900207633,0.,0.));
#604=CARTESIAN_POINT('',(0.726889900207633,0.,-0.100000000001044));
#605=CARTESIAN_POINT('',(0.726889900207633,0.,0.));
#606=CARTESIAN_POINT('',(8.00154417713127,0.,0.));
#607=CARTESIAN_POINT('',(8.00154417713127,0.,-6.29132559109222));
#608=CARTESIAN_POINT('',(8.00154417713127,0.,0.));
#609=CARTESIAN_POINT('',(0.00522350599834777,0.,0.));
#610=CARTESIAN_POINT('',(0.00522350599834777,0.,-6.33477445136379));
#611=CARTESIAN_POINT('',(0.00522350599834811,6.33398510810149,0.0999999999999995));
#612=CARTESIAN_POINT('',(6.,0.,0.));
#613=CARTESIAN_POINT('',(0.0733468319859621,0.,0.));
#614=CARTESIAN_POINT('',(0.0733468319859621,0.,-6.75925377984698));
#615=CARTESIAN_POINT('',(0.694127885873754,7.20005661108478,0.0999999999999994));
#616=CARTESIAN_POINT('',(0.592233084313558,7.18844716488625,0.0999999999999994));
#617=CARTESIAN_POINT('',(0.38973694335195,7.12492254205509,0.0999999999999994));
#618=CARTESIAN_POINT('',(0.152194825304929,6.92410423694796,0.0999999999999995));
#619=CARTESIAN_POINT('',(0.00995883025338884,6.64747601853187,0.0999999999999995));
#620=CARTESIAN_POINT('',(-0.00638594020018513,6.43587990966168,0.0999999999999995));
#621=CARTESIAN_POINT('',(0.00522350599835075,6.33398510810148,0.0999999999999995));
#622=CARTESIAN_POINT('',(6.,0.,0.));
#623=CARTESIAN_POINT('',(0.608705300217839,0.,0.));
#624=CARTESIAN_POINT('',(0.608705300217839,0.,-12.7935432143819));
#625=CARTESIAN_POINT('',(0.608705300217839,-12.5619177860853,2.42342103520888));
#626=CARTESIAN_POINT('',(6.,0.,0.));
#627=CARTESIAN_POINT('',(8.5184912030663,0.,0.));
#628=CARTESIAN_POINT('',(8.5184912030663,0.,-12.106853661663));
#629=CARTESIAN_POINT('',(8.00154417713127,-5.97724873519507,1.96297612077702));
#630=CARTESIAN_POINT('',(6.,0.,0.));
#631=CARTESIAN_POINT('',(7.80715178455159,0.,0.));
#632=CARTESIAN_POINT('',(7.80715178455159,0.,-12.9481473605159));
#633=CARTESIAN_POINT('',(8.51849120306631,-11.8715869063195,2.3751483976007));
#634=CARTESIAN_POINT('',(8.5274293760443,-11.9735018251045,2.38227498296081));
#635=CARTESIAN_POINT('',(8.5055512661313,-12.184083350439,2.39700027768166));
#636=CARTESIAN_POINT('',(8.35612272922886,-12.4562289192414,2.41603054969256));
#637=CARTESIAN_POINT('',(8.11340520054088,-12.6502864125652,2.42960037153445));
#638=CARTESIAN_POINT('',(7.90931556918119,-12.7083467586326,2.43366034643527));
#639=CARTESIAN_POINT('',(7.80715178455159,-12.7172631586704,2.43428384186393));
#640=CARTESIAN_POINT('',(6.,0.,0.));
#641=CARTESIAN_POINT('',(1.45644660778662,0.,0.));
#642=CARTESIAN_POINT('',(1.45644660778662,0.,-13.4999738868519));
#643=CARTESIAN_POINT('',(7.80715178455159,-12.7172631586704,2.43428384186393));
#644=CARTESIAN_POINT('',(6.,0.,0.));
#645=CARTESIAN_POINT('',(1.45644660778662,-13.2715244175283,2.47304156467966));
#646=CARTESIAN_POINT('',(1.35428282315701,-13.2804408175661,2.47366506010832));
#647=CARTESIAN_POINT('',(1.14318707919987,-13.2586160016293,2.4721389203086));
#648=CARTESIAN_POINT('',(0.870376958655266,-13.1095514651325,2.46171531249754));
#649=CARTESIAN_POINT('',(0.675845596710809,-12.8674251841455,2.44478419358038));
#650=CARTESIAN_POINT('',(0.61764347319583,-12.6638327048703,2.43054762056899));
#651=CARTESIAN_POINT('',(0.608705300217836,-12.5619177860853,2.42342103520888));
#652=CARTESIAN_POINT('',(6.,0.,0.));
#653=(
GEOMETRIC_REPRESENTATION_CONTEXT(3)
GLOBAL_UNCERTAINTY_ASSIGNED_CONTEXT((#654))
GLOBAL_UNIT_ASSIGNED_CONTEXT((#660,#656,#655))
REPRESENTATION_CONTEXT('ATUM-27XD2-SP-07T308-32-light',
'TOP_LEVEL_ASSEMBLY_PART')
);
#654=UNCERTAINTY_MEASURE_WITH_UNIT(LENGTH_MEASURE(2.E-5),#660,
'DISTANCE_ACCURACY_VALUE','Maximum Tolerance applied to model');
#655=(
NAMED_UNIT(*)
SI_UNIT($,.STERADIAN.)
SOLID_ANGLE_UNIT()
);
#656=(
CONVERSION_BASED_UNIT('DEGREE',#658)
NAMED_UNIT(#657)
PLANE_ANGLE_UNIT()
);
#657=DIMENSIONAL_EXPONENTS(0.,0.,0.,0.,0.,0.,0.);
#658=PLANE_ANGLE_MEASURE_WITH_UNIT(PLANE_ANGLE_MEASURE(0.0174532925),#659);
#659=(
NAMED_UNIT(*)
PLANE_ANGLE_UNIT()
SI_UNIT($,.RADIAN.)
);
#660=(
LENGTH_UNIT()
NAMED_UNIT(*)
SI_UNIT(.MILLI.,.METRE.)
);
ENDSEC;
END-ISO-10303-21;
