ISO-10303-21;
HEADER;
/* Generated by software containing ST-Developer
 * from STEP Tools, Inc. (www.steptools.com) 
 */
/* OPTION: using custom schema-name function */

FILE_DESCRIPTION(
/* description */ (''),
/* implementation_level */ '2;1');

FILE_NAME(
/* name */ 'ATUM-30XD2-KDR-11T3-light.stp',
/* time_stamp */ '2023-10-24T05:46:20+03:00',
/* author */ (''),
/* organization */ (''),
/* preprocessor_version */ 'ST-DEVELOPER v19.4',
/* originating_system */ 'SIEMENS PLM Software NX2306.3001',
/* authorisation */ '');

FILE_SCHEMA (('AUTOMOTIVE_DESIGN { 1 0 10303 214 3 1 1 1 }'));
ENDSEC;

DATA;
#10=SHAPE_REPRESENTATION_RELATIONSHIP('None',
'relationship between STP_ATUM 30XD2 KDR 11T3-None and STP_ATUM 30XD2 
KDR 11T3-None',#22,#11);
#11=ADVANCED_BREP_SHAPE_REPRESENTATION('STP_ATUM 30XD2 KDR 11T3-None',(#73,
#74),#699);
#12=SHAPE_DEFINITION_REPRESENTATION(#13,#22);
#13=PRODUCT_DEFINITION_SHAPE('','',#14);
#14=PRODUCT_DEFINITION(' ','',#16,#15);
#15=PRODUCT_DEFINITION_CONTEXT('part definition',#21,'design');
#16=PRODUCT_DEFINITION_FORMATION_WITH_SPECIFIED_SOURCE(' ',' ',#18,
 .NOT_KNOWN.);
#17=PRODUCT_RELATED_PRODUCT_CATEGORY('part','',(#18));
#18=PRODUCT('STP_ATUM 30XD2 KDR 11T3','STP_ATUM 30XD2 KDR 11T3',' ',(#19));
#19=PRODUCT_CONTEXT(' ',#21,'mechanical');
#20=APPLICATION_PROTOCOL_DEFINITION('international standard',
'automotive_design',2010,#21);
#21=APPLICATION_CONTEXT(
'core data for automotive mechanical design processes');
#22=SHAPE_REPRESENTATION('STP_ATUM 30XD2 KDR 11T3-None',(#402),#699);
#23=DRAUGHTING_PRE_DEFINED_COLOUR('yellow');
#24=B_SPLINE_CURVE_WITH_KNOTS('',3,(#657,#658,#659,#660,#661,#662,#663),
 .UNSPECIFIED.,.F.,.F.,(4,1,1,1,4),(0.,0.25,0.5,0.75,1.),.UNSPECIFIED.);
#25=B_SPLINE_CURVE_WITH_KNOTS('',3,(#667,#668,#669,#670,#671,#672,#673),
 .UNSPECIFIED.,.F.,.F.,(4,1,1,1,4),(0.,0.25,0.5,0.75,1.),.UNSPECIFIED.);
#26=B_SPLINE_CURVE_WITH_KNOTS('',3,(#681,#682,#683,#684,#685,#686,#687),
 .UNSPECIFIED.,.F.,.F.,(4,1,1,1,4),(0.,0.25,0.5,0.75,1.),.UNSPECIFIED.);
#27=SURFACE_OF_REVOLUTION('',#45,#36);
#28=SURFACE_OF_REVOLUTION('',#24,#37);
#29=SURFACE_OF_REVOLUTION('',#25,#38);
#30=SURFACE_OF_REVOLUTION('',#46,#39);
#31=SURFACE_OF_REVOLUTION('',#26,#40);
#32=SURFACE_OF_REVOLUTION('',#47,#41);
#33=SURFACE_OF_REVOLUTION('',#48,#42);
#34=SURFACE_OF_REVOLUTION('',#49,#43);
#35=SURFACE_OF_REVOLUTION('',#50,#44);
#36=AXIS1_PLACEMENT('',#652,#553);
#37=AXIS1_PLACEMENT('',#664,#558);
#38=AXIS1_PLACEMENT('',#674,#561);
#39=AXIS1_PLACEMENT('',#678,#565);
#40=AXIS1_PLACEMENT('',#688,#568);
#41=AXIS1_PLACEMENT('',#690,#570);
#42=AXIS1_PLACEMENT('',#694,#574);
#43=AXIS1_PLACEMENT('',#696,#576);
#44=AXIS1_PLACEMENT('',#698,#578);
#45=LINE('',#651,#51);
#46=LINE('',#677,#52);
#47=LINE('',#689,#53);
#48=LINE('',#693,#54);
#49=LINE('',#695,#55);
#50=LINE('',#697,#56);
#51=VECTOR('',#552,5.60527458206672);
#52=VECTOR('',#564,9.42939650648373);
#53=VECTOR('',#569,9.42939650648375);
#54=VECTOR('',#573,4.22878565554094);
#55=VECTOR('',#575,4.18245298586507);
#56=VECTOR('',#577,4.58129466494166);
#57=PRESENTATION_LAYER_ASSIGNMENT('1','Layer 1',(#73,#74));
#58=STYLED_ITEM('',(#60),#73);
#59=STYLED_ITEM('',(#61),#74);
#60=PRESENTATION_STYLE_ASSIGNMENT((#62));
#61=PRESENTATION_STYLE_ASSIGNMENT((#63));
#62=SURFACE_STYLE_USAGE(.BOTH.,#64);
#63=SURFACE_STYLE_USAGE(.BOTH.,#65);
#64=SURFACE_SIDE_STYLE('',(#66));
#65=SURFACE_SIDE_STYLE('',(#67));
#66=SURFACE_STYLE_FILL_AREA(#68);
#67=SURFACE_STYLE_FILL_AREA(#69);
#68=FILL_AREA_STYLE('',(#70));
#69=FILL_AREA_STYLE('',(#71));
#70=FILL_AREA_STYLE_COLOUR('',#72);
#71=FILL_AREA_STYLE_COLOUR('',#23);
#72=COLOUR_RGB('smoke gray',0.694117647058824,0.694117647058824,0.694117647058824);
#73=MANIFOLD_SOLID_BREP('',#75);
#74=MANIFOLD_SOLID_BREP('',#76);
#75=CLOSED_SHELL('',(#96,#97,#98,#99,#100,#101,#102,#103,#104,#105,#106,
#107,#108,#109,#110,#111,#112,#113,#114,#115,#116));
#76=CLOSED_SHELL('',(#117,#118,#119,#120,#121,#122,#123,#124,#125,#126,
#127));
#77=FACE_OUTER_BOUND('',#216,.T.);
#78=FACE_OUTER_BOUND('',#231,.T.);
#79=FACE_OUTER_BOUND('',#232,.T.);
#80=FACE_OUTER_BOUND('',#233,.T.);
#81=PLANE('',#425);
#82=PLANE('',#428);
#83=PLANE('',#443);
#84=PLANE('',#445);
#85=PLANE('',#447);
#86=CONICAL_SURFACE('',#411,15.8103073792141,20.0000000000123);
#87=CONICAL_SURFACE('',#415,16.,15.0000000000003);
#88=CONICAL_SURFACE('',#423,16.205669240384,82.000000000001);
#89=CONICAL_SURFACE('',#434,21.7447534047188,23.8059435184577);
#90=CONICAL_SURFACE('',#440,14.5,3.00000000000005);
#91=CYLINDRICAL_SURFACE('',#407,15.75);
#92=CYLINDRICAL_SURFACE('',#413,16.);
#93=CYLINDRICAL_SURFACE('',#419,15.75);
#94=CYLINDRICAL_SURFACE('',#430,22.);
#95=CYLINDRICAL_SURFACE('',#438,14.5);
#96=ADVANCED_FACE('',(#136,#137),#128,.T.);
#97=ADVANCED_FACE('',(#138,#139),#91,.T.);
#98=ADVANCED_FACE('',(#140,#141),#129,.F.);
#99=ADVANCED_FACE('',(#142,#143),#86,.T.);
#100=ADVANCED_FACE('',(#144,#145),#92,.T.);
#101=ADVANCED_FACE('',(#146,#147),#87,.T.);
#102=ADVANCED_FACE('',(#148,#149),#130,.F.);
#103=ADVANCED_FACE('',(#150,#151),#93,.T.);
#104=ADVANCED_FACE('',(#152,#153),#131,.F.);
#105=ADVANCED_FACE('',(#154,#155),#88,.F.);
#106=ADVANCED_FACE('',(#156,#157),#81,.F.);
#107=ADVANCED_FACE('',(#158,#159),#132,.T.);
#108=ADVANCED_FACE('',(#77),#82,.F.);
#109=ADVANCED_FACE('',(#160,#161),#94,.T.);
#110=ADVANCED_FACE('',(#162,#163),#133,.T.);
#111=ADVANCED_FACE('',(#164,#165),#89,.T.);
#112=ADVANCED_FACE('',(#166,#167),#134,.F.);
#113=ADVANCED_FACE('',(#168,#169),#95,.T.);
#114=ADVANCED_FACE('',(#170,#171),#90,.T.);
#115=ADVANCED_FACE('',(#172,#173),#135,.T.);
#116=ADVANCED_FACE('',(#78),#83,.F.);
#117=ADVANCED_FACE('',(#79),#84,.T.);
#118=ADVANCED_FACE('',(#80),#85,.F.);
#119=ADVANCED_FACE('',(#174,#175),#27,.T.);
#120=ADVANCED_FACE('',(#176,#177),#28,.T.);
#121=ADVANCED_FACE('',(#178,#179),#29,.T.);
#122=ADVANCED_FACE('',(#180,#181),#30,.T.);
#123=ADVANCED_FACE('',(#182,#183),#31,.T.);
#124=ADVANCED_FACE('',(#184,#185),#32,.T.);
#125=ADVANCED_FACE('',(#186,#187),#33,.T.);
#126=ADVANCED_FACE('',(#188,#189),#34,.T.);
#127=ADVANCED_FACE('',(#190,#191),#35,.T.);
#128=TOROIDAL_SURFACE('',#405,14.75,0.999999999999972);
#129=TOROIDAL_SURFACE('',#409,16.75,1.00000000000011);
#130=TOROIDAL_SURFACE('',#417,16.15,0.399999999999999);
#131=TOROIDAL_SURFACE('',#421,16.15,0.4);
#132=TOROIDAL_SURFACE('',#427,21.3,0.799999999999997);
#133=TOROIDAL_SURFACE('',#432,19.,3.);
#134=TOROIDAL_SURFACE('',#436,19.5,5.);
#135=TOROIDAL_SURFACE('',#442,12.8307990412594,1.4);
#136=FACE_BOUND('',#192,.T.);
#137=FACE_BOUND('',#193,.T.);
#138=FACE_BOUND('',#194,.T.);
#139=FACE_BOUND('',#195,.T.);
#140=FACE_BOUND('',#196,.T.);
#141=FACE_BOUND('',#197,.T.);
#142=FACE_BOUND('',#198,.T.);
#143=FACE_BOUND('',#199,.T.);
#144=FACE_BOUND('',#200,.T.);
#145=FACE_BOUND('',#201,.T.);
#146=FACE_BOUND('',#202,.T.);
#147=FACE_BOUND('',#203,.T.);
#148=FACE_BOUND('',#204,.T.);
#149=FACE_BOUND('',#205,.T.);
#150=FACE_BOUND('',#206,.T.);
#151=FACE_BOUND('',#207,.T.);
#152=FACE_BOUND('',#208,.T.);
#153=FACE_BOUND('',#209,.T.);
#154=FACE_BOUND('',#210,.T.);
#155=FACE_BOUND('',#211,.T.);
#156=FACE_BOUND('',#212,.T.);
#157=FACE_BOUND('',#213,.T.);
#158=FACE_BOUND('',#214,.T.);
#159=FACE_BOUND('',#215,.T.);
#160=FACE_BOUND('',#217,.T.);
#161=FACE_BOUND('',#218,.T.);
#162=FACE_BOUND('',#219,.T.);
#163=FACE_BOUND('',#220,.T.);
#164=FACE_BOUND('',#221,.T.);
#165=FACE_BOUND('',#222,.T.);
#166=FACE_BOUND('',#223,.T.);
#167=FACE_BOUND('',#224,.T.);
#168=FACE_BOUND('',#225,.T.);
#169=FACE_BOUND('',#226,.T.);
#170=FACE_BOUND('',#227,.T.);
#171=FACE_BOUND('',#228,.T.);
#172=FACE_BOUND('',#229,.T.);
#173=FACE_BOUND('',#230,.T.);
#174=FACE_BOUND('',#234,.T.);
#175=FACE_BOUND('',#235,.T.);
#176=FACE_BOUND('',#236,.T.);
#177=FACE_BOUND('',#237,.T.);
#178=FACE_BOUND('',#238,.T.);
#179=FACE_BOUND('',#239,.T.);
#180=FACE_BOUND('',#240,.T.);
#181=FACE_BOUND('',#241,.T.);
#182=FACE_BOUND('',#242,.T.);
#183=FACE_BOUND('',#243,.T.);
#184=FACE_BOUND('',#244,.T.);
#185=FACE_BOUND('',#245,.T.);
#186=FACE_BOUND('',#246,.T.);
#187=FACE_BOUND('',#247,.T.);
#188=FACE_BOUND('',#248,.T.);
#189=FACE_BOUND('',#249,.T.);
#190=FACE_BOUND('',#250,.T.);
#191=FACE_BOUND('',#251,.T.);
#192=EDGE_LOOP('',(#252));
#193=EDGE_LOOP('',(#253));
#194=EDGE_LOOP('',(#254));
#195=EDGE_LOOP('',(#255));
#196=EDGE_LOOP('',(#256));
#197=EDGE_LOOP('',(#257));
#198=EDGE_LOOP('',(#258));
#199=EDGE_LOOP('',(#259));
#200=EDGE_LOOP('',(#260));
#201=EDGE_LOOP('',(#261));
#202=EDGE_LOOP('',(#262));
#203=EDGE_LOOP('',(#263));
#204=EDGE_LOOP('',(#264));
#205=EDGE_LOOP('',(#265));
#206=EDGE_LOOP('',(#266));
#207=EDGE_LOOP('',(#267));
#208=EDGE_LOOP('',(#268));
#209=EDGE_LOOP('',(#269));
#210=EDGE_LOOP('',(#270));
#211=EDGE_LOOP('',(#271));
#212=EDGE_LOOP('',(#272));
#213=EDGE_LOOP('',(#273));
#214=EDGE_LOOP('',(#274));
#215=EDGE_LOOP('',(#275));
#216=EDGE_LOOP('',(#276));
#217=EDGE_LOOP('',(#277));
#218=EDGE_LOOP('',(#278));
#219=EDGE_LOOP('',(#279));
#220=EDGE_LOOP('',(#280));
#221=EDGE_LOOP('',(#281));
#222=EDGE_LOOP('',(#282));
#223=EDGE_LOOP('',(#283));
#224=EDGE_LOOP('',(#284));
#225=EDGE_LOOP('',(#285));
#226=EDGE_LOOP('',(#286));
#227=EDGE_LOOP('',(#287));
#228=EDGE_LOOP('',(#288));
#229=EDGE_LOOP('',(#289));
#230=EDGE_LOOP('',(#290));
#231=EDGE_LOOP('',(#291));
#232=EDGE_LOOP('',(#292));
#233=EDGE_LOOP('',(#293));
#234=EDGE_LOOP('',(#294));
#235=EDGE_LOOP('',(#295));
#236=EDGE_LOOP('',(#296));
#237=EDGE_LOOP('',(#297));
#238=EDGE_LOOP('',(#298));
#239=EDGE_LOOP('',(#299));
#240=EDGE_LOOP('',(#300));
#241=EDGE_LOOP('',(#301));
#242=EDGE_LOOP('',(#302));
#243=EDGE_LOOP('',(#303));
#244=EDGE_LOOP('',(#304));
#245=EDGE_LOOP('',(#305));
#246=EDGE_LOOP('',(#306));
#247=EDGE_LOOP('',(#307));
#248=EDGE_LOOP('',(#308));
#249=EDGE_LOOP('',(#309));
#250=EDGE_LOOP('',(#310));
#251=EDGE_LOOP('',(#311));
#252=ORIENTED_EDGE('',*,*,#342,.T.);
#253=ORIENTED_EDGE('',*,*,#343,.T.);
#254=ORIENTED_EDGE('',*,*,#344,.T.);
#255=ORIENTED_EDGE('',*,*,#342,.F.);
#256=ORIENTED_EDGE('',*,*,#345,.T.);
#257=ORIENTED_EDGE('',*,*,#344,.F.);
#258=ORIENTED_EDGE('',*,*,#346,.T.);
#259=ORIENTED_EDGE('',*,*,#345,.F.);
#260=ORIENTED_EDGE('',*,*,#347,.T.);
#261=ORIENTED_EDGE('',*,*,#346,.F.);
#262=ORIENTED_EDGE('',*,*,#348,.T.);
#263=ORIENTED_EDGE('',*,*,#347,.F.);
#264=ORIENTED_EDGE('',*,*,#349,.T.);
#265=ORIENTED_EDGE('',*,*,#348,.F.);
#266=ORIENTED_EDGE('',*,*,#350,.T.);
#267=ORIENTED_EDGE('',*,*,#349,.F.);
#268=ORIENTED_EDGE('',*,*,#351,.T.);
#269=ORIENTED_EDGE('',*,*,#350,.F.);
#270=ORIENTED_EDGE('',*,*,#352,.T.);
#271=ORIENTED_EDGE('',*,*,#351,.F.);
#272=ORIENTED_EDGE('',*,*,#353,.T.);
#273=ORIENTED_EDGE('',*,*,#352,.F.);
#274=ORIENTED_EDGE('',*,*,#354,.T.);
#275=ORIENTED_EDGE('',*,*,#353,.F.);
#276=ORIENTED_EDGE('',*,*,#343,.F.);
#277=ORIENTED_EDGE('',*,*,#355,.T.);
#278=ORIENTED_EDGE('',*,*,#354,.F.);
#279=ORIENTED_EDGE('',*,*,#356,.T.);
#280=ORIENTED_EDGE('',*,*,#355,.F.);
#281=ORIENTED_EDGE('',*,*,#357,.T.);
#282=ORIENTED_EDGE('',*,*,#356,.F.);
#283=ORIENTED_EDGE('',*,*,#358,.T.);
#284=ORIENTED_EDGE('',*,*,#357,.F.);
#285=ORIENTED_EDGE('',*,*,#359,.T.);
#286=ORIENTED_EDGE('',*,*,#358,.F.);
#287=ORIENTED_EDGE('',*,*,#360,.T.);
#288=ORIENTED_EDGE('',*,*,#359,.F.);
#289=ORIENTED_EDGE('',*,*,#361,.T.);
#290=ORIENTED_EDGE('',*,*,#360,.F.);
#291=ORIENTED_EDGE('',*,*,#361,.F.);
#292=ORIENTED_EDGE('',*,*,#362,.T.);
#293=ORIENTED_EDGE('',*,*,#363,.F.);
#294=ORIENTED_EDGE('',*,*,#364,.F.);
#295=ORIENTED_EDGE('',*,*,#365,.F.);
#296=ORIENTED_EDGE('',*,*,#366,.T.);
#297=ORIENTED_EDGE('',*,*,#367,.F.);
#298=ORIENTED_EDGE('',*,*,#368,.F.);
#299=ORIENTED_EDGE('',*,*,#364,.T.);
#300=ORIENTED_EDGE('',*,*,#369,.F.);
#301=ORIENTED_EDGE('',*,*,#368,.T.);
#302=ORIENTED_EDGE('',*,*,#370,.F.);
#303=ORIENTED_EDGE('',*,*,#369,.T.);
#304=ORIENTED_EDGE('',*,*,#366,.F.);
#305=ORIENTED_EDGE('',*,*,#370,.T.);
#306=ORIENTED_EDGE('',*,*,#371,.T.);
#307=ORIENTED_EDGE('',*,*,#365,.T.);
#308=ORIENTED_EDGE('',*,*,#362,.F.);
#309=ORIENTED_EDGE('',*,*,#367,.T.);
#310=ORIENTED_EDGE('',*,*,#371,.F.);
#311=ORIENTED_EDGE('',*,*,#363,.T.);
#312=VERTEX_POINT('',#581);
#313=VERTEX_POINT('',#583);
#314=VERTEX_POINT('',#586);
#315=VERTEX_POINT('',#589);
#316=VERTEX_POINT('',#592);
#317=VERTEX_POINT('',#595);
#318=VERTEX_POINT('',#598);
#319=VERTEX_POINT('',#601);
#320=VERTEX_POINT('',#604);
#321=VERTEX_POINT('',#607);
#322=VERTEX_POINT('',#610);
#323=VERTEX_POINT('',#613);
#324=VERTEX_POINT('',#616);
#325=VERTEX_POINT('',#620);
#326=VERTEX_POINT('',#623);
#327=VERTEX_POINT('',#626);
#328=VERTEX_POINT('',#629);
#329=VERTEX_POINT('',#632);
#330=VERTEX_POINT('',#635);
#331=VERTEX_POINT('',#638);
#332=VERTEX_POINT('',#642);
#333=VERTEX_POINT('',#645);
#334=VERTEX_POINT('',#648);
#335=VERTEX_POINT('',#650);
#336=VERTEX_POINT('',#654);
#337=VERTEX_POINT('',#656);
#338=VERTEX_POINT('',#666);
#339=VERTEX_POINT('',#676);
#340=VERTEX_POINT('',#680);
#341=VERTEX_POINT('',#692);
#342=EDGE_CURVE('',#312,#312,#372,.T.);
#343=EDGE_CURVE('',#313,#313,#373,.T.);
#344=EDGE_CURVE('',#314,#314,#374,.T.);
#345=EDGE_CURVE('',#315,#315,#375,.T.);
#346=EDGE_CURVE('',#316,#316,#376,.T.);
#347=EDGE_CURVE('',#317,#317,#377,.T.);
#348=EDGE_CURVE('',#318,#318,#378,.T.);
#349=EDGE_CURVE('',#319,#319,#379,.T.);
#350=EDGE_CURVE('',#320,#320,#380,.T.);
#351=EDGE_CURVE('',#321,#321,#381,.T.);
#352=EDGE_CURVE('',#322,#322,#382,.T.);
#353=EDGE_CURVE('',#323,#323,#383,.T.);
#354=EDGE_CURVE('',#324,#324,#384,.T.);
#355=EDGE_CURVE('',#325,#325,#385,.T.);
#356=EDGE_CURVE('',#326,#326,#386,.T.);
#357=EDGE_CURVE('',#327,#327,#387,.T.);
#358=EDGE_CURVE('',#328,#328,#388,.T.);
#359=EDGE_CURVE('',#329,#329,#389,.T.);
#360=EDGE_CURVE('',#330,#330,#390,.T.);
#361=EDGE_CURVE('',#331,#331,#391,.T.);
#362=EDGE_CURVE('',#332,#332,#392,.T.);
#363=EDGE_CURVE('',#333,#333,#393,.T.);
#364=EDGE_CURVE('',#334,#334,#394,.T.);
#365=EDGE_CURVE('',#335,#335,#395,.T.);
#366=EDGE_CURVE('',#336,#336,#396,.T.);
#367=EDGE_CURVE('',#337,#337,#397,.T.);
#368=EDGE_CURVE('',#338,#338,#398,.T.);
#369=EDGE_CURVE('',#339,#339,#399,.T.);
#370=EDGE_CURVE('',#340,#340,#400,.T.);
#371=EDGE_CURVE('',#341,#341,#401,.T.);
#372=CIRCLE('',#403,15.75);
#373=CIRCLE('',#404,14.75);
#374=CIRCLE('',#406,15.75);
#375=CIRCLE('',#408,15.8103073792141);
#376=CIRCLE('',#410,16.);
#377=CIRCLE('',#412,16.);
#378=CIRCLE('',#414,15.7636296694844);
#379=CIRCLE('',#416,15.75);
#380=CIRCLE('',#418,15.75);
#381=CIRCLE('',#420,16.205669240384);
#382=CIRCLE('',#422,17.);
#383=CIRCLE('',#424,21.3);
#384=CIRCLE('',#426,22.);
#385=CIRCLE('',#429,22.);
#386=CIRCLE('',#431,21.7447534047188);
#387=CIRCLE('',#433,14.9254109921353);
#388=CIRCLE('',#435,14.5);
#389=CIRCLE('',#437,14.5);
#390=CIRCLE('',#439,14.2288803899158);
#391=CIRCLE('',#441,12.8307990412594);
#392=CIRCLE('',#444,0.176496179569581);
#393=CIRCLE('',#446,0.172756360512614);
#394=CIRCLE('',#448,14.2460446578901);
#395=CIRCLE('',#449,8.66626778943653);
#396=CIRCLE('',#450,4.44569095768931);
#397=CIRCLE('',#451,4.11212517591611);
#398=CIRCLE('',#452,14.9999959130391);
#399=CIRCLE('',#453,14.6541846491457);
#400=CIRCLE('',#454,13.8415608006973);
#401=CIRCLE('',#455,4.50441768947809);
#402=AXIS2_PLACEMENT_3D('',#579,#456,#457);
#403=AXIS2_PLACEMENT_3D('',#580,#458,#459);
#404=AXIS2_PLACEMENT_3D('',#582,#460,#461);
#405=AXIS2_PLACEMENT_3D('',#584,#462,#463);
#406=AXIS2_PLACEMENT_3D('',#585,#464,#465);
#407=AXIS2_PLACEMENT_3D('',#587,#466,#467);
#408=AXIS2_PLACEMENT_3D('',#588,#468,#469);
#409=AXIS2_PLACEMENT_3D('',#590,#470,#471);
#410=AXIS2_PLACEMENT_3D('',#591,#472,#473);
#411=AXIS2_PLACEMENT_3D('',#593,#474,#475);
#412=AXIS2_PLACEMENT_3D('',#594,#476,#477);
#413=AXIS2_PLACEMENT_3D('',#596,#478,#479);
#414=AXIS2_PLACEMENT_3D('',#597,#480,#481);
#415=AXIS2_PLACEMENT_3D('',#599,#482,#483);
#416=AXIS2_PLACEMENT_3D('',#600,#484,#485);
#417=AXIS2_PLACEMENT_3D('',#602,#486,#487);
#418=AXIS2_PLACEMENT_3D('',#603,#488,#489);
#419=AXIS2_PLACEMENT_3D('',#605,#490,#491);
#420=AXIS2_PLACEMENT_3D('',#606,#492,#493);
#421=AXIS2_PLACEMENT_3D('',#608,#494,#495);
#422=AXIS2_PLACEMENT_3D('',#609,#496,#497);
#423=AXIS2_PLACEMENT_3D('',#611,#498,#499);
#424=AXIS2_PLACEMENT_3D('',#612,#500,#501);
#425=AXIS2_PLACEMENT_3D('',#614,#502,#503);
#426=AXIS2_PLACEMENT_3D('',#615,#504,#505);
#427=AXIS2_PLACEMENT_3D('',#617,#506,#507);
#428=AXIS2_PLACEMENT_3D('',#618,#508,#509);
#429=AXIS2_PLACEMENT_3D('',#619,#510,#511);
#430=AXIS2_PLACEMENT_3D('',#621,#512,#513);
#431=AXIS2_PLACEMENT_3D('',#622,#514,#515);
#432=AXIS2_PLACEMENT_3D('',#624,#516,#517);
#433=AXIS2_PLACEMENT_3D('',#625,#518,#519);
#434=AXIS2_PLACEMENT_3D('',#627,#520,#521);
#435=AXIS2_PLACEMENT_3D('',#628,#522,#523);
#436=AXIS2_PLACEMENT_3D('',#630,#524,#525);
#437=AXIS2_PLACEMENT_3D('',#631,#526,#527);
#438=AXIS2_PLACEMENT_3D('',#633,#528,#529);
#439=AXIS2_PLACEMENT_3D('',#634,#530,#531);
#440=AXIS2_PLACEMENT_3D('',#636,#532,#533);
#441=AXIS2_PLACEMENT_3D('',#637,#534,#535);
#442=AXIS2_PLACEMENT_3D('',#639,#536,#537);
#443=AXIS2_PLACEMENT_3D('',#640,#538,#539);
#444=AXIS2_PLACEMENT_3D('',#641,#540,#541);
#445=AXIS2_PLACEMENT_3D('',#643,#542,#543);
#446=AXIS2_PLACEMENT_3D('',#644,#544,#545);
#447=AXIS2_PLACEMENT_3D('',#646,#546,#547);
#448=AXIS2_PLACEMENT_3D('',#647,#548,#549);
#449=AXIS2_PLACEMENT_3D('',#649,#550,#551);
#450=AXIS2_PLACEMENT_3D('',#653,#554,#555);
#451=AXIS2_PLACEMENT_3D('',#655,#556,#557);
#452=AXIS2_PLACEMENT_3D('',#665,#559,#560);
#453=AXIS2_PLACEMENT_3D('',#675,#562,#563);
#454=AXIS2_PLACEMENT_3D('',#679,#566,#567);
#455=AXIS2_PLACEMENT_3D('',#691,#571,#572);
#456=DIRECTION('',(0.,0.,1.));
#457=DIRECTION('',(1.,0.,0.));
#458=DIRECTION('',(1.,0.,0.));
#459=DIRECTION('',(0.,0.,1.));
#460=DIRECTION('',(-1.,0.,0.));
#461=DIRECTION('',(0.,0.,1.));
#462=DIRECTION('',(-1.,0.,0.));
#463=DIRECTION('',(0.,0.,1.));
#464=DIRECTION('',(1.,0.,0.));
#465=DIRECTION('',(0.,0.,1.));
#466=DIRECTION('',(-1.,0.,0.));
#467=DIRECTION('',(0.,0.,1.));
#468=DIRECTION('',(1.,0.,0.));
#469=DIRECTION('',(0.,0.,1.));
#470=DIRECTION('',(-1.,0.,0.));
#471=DIRECTION('',(0.,0.,1.));
#472=DIRECTION('',(1.,0.,0.));
#473=DIRECTION('',(0.,0.,1.));
#474=DIRECTION('',(-1.,0.,0.));
#475=DIRECTION('',(-7.30831956143906E-17,0.,1.));
#476=DIRECTION('',(1.,0.,0.));
#477=DIRECTION('',(0.,0.,1.));
#478=DIRECTION('',(-1.,0.,0.));
#479=DIRECTION('',(0.,0.,1.));
#480=DIRECTION('',(1.,0.,0.));
#481=DIRECTION('',(0.,0.,1.));
#482=DIRECTION('',(1.,0.,0.));
#483=DIRECTION('',(-9.7748387230793E-17,0.,-1.));
#484=DIRECTION('',(1.,0.,0.));
#485=DIRECTION('',(0.,0.,1.));
#486=DIRECTION('',(-1.,0.,0.));
#487=DIRECTION('',(0.,0.,1.));
#488=DIRECTION('',(1.,0.,0.));
#489=DIRECTION('',(0.,0.,1.));
#490=DIRECTION('',(-1.,0.,0.));
#491=DIRECTION('',(0.,0.,1.));
#492=DIRECTION('',(1.,0.,0.));
#493=DIRECTION('',(0.,0.,1.));
#494=DIRECTION('',(-1.,0.,0.));
#495=DIRECTION('',(0.,0.,1.));
#496=DIRECTION('',(1.,0.,0.));
#497=DIRECTION('',(0.,0.,1.));
#498=DIRECTION('',(1.,0.,0.));
#499=DIRECTION('',(-1.16757830176858E-17,0.,-1.));
#500=DIRECTION('',(1.,0.,0.));
#501=DIRECTION('',(0.,0.,1.));
#502=DIRECTION('',(-1.,0.,0.));
#503=DIRECTION('',(0.,0.,1.));
#504=DIRECTION('',(1.,0.,0.));
#505=DIRECTION('',(0.,0.,1.));
#506=DIRECTION('',(-1.,0.,0.));
#507=DIRECTION('',(0.,0.,1.));
#508=DIRECTION('',(-1.,0.,0.));
#509=DIRECTION('',(0.,0.,1.));
#510=DIRECTION('',(1.,0.,0.));
#511=DIRECTION('',(0.,0.,1.));
#512=DIRECTION('',(-1.,0.,0.));
#513=DIRECTION('',(0.,0.,1.));
#514=DIRECTION('',(1.,0.,0.));
#515=DIRECTION('',(0.,0.,1.));
#516=DIRECTION('',(-1.,0.,0.));
#517=DIRECTION('',(0.,0.,1.));
#518=DIRECTION('',(1.,0.,0.));
#519=DIRECTION('',(0.,0.,1.));
#520=DIRECTION('',(1.,0.,0.));
#521=DIRECTION('',(0.,0.,-1.));
#522=DIRECTION('',(1.,0.,0.));
#523=DIRECTION('',(0.,0.,1.));
#524=DIRECTION('',(-1.,0.,0.));
#525=DIRECTION('',(0.,0.,1.));
#526=DIRECTION('',(1.,0.,0.));
#527=DIRECTION('',(0.,0.,1.));
#528=DIRECTION('',(-1.,0.,0.));
#529=DIRECTION('',(0.,0.,1.));
#530=DIRECTION('',(1.,0.,0.));
#531=DIRECTION('',(0.,0.,1.));
#532=DIRECTION('',(1.,0.,0.));
#533=DIRECTION('',(1.03708327764899E-16,0.,-1.));
#534=DIRECTION('',(1.,0.,0.));
#535=DIRECTION('',(0.,0.,1.));
#536=DIRECTION('',(-1.,0.,0.));
#537=DIRECTION('',(0.,0.,1.));
#538=DIRECTION('',(1.,0.,0.));
#539=DIRECTION('',(0.,0.,-1.));
#540=DIRECTION('',(1.,0.,0.));
#541=DIRECTION('',(0.,0.,-1.));
#542=DIRECTION('',(1.,0.,0.));
#543=DIRECTION('',(0.,0.,-1.));
#544=DIRECTION('',(1.,0.,0.));
#545=DIRECTION('',(0.,0.,-1.));
#546=DIRECTION('',(1.,0.,0.));
#547=DIRECTION('',(0.,0.,-1.));
#548=DIRECTION('',(1.,0.,0.));
#549=DIRECTION('',(0.,0.,-1.));
#550=DIRECTION('',(-1.,0.,0.));
#551=DIRECTION('',(0.,0.,-1.));
#552=DIRECTION('',(0.0348782368720625,-0.999390827019096,-0.00121797487008786));
#553=DIRECTION('',(1.,0.,0.));
#554=DIRECTION('',(1.,0.,0.));
#555=DIRECTION('',(0.,0.,-1.));
#556=DIRECTION('',(1.,0.,0.));
#557=DIRECTION('',(0.,0.,-1.));
#558=DIRECTION('',(1.,0.,0.));
#559=DIRECTION('',(1.,0.,0.));
#560=DIRECTION('',(0.,0.,-1.));
#561=DIRECTION('',(1.,0.,0.));
#562=DIRECTION('',(1.,0.,0.));
#563=DIRECTION('',(0.,0.,-1.));
#564=DIRECTION('',(0.998782025129912,0.0348994967025008,-0.0348782368720626));
#565=DIRECTION('',(1.,0.,0.));
#566=DIRECTION('',(1.,0.,0.));
#567=DIRECTION('',(0.,0.,-1.));
#568=DIRECTION('',(1.,0.,0.));
#569=DIRECTION('',(-0.0348782368720625,0.999390827019096,0.00121797487008783));
#570=DIRECTION('',(1.,0.,0.));
#571=DIRECTION('',(1.,0.,0.));
#572=DIRECTION('',(0.,0.,-1.));
#573=DIRECTION('',(0.173542395888915,0.980046340046539,0.0969134056285203));
#574=DIRECTION('',(1.,0.,0.));
#575=DIRECTION('',(-0.173542395888915,-0.980046340046539,-0.0969134056285203));
#576=DIRECTION('',(1.,0.,0.));
#577=DIRECTION('',(-0.17354239588891,0.978779406151604,0.108967476444353));
#578=DIRECTION('',(1.,0.,0.));
#579=CARTESIAN_POINT('',(0.,0.,0.));
#580=CARTESIAN_POINT('',(146.,0.,0.));
#581=CARTESIAN_POINT('',(146.,0.,15.75));
#582=CARTESIAN_POINT('',(147.,0.,0.));
#583=CARTESIAN_POINT('',(147.,0.,14.75));
#584=CARTESIAN_POINT('',(146.,0.,0.));
#585=CARTESIAN_POINT('',(144.176326980709,0.,0.));
#586=CARTESIAN_POINT('',(144.176326980709,0.,15.75));
#587=CARTESIAN_POINT('',(0.,0.,0.));
#588=CARTESIAN_POINT('',(143.834306837383,0.,0.));
#589=CARTESIAN_POINT('',(143.834306837383,0.,15.8103073792141));
#590=CARTESIAN_POINT('',(144.176326980709,0.,0.));
#591=CARTESIAN_POINT('',(143.313130645137,0.,0.));
#592=CARTESIAN_POINT('',(143.313130645137,0.,16.));
#593=CARTESIAN_POINT('',(143.834306837383,0.,0.));
#594=CARTESIAN_POINT('',(89.,0.,0.));
#595=CARTESIAN_POINT('',(89.,0.,16.));
#596=CARTESIAN_POINT('',(0.,0.,0.));
#597=CARTESIAN_POINT('',(88.1178539171139,0.,0.));
#598=CARTESIAN_POINT('',(88.1178539171139,0.,15.7636296694844));
#599=CARTESIAN_POINT('',(89.,0.,0.));
#600=CARTESIAN_POINT('',(88.0143262990728,0.,0.));
#601=CARTESIAN_POINT('',(88.0143262990728,0.,15.75));
#602=CARTESIAN_POINT('',(88.0143262990728,0.,0.));
#603=CARTESIAN_POINT('',(87.2844713195104,0.,0.));
#604=CARTESIAN_POINT('',(87.2844713195104,0.,15.75));
#605=CARTESIAN_POINT('',(0.,0.,0.));
#606=CARTESIAN_POINT('',(86.8883640920138,0.,0.));
#607=CARTESIAN_POINT('',(86.8883640920138,0.,16.205669240384));
#608=CARTESIAN_POINT('',(87.2844713195104,0.,0.));
#609=CARTESIAN_POINT('',(87.,0.,0.));
#610=CARTESIAN_POINT('',(87.,0.,17.));
#611=CARTESIAN_POINT('',(86.8883640920138,0.,0.));
#612=CARTESIAN_POINT('',(87.,0.,0.));
#613=CARTESIAN_POINT('',(87.,0.,21.3));
#614=CARTESIAN_POINT('',(87.,17.,0.));
#615=CARTESIAN_POINT('',(86.5872983346207,0.,0.));
#616=CARTESIAN_POINT('',(86.5872983346207,0.,22.));
#617=CARTESIAN_POINT('',(86.2,0.,0.));
#618=CARTESIAN_POINT('',(147.,22.5,0.));
#619=CARTESIAN_POINT('',(82.6323616704248,0.,0.));
#620=CARTESIAN_POINT('',(82.6323616704248,0.,22.));
#621=CARTESIAN_POINT('',(0.,0.,0.));
#622=CARTESIAN_POINT('',(81.4214410506959,0.,0.));
#623=CARTESIAN_POINT('',(81.4214410506959,0.,21.7447534047188));
#624=CARTESIAN_POINT('',(82.6323616704248,0.,0.));
#625=CARTESIAN_POINT('',(65.9642649155068,0.,0.));
#626=CARTESIAN_POINT('',(65.9642649155068,0.,14.9254109921353));
#627=CARTESIAN_POINT('',(81.4214410506959,0.,0.));
#628=CARTESIAN_POINT('',(63.9460638826253,0.,0.));
#629=CARTESIAN_POINT('',(63.9460638826253,0.,14.5));
#630=CARTESIAN_POINT('',(63.9460638826253,0.,0.));
#631=CARTESIAN_POINT('',(8.,0.,0.));
#632=CARTESIAN_POINT('',(8.,0.,14.5));
#633=CARTESIAN_POINT('',(0.,0.,0.));
#634=CARTESIAN_POINT('',(2.82672966125988,0.,0.));
#635=CARTESIAN_POINT('',(2.82672966125988,0.,14.2288803899158));
#636=CARTESIAN_POINT('',(8.,0.,0.));
#637=CARTESIAN_POINT('',(1.5,0.,0.));
#638=CARTESIAN_POINT('',(1.5,0.,12.8307990412594));
#639=CARTESIAN_POINT('',(2.9,0.,0.));
#640=CARTESIAN_POINT('',(1.5,12.8307990412594,0.));
#641=CARTESIAN_POINT('',(10.7737669712393,0.,0.));
#642=CARTESIAN_POINT('',(10.7737669712393,0.,-0.176496179569581));
#643=CARTESIAN_POINT('',(10.7737669712393,0.,0.));
#644=CARTESIAN_POINT('',(0.795053003794956,0.,0.));
#645=CARTESIAN_POINT('',(0.795053003794956,0.,-0.172756360512614));
#646=CARTESIAN_POINT('',(0.795053003794956,0.,0.));
#647=CARTESIAN_POINT('',(0.929379840337421,0.,0.));
#648=CARTESIAN_POINT('',(0.929379840337421,0.,-14.2460446578901));
#649=CARTESIAN_POINT('',(0.733877745731148,0.,0.));
#650=CARTESIAN_POINT('',(0.733877745731148,0.,-8.66626778943653));
#651=CARTESIAN_POINT('',(0.733877745731148,-8.61124889658435,0.974981968705021));
#652=CARTESIAN_POINT('',(8.,0.,0.));
#653=CARTESIAN_POINT('',(11.5871013918527,0.,0.));
#654=CARTESIAN_POINT('',(11.5871013918527,0.,-4.44569095768931));
#655=CARTESIAN_POINT('',(11.4995998830991,0.,0.));
#656=CARTESIAN_POINT('',(11.4995998830991,0.,-4.11212517591611));
#657=CARTESIAN_POINT('',(11.5871013918527,-4.40556206019186,0.595979047516424));
#658=CARTESIAN_POINT('',(11.5835160072239,-4.30282749472255,0.596104251906586));
#659=CARTESIAN_POINT('',(11.5358672069795,-4.095645075454,0.597768184676479));
#660=CARTESIAN_POINT('',(11.3535280736297,-3.84197807405942,0.604135607521513));
#661=CARTESIAN_POINT('',(11.0879138079964,-3.67766715215811,0.613411062065413));
#662=CARTESIAN_POINT('',(10.8780381648959,-3.64455776368158,0.620740081020057));
#663=CARTESIAN_POINT('',(10.7753661825481,-3.64814533376116,0.624325465648886));
#664=CARTESIAN_POINT('',(8.,0.,0.));
#665=CARTESIAN_POINT('',(1.74111504964204,0.,0.));
#666=CARTESIAN_POINT('',(1.74111504964204,0.,-14.9999959130391));
#667=CARTESIAN_POINT('',(0.929379840337425,-14.2131088968251,0.968154885124121));
#668=CARTESIAN_POINT('',(0.932965224966253,-14.3158434622944,0.968029680733958));
#669=CARTESIAN_POINT('',(0.980614025210635,-14.523025881563,0.966365747964066));
#670=CARTESIAN_POINT('',(1.16295315856046,-14.7766928829576,0.959998325119032));
#671=CARTESIAN_POINT('',(1.42856742419376,-14.9410038048589,0.950722870575132));
#672=CARTESIAN_POINT('',(1.63844306729422,-14.9741131933354,0.943393851620488));
#673=CARTESIAN_POINT('',(1.74111504964204,-14.9705256232558,0.939808466991659));
#674=CARTESIAN_POINT('',(8.,0.,0.));
#675=CARTESIAN_POINT('',(11.1590267881408,0.,0.));
#676=CARTESIAN_POINT('',(11.1590267881408,0.,-14.6541846491457));
#677=CARTESIAN_POINT('',(1.74111504964204,-14.9705256232558,0.939808466991659));
#678=CARTESIAN_POINT('',(8.,0.,0.));
#679=CARTESIAN_POINT('',(11.9159821167665,0.,0.));
#680=CARTESIAN_POINT('',(11.9159821167665,0.,-13.8415608006973));
#681=CARTESIAN_POINT('',(11.1590267881408,-14.6414444309712,0.610927742077919));
#682=CARTESIAN_POINT('',(11.2616987704886,-14.6378568608916,0.60734235744909));
#683=CARTESIAN_POINT('',(11.4687549798252,-14.5901790165927,0.600111795291012));
#684=CARTESIAN_POINT('',(11.7222674541364,-14.4077287394637,0.591258944612308));
#685=CARTESIAN_POINT('',(11.8864782822636,-14.1419525701691,0.585524576135228));
#686=CARTESIAN_POINT('',(11.9195675013953,-13.9319489985669,0.58436907514127));
#687=CARTESIAN_POINT('',(11.9159821167665,-13.8292144330976,0.584494279531432));
#688=CARTESIAN_POINT('',(8.,0.,0.));
#689=CARTESIAN_POINT('',(11.9159821167665,-13.8292144330976,0.584494279531432));
#690=CARTESIAN_POINT('',(8.,0.,0.));
#691=CARTESIAN_POINT('',(4.15136789874704E-6,0.,0.));
#692=CARTESIAN_POINT('',(4.15136789874704E-6,0.,-4.50441768947809));
#693=CARTESIAN_POINT('',(4.15136789811241E-6,4.45440027305449,0.669400424779667));
#694=CARTESIAN_POINT('',(8.,0.,0.));
#695=CARTESIAN_POINT('',(11.4995998830991,4.10574558784017,0.228968623033971));
#696=CARTESIAN_POINT('',(8.,0.,0.));
#697=CARTESIAN_POINT('',(0.795053003794956,-0.0296765985026168,0.170188306292996));
#698=CARTESIAN_POINT('',(8.,0.,0.));
#699=(
GEOMETRIC_REPRESENTATION_CONTEXT(3)
GLOBAL_UNCERTAINTY_ASSIGNED_CONTEXT((#700))
GLOBAL_UNIT_ASSIGNED_CONTEXT((#706,#702,#701))
REPRESENTATION_CONTEXT('ATUM-30XD2-KDR-11T3-light',
'TOP_LEVEL_ASSEMBLY_PART')
);
#700=UNCERTAINTY_MEASURE_WITH_UNIT(LENGTH_MEASURE(2.E-5),#706,
'DISTANCE_ACCURACY_VALUE','Maximum Tolerance applied to model');
#701=(
NAMED_UNIT(*)
SI_UNIT($,.STERADIAN.)
SOLID_ANGLE_UNIT()
);
#702=(
CONVERSION_BASED_UNIT('DEGREE',#704)
NAMED_UNIT(#703)
PLANE_ANGLE_UNIT()
);
#703=DIMENSIONAL_EXPONENTS(0.,0.,0.,0.,0.,0.,0.);
#704=PLANE_ANGLE_MEASURE_WITH_UNIT(PLANE_ANGLE_MEASURE(0.0174532925),#705);
#705=(
NAMED_UNIT(*)
PLANE_ANGLE_UNIT()
SI_UNIT($,.RADIAN.)
);
#706=(
LENGTH_UNIT()
NAMED_UNIT(*)
SI_UNIT(.MILLI.,.METRE.)
);
ENDSEC;
END-ISO-10303-21;
