ISO-10303-21;
HEADER;
/* Generated by software containing ST-Developer
 * from STEP Tools, Inc. (www.steptools.com) 
 */
/* OPTION: using custom schema-name function */

FILE_DESCRIPTION(
/* description */ (''),
/* implementation_level */ '2;1');

FILE_NAME(
/* name */ 'ATUM-33XD3-SPGT-07T308-light.stp',
/* time_stamp */ '2023-10-02T19:49:04+03:00',
/* author */ (''),
/* organization */ (''),
/* preprocessor_version */ 'ST-DEVELOPER v19.4',
/* originating_system */ 'SIEMENS PLM Software NX2306.3001',
/* authorisation */ '');

FILE_SCHEMA (('AUTOMOTIVE_DESIGN { 1 0 10303 214 3 1 1 1 }'));
ENDSEC;

DATA;
#10=SHAPE_REPRESENTATION_RELATIONSHIP('None',
'relationship between STEP-ATUM 28XD3 SPGT 090408-None and STEP-ATUM 2
8XD3 SPGT 090408-None',#22,#11);
#11=ADVANCED_BREP_SHAPE_REPRESENTATION(
'STEP-ATUM 28XD3 SPGT 090408-None',(#69,#70),#694);
#12=SHAPE_DEFINITION_REPRESENTATION(#13,#22);
#13=PRODUCT_DEFINITION_SHAPE('','',#14);
#14=PRODUCT_DEFINITION(' ','',#16,#15);
#15=PRODUCT_DEFINITION_CONTEXT('part definition',#21,'design');
#16=PRODUCT_DEFINITION_FORMATION_WITH_SPECIFIED_SOURCE(' ',' ',#18,
 .NOT_KNOWN.);
#17=PRODUCT_RELATED_PRODUCT_CATEGORY('part','',(#18));
#18=PRODUCT('STEP-ATUM 28XD3 SPGT 090408','STEP-ATUM 28XD3 SPGT 090408',
' ',(#19));
#19=PRODUCT_CONTEXT(' ',#21,'mechanical');
#20=APPLICATION_PROTOCOL_DEFINITION('international standard',
'automotive_design',2010,#21);
#21=APPLICATION_CONTEXT(
'core data for automotive mechanical design processes');
#22=SHAPE_REPRESENTATION('STEP-ATUM 28XD3 SPGT 090408-None',(#401),#694);
#23=DRAUGHTING_PRE_DEFINED_COLOUR('yellow');
#24=(
BOUNDED_CURVE()
B_SPLINE_CURVE(3,(#674,#675,#676,#677,#678,#679,#680),.UNSPECIFIED.,.T.,
 .F.)
B_SPLINE_CURVE_WITH_KNOTS((1,3,3,3,1),(-0.5,0.,0.5,1.,1.5),
 .UNSPECIFIED.)
CURVE()
GEOMETRIC_REPRESENTATION_ITEM()
RATIONAL_B_SPLINE_CURVE((1.,0.333333333333333,0.333333333333333,1.,0.333333333333333,
0.333333333333333,1.))
REPRESENTATION_ITEM('')
);
#25=SURFACE_OF_REVOLUTION('',#43,#34);
#26=SURFACE_OF_REVOLUTION('',#44,#35);
#27=SURFACE_OF_REVOLUTION('',#394,#36);
#28=SURFACE_OF_REVOLUTION('',#45,#37);
#29=SURFACE_OF_REVOLUTION('',#396,#38);
#30=SURFACE_OF_REVOLUTION('',#397,#39);
#31=SURFACE_OF_REVOLUTION('',#46,#40);
#32=SURFACE_OF_REVOLUTION('',#400,#41);
#33=SURFACE_OF_REVOLUTION('',#47,#42);
#34=AXIS1_PLACEMENT('',#659,#555);
#35=AXIS1_PLACEMENT('',#663,#559);
#36=AXIS1_PLACEMENT('',#667,#564);
#37=AXIS1_PLACEMENT('',#671,#568);
#38=AXIS1_PLACEMENT('',#673,#571);
#39=AXIS1_PLACEMENT('',#683,#574);
#40=AXIS1_PLACEMENT('',#687,#578);
#41=AXIS1_PLACEMENT('',#691,#583);
#42=AXIS1_PLACEMENT('',#693,#585);
#43=LINE('',#658,#48);
#44=LINE('',#662,#49);
#45=LINE('',#670,#50);
#46=LINE('',#686,#51);
#47=LINE('',#692,#52);
#48=VECTOR('',#554,7.16227298674871);
#49=VECTOR('',#558,7.18361114373086);
#50=VECTOR('',#567,8.20000000000001);
#51=VECTOR('',#577,0.0282895320014432);
#52=VECTOR('',#584,0.444928368769703);
#53=PRESENTATION_LAYER_ASSIGNMENT('1','Layer 1',(#69,#70));
#54=STYLED_ITEM('',(#56),#69);
#55=STYLED_ITEM('',(#57),#70);
#56=PRESENTATION_STYLE_ASSIGNMENT((#58));
#57=PRESENTATION_STYLE_ASSIGNMENT((#59));
#58=SURFACE_STYLE_USAGE(.BOTH.,#60);
#59=SURFACE_STYLE_USAGE(.BOTH.,#61);
#60=SURFACE_SIDE_STYLE('',(#62));
#61=SURFACE_SIDE_STYLE('',(#63));
#62=SURFACE_STYLE_FILL_AREA(#64);
#63=SURFACE_STYLE_FILL_AREA(#65);
#64=FILL_AREA_STYLE('',(#66));
#65=FILL_AREA_STYLE('',(#67));
#66=FILL_AREA_STYLE_COLOUR('',#68);
#67=FILL_AREA_STYLE_COLOUR('',#23);
#68=COLOUR_RGB('smoke gray',0.694117647058824,0.694117647058824,0.694117647058824);
#69=MANIFOLD_SOLID_BREP('',#71);
#70=MANIFOLD_SOLID_BREP('',#72);
#71=CLOSED_SHELL('',(#92,#93,#94,#95,#96,#97,#98,#99,#100,#101,#102,#103,
#104,#105,#106,#107,#108,#109,#110,#111,#112));
#72=CLOSED_SHELL('',(#113,#114,#115,#116,#117,#118,#119,#120,#121,#122,
#123));
#73=FACE_OUTER_BOUND('',#212,.T.);
#74=FACE_OUTER_BOUND('',#227,.T.);
#75=FACE_OUTER_BOUND('',#228,.T.);
#76=FACE_OUTER_BOUND('',#229,.T.);
#77=PLANE('',#424);
#78=PLANE('',#427);
#79=PLANE('',#442);
#80=PLANE('',#444);
#81=PLANE('',#446);
#82=CONICAL_SURFACE('',#410,15.8103073792141,20.0000000000008);
#83=CONICAL_SURFACE('',#414,16.,15.0000000000001);
#84=CONICAL_SURFACE('',#422,16.205669240384,82.0000000000001);
#85=CONICAL_SURFACE('',#433,21.8289710007487,19.4400348281762);
#86=CONICAL_SURFACE('',#439,15.9999999999999,3.00000000000004);
#87=CYLINDRICAL_SURFACE('',#406,15.75);
#88=CYLINDRICAL_SURFACE('',#412,16.);
#89=CYLINDRICAL_SURFACE('',#418,15.75);
#90=CYLINDRICAL_SURFACE('',#429,22.);
#91=CYLINDRICAL_SURFACE('',#437,15.9999999999999);
#92=ADVANCED_FACE('',(#132,#133),#124,.T.);
#93=ADVANCED_FACE('',(#134,#135),#87,.T.);
#94=ADVANCED_FACE('',(#136,#137),#125,.F.);
#95=ADVANCED_FACE('',(#138,#139),#82,.T.);
#96=ADVANCED_FACE('',(#140,#141),#88,.T.);
#97=ADVANCED_FACE('',(#142,#143),#83,.T.);
#98=ADVANCED_FACE('',(#144,#145),#126,.F.);
#99=ADVANCED_FACE('',(#146,#147),#89,.T.);
#100=ADVANCED_FACE('',(#148,#149),#127,.F.);
#101=ADVANCED_FACE('',(#150,#151),#84,.F.);
#102=ADVANCED_FACE('',(#152,#153),#77,.F.);
#103=ADVANCED_FACE('',(#154,#155),#128,.T.);
#104=ADVANCED_FACE('',(#73),#78,.F.);
#105=ADVANCED_FACE('',(#156,#157),#90,.T.);
#106=ADVANCED_FACE('',(#158,#159),#129,.T.);
#107=ADVANCED_FACE('',(#160,#161),#85,.T.);
#108=ADVANCED_FACE('',(#162,#163),#130,.F.);
#109=ADVANCED_FACE('',(#164,#165),#91,.T.);
#110=ADVANCED_FACE('',(#166,#167),#86,.T.);
#111=ADVANCED_FACE('',(#168,#169),#131,.T.);
#112=ADVANCED_FACE('',(#74),#79,.F.);
#113=ADVANCED_FACE('',(#75),#80,.T.);
#114=ADVANCED_FACE('',(#76),#81,.F.);
#115=ADVANCED_FACE('',(#170,#171),#25,.T.);
#116=ADVANCED_FACE('',(#172,#173),#26,.T.);
#117=ADVANCED_FACE('',(#174,#175),#27,.T.);
#118=ADVANCED_FACE('',(#176,#177),#28,.T.);
#119=ADVANCED_FACE('',(#178,#179),#29,.T.);
#120=ADVANCED_FACE('',(#180,#181),#30,.T.);
#121=ADVANCED_FACE('',(#182,#183),#31,.T.);
#122=ADVANCED_FACE('',(#184,#185),#32,.T.);
#123=ADVANCED_FACE('',(#186,#187),#33,.T.);
#124=TOROIDAL_SURFACE('',#404,14.75,1.00000000000003);
#125=TOROIDAL_SURFACE('',#408,16.75,0.999999999999996);
#126=TOROIDAL_SURFACE('',#416,16.15,0.399999999999999);
#127=TOROIDAL_SURFACE('',#420,16.15,0.399999999999986);
#128=TOROIDAL_SURFACE('',#426,21.3,0.799999999999997);
#129=TOROIDAL_SURFACE('',#431,19.,3.);
#130=TOROIDAL_SURFACE('',#435,20.9999999999999,5.);
#131=TOROIDAL_SURFACE('',#441,14.325558263331,1.4);
#132=FACE_BOUND('',#188,.T.);
#133=FACE_BOUND('',#189,.T.);
#134=FACE_BOUND('',#190,.T.);
#135=FACE_BOUND('',#191,.T.);
#136=FACE_BOUND('',#192,.T.);
#137=FACE_BOUND('',#193,.T.);
#138=FACE_BOUND('',#194,.T.);
#139=FACE_BOUND('',#195,.T.);
#140=FACE_BOUND('',#196,.T.);
#141=FACE_BOUND('',#197,.T.);
#142=FACE_BOUND('',#198,.T.);
#143=FACE_BOUND('',#199,.T.);
#144=FACE_BOUND('',#200,.T.);
#145=FACE_BOUND('',#201,.T.);
#146=FACE_BOUND('',#202,.T.);
#147=FACE_BOUND('',#203,.T.);
#148=FACE_BOUND('',#204,.T.);
#149=FACE_BOUND('',#205,.T.);
#150=FACE_BOUND('',#206,.T.);
#151=FACE_BOUND('',#207,.T.);
#152=FACE_BOUND('',#208,.T.);
#153=FACE_BOUND('',#209,.T.);
#154=FACE_BOUND('',#210,.T.);
#155=FACE_BOUND('',#211,.T.);
#156=FACE_BOUND('',#213,.T.);
#157=FACE_BOUND('',#214,.T.);
#158=FACE_BOUND('',#215,.T.);
#159=FACE_BOUND('',#216,.T.);
#160=FACE_BOUND('',#217,.T.);
#161=FACE_BOUND('',#218,.T.);
#162=FACE_BOUND('',#219,.T.);
#163=FACE_BOUND('',#220,.T.);
#164=FACE_BOUND('',#221,.T.);
#165=FACE_BOUND('',#222,.T.);
#166=FACE_BOUND('',#223,.T.);
#167=FACE_BOUND('',#224,.T.);
#168=FACE_BOUND('',#225,.T.);
#169=FACE_BOUND('',#226,.T.);
#170=FACE_BOUND('',#230,.T.);
#171=FACE_BOUND('',#231,.T.);
#172=FACE_BOUND('',#232,.T.);
#173=FACE_BOUND('',#233,.T.);
#174=FACE_BOUND('',#234,.T.);
#175=FACE_BOUND('',#235,.T.);
#176=FACE_BOUND('',#236,.T.);
#177=FACE_BOUND('',#237,.T.);
#178=FACE_BOUND('',#238,.T.);
#179=FACE_BOUND('',#239,.T.);
#180=FACE_BOUND('',#240,.T.);
#181=FACE_BOUND('',#241,.T.);
#182=FACE_BOUND('',#242,.T.);
#183=FACE_BOUND('',#243,.T.);
#184=FACE_BOUND('',#244,.T.);
#185=FACE_BOUND('',#245,.T.);
#186=FACE_BOUND('',#246,.T.);
#187=FACE_BOUND('',#247,.T.);
#188=EDGE_LOOP('',(#248));
#189=EDGE_LOOP('',(#249));
#190=EDGE_LOOP('',(#250));
#191=EDGE_LOOP('',(#251));
#192=EDGE_LOOP('',(#252));
#193=EDGE_LOOP('',(#253));
#194=EDGE_LOOP('',(#254));
#195=EDGE_LOOP('',(#255));
#196=EDGE_LOOP('',(#256));
#197=EDGE_LOOP('',(#257));
#198=EDGE_LOOP('',(#258));
#199=EDGE_LOOP('',(#259));
#200=EDGE_LOOP('',(#260));
#201=EDGE_LOOP('',(#261));
#202=EDGE_LOOP('',(#262));
#203=EDGE_LOOP('',(#263));
#204=EDGE_LOOP('',(#264));
#205=EDGE_LOOP('',(#265));
#206=EDGE_LOOP('',(#266));
#207=EDGE_LOOP('',(#267));
#208=EDGE_LOOP('',(#268));
#209=EDGE_LOOP('',(#269));
#210=EDGE_LOOP('',(#270));
#211=EDGE_LOOP('',(#271));
#212=EDGE_LOOP('',(#272));
#213=EDGE_LOOP('',(#273));
#214=EDGE_LOOP('',(#274));
#215=EDGE_LOOP('',(#275));
#216=EDGE_LOOP('',(#276));
#217=EDGE_LOOP('',(#277));
#218=EDGE_LOOP('',(#278));
#219=EDGE_LOOP('',(#279));
#220=EDGE_LOOP('',(#280));
#221=EDGE_LOOP('',(#281));
#222=EDGE_LOOP('',(#282));
#223=EDGE_LOOP('',(#283));
#224=EDGE_LOOP('',(#284));
#225=EDGE_LOOP('',(#285));
#226=EDGE_LOOP('',(#286));
#227=EDGE_LOOP('',(#287));
#228=EDGE_LOOP('',(#288));
#229=EDGE_LOOP('',(#289));
#230=EDGE_LOOP('',(#290));
#231=EDGE_LOOP('',(#291));
#232=EDGE_LOOP('',(#292));
#233=EDGE_LOOP('',(#293));
#234=EDGE_LOOP('',(#294));
#235=EDGE_LOOP('',(#295));
#236=EDGE_LOOP('',(#296));
#237=EDGE_LOOP('',(#297));
#238=EDGE_LOOP('',(#298));
#239=EDGE_LOOP('',(#299));
#240=EDGE_LOOP('',(#300));
#241=EDGE_LOOP('',(#301));
#242=EDGE_LOOP('',(#302));
#243=EDGE_LOOP('',(#303));
#244=EDGE_LOOP('',(#304));
#245=EDGE_LOOP('',(#305));
#246=EDGE_LOOP('',(#306));
#247=EDGE_LOOP('',(#307));
#248=ORIENTED_EDGE('',*,*,#338,.T.);
#249=ORIENTED_EDGE('',*,*,#339,.T.);
#250=ORIENTED_EDGE('',*,*,#340,.T.);
#251=ORIENTED_EDGE('',*,*,#338,.F.);
#252=ORIENTED_EDGE('',*,*,#341,.T.);
#253=ORIENTED_EDGE('',*,*,#340,.F.);
#254=ORIENTED_EDGE('',*,*,#342,.T.);
#255=ORIENTED_EDGE('',*,*,#341,.F.);
#256=ORIENTED_EDGE('',*,*,#343,.T.);
#257=ORIENTED_EDGE('',*,*,#342,.F.);
#258=ORIENTED_EDGE('',*,*,#344,.T.);
#259=ORIENTED_EDGE('',*,*,#343,.F.);
#260=ORIENTED_EDGE('',*,*,#345,.T.);
#261=ORIENTED_EDGE('',*,*,#344,.F.);
#262=ORIENTED_EDGE('',*,*,#346,.T.);
#263=ORIENTED_EDGE('',*,*,#345,.F.);
#264=ORIENTED_EDGE('',*,*,#347,.T.);
#265=ORIENTED_EDGE('',*,*,#346,.F.);
#266=ORIENTED_EDGE('',*,*,#348,.T.);
#267=ORIENTED_EDGE('',*,*,#347,.F.);
#268=ORIENTED_EDGE('',*,*,#349,.T.);
#269=ORIENTED_EDGE('',*,*,#348,.F.);
#270=ORIENTED_EDGE('',*,*,#350,.T.);
#271=ORIENTED_EDGE('',*,*,#349,.F.);
#272=ORIENTED_EDGE('',*,*,#339,.F.);
#273=ORIENTED_EDGE('',*,*,#351,.T.);
#274=ORIENTED_EDGE('',*,*,#350,.F.);
#275=ORIENTED_EDGE('',*,*,#352,.T.);
#276=ORIENTED_EDGE('',*,*,#351,.F.);
#277=ORIENTED_EDGE('',*,*,#353,.T.);
#278=ORIENTED_EDGE('',*,*,#352,.F.);
#279=ORIENTED_EDGE('',*,*,#354,.T.);
#280=ORIENTED_EDGE('',*,*,#353,.F.);
#281=ORIENTED_EDGE('',*,*,#355,.T.);
#282=ORIENTED_EDGE('',*,*,#354,.F.);
#283=ORIENTED_EDGE('',*,*,#356,.T.);
#284=ORIENTED_EDGE('',*,*,#355,.F.);
#285=ORIENTED_EDGE('',*,*,#357,.T.);
#286=ORIENTED_EDGE('',*,*,#356,.F.);
#287=ORIENTED_EDGE('',*,*,#357,.F.);
#288=ORIENTED_EDGE('',*,*,#358,.T.);
#289=ORIENTED_EDGE('',*,*,#359,.T.);
#290=ORIENTED_EDGE('',*,*,#360,.F.);
#291=ORIENTED_EDGE('',*,*,#361,.F.);
#292=ORIENTED_EDGE('',*,*,#362,.T.);
#293=ORIENTED_EDGE('',*,*,#358,.F.);
#294=ORIENTED_EDGE('',*,*,#363,.F.);
#295=ORIENTED_EDGE('',*,*,#360,.T.);
#296=ORIENTED_EDGE('',*,*,#364,.F.);
#297=ORIENTED_EDGE('',*,*,#363,.T.);
#298=ORIENTED_EDGE('',*,*,#362,.F.);
#299=ORIENTED_EDGE('',*,*,#364,.T.);
#300=ORIENTED_EDGE('',*,*,#365,.F.);
#301=ORIENTED_EDGE('',*,*,#359,.F.);
#302=ORIENTED_EDGE('',*,*,#365,.T.);
#303=ORIENTED_EDGE('',*,*,#366,.F.);
#304=ORIENTED_EDGE('',*,*,#367,.T.);
#305=ORIENTED_EDGE('',*,*,#361,.T.);
#306=ORIENTED_EDGE('',*,*,#367,.F.);
#307=ORIENTED_EDGE('',*,*,#366,.T.);
#308=VERTEX_POINT('',#588);
#309=VERTEX_POINT('',#590);
#310=VERTEX_POINT('',#593);
#311=VERTEX_POINT('',#596);
#312=VERTEX_POINT('',#599);
#313=VERTEX_POINT('',#602);
#314=VERTEX_POINT('',#605);
#315=VERTEX_POINT('',#608);
#316=VERTEX_POINT('',#611);
#317=VERTEX_POINT('',#614);
#318=VERTEX_POINT('',#617);
#319=VERTEX_POINT('',#620);
#320=VERTEX_POINT('',#623);
#321=VERTEX_POINT('',#627);
#322=VERTEX_POINT('',#630);
#323=VERTEX_POINT('',#633);
#324=VERTEX_POINT('',#636);
#325=VERTEX_POINT('',#639);
#326=VERTEX_POINT('',#642);
#327=VERTEX_POINT('',#645);
#328=VERTEX_POINT('',#649);
#329=VERTEX_POINT('',#652);
#330=VERTEX_POINT('',#655);
#331=VERTEX_POINT('',#657);
#332=VERTEX_POINT('',#661);
#333=VERTEX_POINT('',#665);
#334=VERTEX_POINT('',#669);
#335=VERTEX_POINT('',#681);
#336=VERTEX_POINT('',#685);
#337=VERTEX_POINT('',#689);
#338=EDGE_CURVE('',#308,#308,#368,.T.);
#339=EDGE_CURVE('',#309,#309,#369,.T.);
#340=EDGE_CURVE('',#310,#310,#370,.T.);
#341=EDGE_CURVE('',#311,#311,#371,.T.);
#342=EDGE_CURVE('',#312,#312,#372,.T.);
#343=EDGE_CURVE('',#313,#313,#373,.T.);
#344=EDGE_CURVE('',#314,#314,#374,.T.);
#345=EDGE_CURVE('',#315,#315,#375,.T.);
#346=EDGE_CURVE('',#316,#316,#376,.T.);
#347=EDGE_CURVE('',#317,#317,#377,.T.);
#348=EDGE_CURVE('',#318,#318,#378,.T.);
#349=EDGE_CURVE('',#319,#319,#379,.T.);
#350=EDGE_CURVE('',#320,#320,#380,.T.);
#351=EDGE_CURVE('',#321,#321,#381,.T.);
#352=EDGE_CURVE('',#322,#322,#382,.T.);
#353=EDGE_CURVE('',#323,#323,#383,.T.);
#354=EDGE_CURVE('',#324,#324,#384,.T.);
#355=EDGE_CURVE('',#325,#325,#385,.T.);
#356=EDGE_CURVE('',#326,#326,#386,.T.);
#357=EDGE_CURVE('',#327,#327,#387,.T.);
#358=EDGE_CURVE('',#328,#328,#388,.T.);
#359=EDGE_CURVE('',#329,#329,#389,.T.);
#360=EDGE_CURVE('',#330,#330,#390,.T.);
#361=EDGE_CURVE('',#331,#331,#391,.T.);
#362=EDGE_CURVE('',#332,#332,#392,.T.);
#363=EDGE_CURVE('',#333,#333,#393,.T.);
#364=EDGE_CURVE('',#334,#334,#395,.T.);
#365=EDGE_CURVE('',#335,#335,#24,.T.);
#366=EDGE_CURVE('',#336,#336,#398,.T.);
#367=EDGE_CURVE('',#337,#337,#399,.T.);
#368=CIRCLE('',#402,15.75);
#369=CIRCLE('',#403,14.75);
#370=CIRCLE('',#405,15.75);
#371=CIRCLE('',#407,15.8103073792141);
#372=CIRCLE('',#409,16.);
#373=CIRCLE('',#411,16.);
#374=CIRCLE('',#413,15.7636296694844);
#375=CIRCLE('',#415,15.75);
#376=CIRCLE('',#417,15.75);
#377=CIRCLE('',#419,16.205669240384);
#378=CIRCLE('',#421,17.);
#379=CIRCLE('',#423,21.3);
#380=CIRCLE('',#425,22.);
#381=CIRCLE('',#428,22.);
#382=CIRCLE('',#430,21.8289710007487);
#383=CIRCLE('',#432,16.2850483320855);
#384=CIRCLE('',#434,15.9999999999999);
#385=CIRCLE('',#436,15.9999999999999);
#386=CIRCLE('',#438,15.7236396119874);
#387=CIRCLE('',#440,14.325558263331);
#388=CIRCLE('',#443,7.83379820496026);
#389=CIRCLE('',#445,7.34602163932672);
#390=CIRCLE('',#447,15.775707744093);
#391=CIRCLE('',#448,8.69558339093672);
#392=CIRCLE('',#449,14.9253983353023);
#393=CIRCLE('',#450,16.4999998679446);
#394=CIRCLE('',#451,0.800000000000001);
#395=CIRCLE('',#452,15.7882087896503);
#396=CIRCLE('',#453,0.799999999999998);
#397=CIRCLE('',#454,0.8);
#398=CIRCLE('',#455,7.70586979488567);
#399=CIRCLE('',#456,8.14790289449253);
#400=CIRCLE('',#457,0.8);
#401=AXIS2_PLACEMENT_3D('',#586,#458,#459);
#402=AXIS2_PLACEMENT_3D('',#587,#460,#461);
#403=AXIS2_PLACEMENT_3D('',#589,#462,#463);
#404=AXIS2_PLACEMENT_3D('',#591,#464,#465);
#405=AXIS2_PLACEMENT_3D('',#592,#466,#467);
#406=AXIS2_PLACEMENT_3D('',#594,#468,#469);
#407=AXIS2_PLACEMENT_3D('',#595,#470,#471);
#408=AXIS2_PLACEMENT_3D('',#597,#472,#473);
#409=AXIS2_PLACEMENT_3D('',#598,#474,#475);
#410=AXIS2_PLACEMENT_3D('',#600,#476,#477);
#411=AXIS2_PLACEMENT_3D('',#601,#478,#479);
#412=AXIS2_PLACEMENT_3D('',#603,#480,#481);
#413=AXIS2_PLACEMENT_3D('',#604,#482,#483);
#414=AXIS2_PLACEMENT_3D('',#606,#484,#485);
#415=AXIS2_PLACEMENT_3D('',#607,#486,#487);
#416=AXIS2_PLACEMENT_3D('',#609,#488,#489);
#417=AXIS2_PLACEMENT_3D('',#610,#490,#491);
#418=AXIS2_PLACEMENT_3D('',#612,#492,#493);
#419=AXIS2_PLACEMENT_3D('',#613,#494,#495);
#420=AXIS2_PLACEMENT_3D('',#615,#496,#497);
#421=AXIS2_PLACEMENT_3D('',#616,#498,#499);
#422=AXIS2_PLACEMENT_3D('',#618,#500,#501);
#423=AXIS2_PLACEMENT_3D('',#619,#502,#503);
#424=AXIS2_PLACEMENT_3D('',#621,#504,#505);
#425=AXIS2_PLACEMENT_3D('',#622,#506,#507);
#426=AXIS2_PLACEMENT_3D('',#624,#508,#509);
#427=AXIS2_PLACEMENT_3D('',#625,#510,#511);
#428=AXIS2_PLACEMENT_3D('',#626,#512,#513);
#429=AXIS2_PLACEMENT_3D('',#628,#514,#515);
#430=AXIS2_PLACEMENT_3D('',#629,#516,#517);
#431=AXIS2_PLACEMENT_3D('',#631,#518,#519);
#432=AXIS2_PLACEMENT_3D('',#632,#520,#521);
#433=AXIS2_PLACEMENT_3D('',#634,#522,#523);
#434=AXIS2_PLACEMENT_3D('',#635,#524,#525);
#435=AXIS2_PLACEMENT_3D('',#637,#526,#527);
#436=AXIS2_PLACEMENT_3D('',#638,#528,#529);
#437=AXIS2_PLACEMENT_3D('',#640,#530,#531);
#438=AXIS2_PLACEMENT_3D('',#641,#532,#533);
#439=AXIS2_PLACEMENT_3D('',#643,#534,#535);
#440=AXIS2_PLACEMENT_3D('',#644,#536,#537);
#441=AXIS2_PLACEMENT_3D('',#646,#538,#539);
#442=AXIS2_PLACEMENT_3D('',#647,#540,#541);
#443=AXIS2_PLACEMENT_3D('',#648,#542,#543);
#444=AXIS2_PLACEMENT_3D('',#650,#544,#545);
#445=AXIS2_PLACEMENT_3D('',#651,#546,#547);
#446=AXIS2_PLACEMENT_3D('',#653,#548,#549);
#447=AXIS2_PLACEMENT_3D('',#654,#550,#551);
#448=AXIS2_PLACEMENT_3D('',#656,#552,#553);
#449=AXIS2_PLACEMENT_3D('',#660,#556,#557);
#450=AXIS2_PLACEMENT_3D('',#664,#560,#561);
#451=AXIS2_PLACEMENT_3D('',#666,#562,#563);
#452=AXIS2_PLACEMENT_3D('',#668,#565,#566);
#453=AXIS2_PLACEMENT_3D('',#672,#569,#570);
#454=AXIS2_PLACEMENT_3D('',#682,#572,#573);
#455=AXIS2_PLACEMENT_3D('',#684,#575,#576);
#456=AXIS2_PLACEMENT_3D('',#688,#579,#580);
#457=AXIS2_PLACEMENT_3D('',#690,#581,#582);
#458=DIRECTION('',(0.,0.,1.));
#459=DIRECTION('',(1.,0.,0.));
#460=DIRECTION('',(1.,0.,0.));
#461=DIRECTION('',(0.,0.,1.));
#462=DIRECTION('',(-1.,0.,0.));
#463=DIRECTION('',(0.,0.,1.));
#464=DIRECTION('',(-1.,0.,0.));
#465=DIRECTION('',(0.,0.,1.));
#466=DIRECTION('',(1.,0.,0.));
#467=DIRECTION('',(0.,0.,1.));
#468=DIRECTION('',(-1.,0.,0.));
#469=DIRECTION('',(0.,0.,1.));
#470=DIRECTION('',(1.,0.,0.));
#471=DIRECTION('',(0.,0.,1.));
#472=DIRECTION('',(-1.,0.,0.));
#473=DIRECTION('',(0.,0.,1.));
#474=DIRECTION('',(1.,0.,0.));
#475=DIRECTION('',(0.,0.,1.));
#476=DIRECTION('',(-1.,0.,0.));
#477=DIRECTION('',(-7.30831956144342E-17,0.,1.));
#478=DIRECTION('',(1.,0.,0.));
#479=DIRECTION('',(0.,0.,1.));
#480=DIRECTION('',(-1.,0.,0.));
#481=DIRECTION('',(0.,0.,1.));
#482=DIRECTION('',(1.,0.,0.));
#483=DIRECTION('',(0.,0.,1.));
#484=DIRECTION('',(1.,0.,0.));
#485=DIRECTION('',(3.90993548923178E-16,0.,-1.));
#486=DIRECTION('',(1.,0.,0.));
#487=DIRECTION('',(0.,0.,1.));
#488=DIRECTION('',(-1.,0.,0.));
#489=DIRECTION('',(0.,0.,1.));
#490=DIRECTION('',(1.,0.,0.));
#491=DIRECTION('',(0.,0.,1.));
#492=DIRECTION('',(-1.,0.,0.));
#493=DIRECTION('',(0.,0.,1.));
#494=DIRECTION('',(1.,0.,0.));
#495=DIRECTION('',(0.,0.,1.));
#496=DIRECTION('',(-1.,0.,0.));
#497=DIRECTION('',(0.,0.,1.));
#498=DIRECTION('',(1.,0.,0.));
#499=DIRECTION('',(0.,0.,1.));
#500=DIRECTION('',(1.,0.,0.));
#501=DIRECTION('',(1.16757830176871E-17,0.,-1.));
#502=DIRECTION('',(1.,0.,0.));
#503=DIRECTION('',(0.,0.,1.));
#504=DIRECTION('',(-1.,0.,0.));
#505=DIRECTION('',(0.,0.,1.));
#506=DIRECTION('',(1.,0.,0.));
#507=DIRECTION('',(0.,0.,1.));
#508=DIRECTION('',(-1.,0.,0.));
#509=DIRECTION('',(0.,0.,1.));
#510=DIRECTION('',(-1.,0.,0.));
#511=DIRECTION('',(0.,0.,1.));
#512=DIRECTION('',(1.,0.,0.));
#513=DIRECTION('',(0.,0.,1.));
#514=DIRECTION('',(-1.,0.,0.));
#515=DIRECTION('',(0.,0.,1.));
#516=DIRECTION('',(1.,0.,0.));
#517=DIRECTION('',(0.,0.,1.));
#518=DIRECTION('',(-1.,0.,0.));
#519=DIRECTION('',(0.,0.,1.));
#520=DIRECTION('',(1.,0.,0.));
#521=DIRECTION('',(0.,0.,1.));
#522=DIRECTION('',(1.,0.,0.));
#523=DIRECTION('',(1.48120525622984E-16,0.,-1.));
#524=DIRECTION('',(1.,0.,0.));
#525=DIRECTION('',(0.,0.,1.));
#526=DIRECTION('',(-1.,0.,0.));
#527=DIRECTION('',(0.,0.,1.));
#528=DIRECTION('',(1.,0.,0.));
#529=DIRECTION('',(0.,0.,1.));
#530=DIRECTION('',(-1.,0.,0.));
#531=DIRECTION('',(0.,0.,1.));
#532=DIRECTION('',(1.,0.,0.));
#533=DIRECTION('',(0.,0.,1.));
#534=DIRECTION('',(1.,0.,0.));
#535=DIRECTION('',(0.,0.,-1.));
#536=DIRECTION('',(1.,0.,0.));
#537=DIRECTION('',(0.,0.,1.));
#538=DIRECTION('',(-1.,0.,0.));
#539=DIRECTION('',(0.,0.,1.));
#540=DIRECTION('',(1.,0.,0.));
#541=DIRECTION('',(0.,0.,-1.));
#542=DIRECTION('',(1.,0.,0.));
#543=DIRECTION('',(0.,0.,-1.));
#544=DIRECTION('',(1.,0.,0.));
#545=DIRECTION('',(0.,0.,-1.));
#546=DIRECTION('',(-1.,0.,0.));
#547=DIRECTION('',(0.,0.,-1.));
#548=DIRECTION('',(1.,0.,0.));
#549=DIRECTION('',(0.,0.,-1.));
#550=DIRECTION('',(1.,0.,0.));
#551=DIRECTION('',(0.,0.,-1.));
#552=DIRECTION('',(-1.,0.,0.));
#553=DIRECTION('',(0.,0.,-1.));
#554=DIRECTION('',(0.0871557427476584,-0.993768017875764,0.0694910293014733));
#555=DIRECTION('',(1.,0.,0.));
#556=DIRECTION('',(1.,0.,0.));
#557=DIRECTION('',(0.,0.,-1.));
#558=DIRECTION('',(-0.0871557427476582,0.993768017875764,-0.0694910293014733));
#559=DIRECTION('',(1.,0.,0.));
#560=DIRECTION('',(1.,0.,0.));
#561=DIRECTION('',(0.,0.,-1.));
#562=DIRECTION('',(-1.6826817716975E-16,0.0697564737441252,0.997564050259825));
#563=DIRECTION('',(-0.0871557427476584,0.993768017875765,-0.0694910293014736));
#564=DIRECTION('',(1.,0.,0.));
#565=DIRECTION('',(1.,0.,0.));
#566=DIRECTION('',(0.,0.,-1.));
#567=DIRECTION('',(0.996194698091746,0.0869434357387575,-0.00607967728062665));
#568=DIRECTION('',(1.,0.,0.));
#569=DIRECTION('',(-1.6826817716975E-16,0.0697564737441252,0.997564050259825));
#570=DIRECTION('',(-0.0871557427476584,0.993768017875765,-0.0694910293014736));
#571=DIRECTION('',(1.,0.,0.));
#572=DIRECTION('',(-1.6826817716975E-16,0.0697564737441252,0.997564050259825));
#573=DIRECTION('',(-0.0871557427476584,0.993768017875765,-0.0694910293014736));
#574=DIRECTION('',(1.,0.,0.));
#575=DIRECTION('',(1.,0.,0.));
#576=DIRECTION('',(0.,0.,-1.));
#577=DIRECTION('',(0.0871557427476584,-0.993768017875764,0.0694910293014733));
#578=DIRECTION('',(1.,0.,0.));
#579=DIRECTION('',(1.,0.,0.));
#580=DIRECTION('',(0.,0.,-1.));
#581=DIRECTION('',(0.,0.,-1.));
#582=DIRECTION('',(0.113203213767907,-0.993571855676587,0.));
#583=DIRECTION('',(1.,0.,0.));
#584=DIRECTION('',(-0.113203213767907,0.993571855676588,0.));
#585=DIRECTION('',(1.,0.,0.));
#586=CARTESIAN_POINT('',(0.,0.,0.));
#587=CARTESIAN_POINT('',(185.,0.,0.));
#588=CARTESIAN_POINT('',(185.,0.,15.75));
#589=CARTESIAN_POINT('',(186.,0.,0.));
#590=CARTESIAN_POINT('',(186.,0.,14.75));
#591=CARTESIAN_POINT('',(185.,0.,0.));
#592=CARTESIAN_POINT('',(183.176326980708,0.,0.));
#593=CARTESIAN_POINT('',(183.176326980708,0.,15.75));
#594=CARTESIAN_POINT('',(0.,0.,0.));
#595=CARTESIAN_POINT('',(182.834306837383,0.,0.));
#596=CARTESIAN_POINT('',(182.834306837383,0.,15.8103073792141));
#597=CARTESIAN_POINT('',(183.176326980708,0.,0.));
#598=CARTESIAN_POINT('',(182.313130645136,0.,0.));
#599=CARTESIAN_POINT('',(182.313130645136,0.,16.));
#600=CARTESIAN_POINT('',(182.834306837383,0.,0.));
#601=CARTESIAN_POINT('',(128.,0.,0.));
#602=CARTESIAN_POINT('',(128.,0.,16.));
#603=CARTESIAN_POINT('',(0.,0.,0.));
#604=CARTESIAN_POINT('',(127.117853917114,0.,0.));
#605=CARTESIAN_POINT('',(127.117853917114,0.,15.7636296694844));
#606=CARTESIAN_POINT('',(128.,0.,0.));
#607=CARTESIAN_POINT('',(127.014326299073,0.,0.));
#608=CARTESIAN_POINT('',(127.014326299073,0.,15.75));
#609=CARTESIAN_POINT('',(127.014326299073,0.,0.));
#610=CARTESIAN_POINT('',(126.28447131951,0.,0.));
#611=CARTESIAN_POINT('',(126.28447131951,0.,15.75));
#612=CARTESIAN_POINT('',(0.,0.,0.));
#613=CARTESIAN_POINT('',(125.888364092014,0.,0.));
#614=CARTESIAN_POINT('',(125.888364092014,0.,16.205669240384));
#615=CARTESIAN_POINT('',(126.28447131951,0.,0.));
#616=CARTESIAN_POINT('',(126.,0.,0.));
#617=CARTESIAN_POINT('',(126.,0.,17.));
#618=CARTESIAN_POINT('',(125.888364092014,0.,0.));
#619=CARTESIAN_POINT('',(126.,0.,0.));
#620=CARTESIAN_POINT('',(126.,0.,21.3));
#621=CARTESIAN_POINT('',(126.,17.,0.));
#622=CARTESIAN_POINT('',(125.587298334621,0.,0.));
#623=CARTESIAN_POINT('',(125.587298334621,0.,22.));
#624=CARTESIAN_POINT('',(125.2,0.,0.));
#625=CARTESIAN_POINT('',(186.,22.5,0.));
#626=CARTESIAN_POINT('',(121.51387818866,0.,0.));
#627=CARTESIAN_POINT('',(121.51387818866,0.,22.));
#628=CARTESIAN_POINT('',(0.,0.,0.));
#629=CARTESIAN_POINT('',(120.515417835455,0.,0.));
#630=CARTESIAN_POINT('',(120.515417835455,0.,21.8289710007487));
#631=CARTESIAN_POINT('',(121.51387818866,0.,0.));
#632=CARTESIAN_POINT('',(104.807636940909,0.,0.));
#633=CARTESIAN_POINT('',(104.807636940909,0.,16.2850483320855));
#634=CARTESIAN_POINT('',(120.515417835455,0.,0.));
#635=CARTESIAN_POINT('',(103.143536352233,0.,0.));
#636=CARTESIAN_POINT('',(103.143536352233,0.,15.9999999999999));
#637=CARTESIAN_POINT('',(103.143536352233,0.,0.));
#638=CARTESIAN_POINT('',(8.00000000000001,0.,0.));
#639=CARTESIAN_POINT('',(8.00000000000001,0.,15.9999999999999));
#640=CARTESIAN_POINT('',(0.,0.,0.));
#641=CARTESIAN_POINT('',(2.72672966125988,0.,0.));
#642=CARTESIAN_POINT('',(2.72672966125988,0.,15.7236396119874));
#643=CARTESIAN_POINT('',(8.00000000000001,0.,0.));
#644=CARTESIAN_POINT('',(1.4,0.,0.));
#645=CARTESIAN_POINT('',(1.4,0.,14.325558263331));
#646=CARTESIAN_POINT('',(2.8,0.,0.));
#647=CARTESIAN_POINT('',(1.4,14.325558263331,0.));
#648=CARTESIAN_POINT('',(9.9043364085141,0.,0.));
#649=CARTESIAN_POINT('',(9.9043364085141,0.,-7.83379820496026));
#650=CARTESIAN_POINT('',(9.9043364085141,0.,0.));
#651=CARTESIAN_POINT('',(0.0965129770666498,0.,0.));
#652=CARTESIAN_POINT('',(0.0965129770666498,0.,-7.34602163932672));
#653=CARTESIAN_POINT('',(0.0965129770666498,0.,0.));
#654=CARTESIAN_POINT('',(0.767721332057204,0.,0.));
#655=CARTESIAN_POINT('',(0.767721332057204,0.,-15.775707744093));
#656=CARTESIAN_POINT('',(0.14348811013563,0.,0.));
#657=CARTESIAN_POINT('',(0.14348811013563,0.,-8.69558339093672));
#658=CARTESIAN_POINT('',(0.14348811013563,-8.45203498243232,2.04359368869519));
#659=CARTESIAN_POINT('',(8.00000000000001,0.,0.));
#660=CARTESIAN_POINT('',(10.5304293733563,0.,0.));
#661=CARTESIAN_POINT('',(10.5304293733563,0.,-14.9253983353023));
#662=CARTESIAN_POINT('',(10.5304293733563,-14.7176271417189,2.48172657333236));
#663=CARTESIAN_POINT('',(8.00000000000001,0.,0.));
#664=CARTESIAN_POINT('',(1.63440168472872,0.,0.));
#665=CARTESIAN_POINT('',(1.63440168472872,0.,-16.4999998679446));
#666=CARTESIAN_POINT('',(1.5646770905306,-15.5001180633677,2.536443668858));
#667=CARTESIAN_POINT('',(8.00000000000001,0.,0.));
#668=CARTESIAN_POINT('',(9.80319820908105,0.,0.));
#669=CARTESIAN_POINT('',(9.80319820908105,0.,-15.7882087896503));
#670=CARTESIAN_POINT('',(1.63440168472872,-16.2951324776683,2.59203649229918));
#671=CARTESIAN_POINT('',(8.00000000000001,0.,0.));
#672=CARTESIAN_POINT('',(9.73347361488293,-14.7871818903099,2.48659031515686));
#673=CARTESIAN_POINT('',(8.00000000000001,0.,0.));
#674=CARTESIAN_POINT('',(0.0530442415264036,-4.55364912443912E-15,-7.67819248180311));
#675=CARTESIAN_POINT('',(0.0530442415264049,15.3563849636062,-7.67819248180311));
#676=CARTESIAN_POINT('',(0.0530442415264045,15.3563849636062,7.6781924818031));
#677=CARTESIAN_POINT('',(0.0530442415264032,5.20417042793042E-15,7.67819248180311));
#678=CARTESIAN_POINT('',(0.0530442415264019,-15.3563849636062,7.67819248180312));
#679=CARTESIAN_POINT('',(0.0530442415264023,-15.3563849636062,-7.6781924818031));
#680=CARTESIAN_POINT('',(0.0530442415264036,-4.55364912443912E-15,-7.67819248180311));
#681=CARTESIAN_POINT('',(0.0530442415264047,-2.71050543121376E-15,-7.67819248180311));
#682=CARTESIAN_POINT('',(0.849999999999804,-7.35122031678643,1.96661722858591));
#683=CARTESIAN_POINT('',(8.00000000000001,0.,0.));
#684=CARTESIAN_POINT('',(0.0555098366999719,0.,0.));
#685=CARTESIAN_POINT('',(0.0555098366999719,0.,-7.70586979488567));
#686=CARTESIAN_POINT('',(0.0530442415264027,-7.42077506537743,1.97148097041042));
#687=CARTESIAN_POINT('',(8.00000000000001,0.,0.));
#688=CARTESIAN_POINT('',(0.00514251545874131,0.,0.));
#689=CARTESIAN_POINT('',(0.00514251545874131,0.,-8.14790289449253));
#690=CARTESIAN_POINT('',(0.800000000000012,8.23785178756235,0.100000000000001));
#691=CARTESIAN_POINT('',(9.80319820908107,0.,0.));
#692=CARTESIAN_POINT('',(0.0555098366999722,7.70522091154636,0.100000000000001));
#693=CARTESIAN_POINT('',(9.80319820908107,0.,0.));
#694=(
GEOMETRIC_REPRESENTATION_CONTEXT(3)
GLOBAL_UNCERTAINTY_ASSIGNED_CONTEXT((#695))
GLOBAL_UNIT_ASSIGNED_CONTEXT((#701,#697,#696))
REPRESENTATION_CONTEXT('ATUM-33XD3-SPGT-07T308-light',
'TOP_LEVEL_ASSEMBLY_PART')
);
#695=UNCERTAINTY_MEASURE_WITH_UNIT(LENGTH_MEASURE(0.0508),#701,
'DISTANCE_ACCURACY_VALUE','Maximum Tolerance applied to model');
#696=(
NAMED_UNIT(*)
SI_UNIT($,.STERADIAN.)
SOLID_ANGLE_UNIT()
);
#697=(
CONVERSION_BASED_UNIT('DEGREE',#699)
NAMED_UNIT(#698)
PLANE_ANGLE_UNIT()
);
#698=DIMENSIONAL_EXPONENTS(0.,0.,0.,0.,0.,0.,0.);
#699=PLANE_ANGLE_MEASURE_WITH_UNIT(PLANE_ANGLE_MEASURE(0.0174532925),#700);
#700=(
NAMED_UNIT(*)
PLANE_ANGLE_UNIT()
SI_UNIT($,.RADIAN.)
);
#701=(
LENGTH_UNIT()
NAMED_UNIT(*)
SI_UNIT(.MILLI.,.METRE.)
);
ENDSEC;
END-ISO-10303-21;
