ISO-10303-21;
HEADER;
/* Generated by software containing ST-Developer
 * from STEP Tools, Inc. (www.steptools.com) 
 */
/* OPTION: using custom schema-name function */

FILE_DESCRIPTION(
/* description */ (''),
/* implementation_level */ '2;1');

FILE_NAME(
/* name */ 'ATUM-37XD3-WCM-06T308-light.stp',
/* time_stamp */ '2023-10-30T19:38:48+03:00',
/* author */ (''),
/* organization */ (''),
/* preprocessor_version */ 'ST-DEVELOPER v19.4',
/* originating_system */ 'SIEMENS PLM Software NX2306.3001',
/* authorisation */ '');

FILE_SCHEMA (('AUTOMOTIVE_DESIGN { 1 0 10303 214 3 1 1 1 }'));
ENDSEC;

DATA;
#10=SHAPE_REPRESENTATION_RELATIONSHIP('None',
'relationship between STP_ATUM 30.5XD3 WCM. 06T308-None and STP_ATUM 3
0.5XD3 WCM. 06T308-None',#22,#11);
#11=ADVANCED_BREP_SHAPE_REPRESENTATION(
'STP_ATUM 30.5XD3 WCM. 06T308-None',(#76,#77),#692);
#12=SHAPE_DEFINITION_REPRESENTATION(#13,#22);
#13=PRODUCT_DEFINITION_SHAPE('','',#14);
#14=PRODUCT_DEFINITION(' ','',#16,#15);
#15=PRODUCT_DEFINITION_CONTEXT('part definition',#21,'design');
#16=PRODUCT_DEFINITION_FORMATION_WITH_SPECIFIED_SOURCE(' ',' ',#18,
 .NOT_KNOWN.);
#17=PRODUCT_RELATED_PRODUCT_CATEGORY('part','',(#18));
#18=PRODUCT('STP_ATUM 30.5XD3 WCM. 06T308',
'STP_ATUM 30.5XD3 WCM. 06T308',' ',(#19));
#19=PRODUCT_CONTEXT(' ',#21,'mechanical');
#20=APPLICATION_PROTOCOL_DEFINITION('international standard',
'automotive_design',2010,#21);
#21=APPLICATION_CONTEXT(
'core data for automotive mechanical design processes');
#22=SHAPE_REPRESENTATION('STP_ATUM 30.5XD3 WCM. 06T308-None',(#406),#692);
#23=DRAUGHTING_PRE_DEFINED_COLOUR('yellow');
#24=SURFACE_OF_REVOLUTION('',#44,#34);
#25=SURFACE_OF_REVOLUTION('',#45,#35);
#26=SURFACE_OF_REVOLUTION('',#46,#36);
#27=SURFACE_OF_REVOLUTION('',#401,#37);
#28=SURFACE_OF_REVOLUTION('',#47,#38);
#29=SURFACE_OF_REVOLUTION('',#48,#39);
#30=SURFACE_OF_REVOLUTION('',#404,#40);
#31=SURFACE_OF_REVOLUTION('',#49,#41);
#32=SURFACE_OF_REVOLUTION('',#50,#42);
#33=SURFACE_OF_REVOLUTION('',#51,#43);
#34=AXIS1_PLACEMENT('',#659,#554);
#35=AXIS1_PLACEMENT('',#665,#560);
#36=AXIS1_PLACEMENT('',#669,#564);
#37=AXIS1_PLACEMENT('',#673,#569);
#38=AXIS1_PLACEMENT('',#677,#573);
#39=AXIS1_PLACEMENT('',#681,#577);
#40=AXIS1_PLACEMENT('',#683,#580);
#41=AXIS1_PLACEMENT('',#685,#582);
#42=AXIS1_PLACEMENT('',#689,#586);
#43=AXIS1_PLACEMENT('',#691,#588);
#44=LINE('',#658,#52);
#45=LINE('',#664,#53);
#46=LINE('',#668,#54);
#47=LINE('',#676,#55);
#48=LINE('',#680,#56);
#49=LINE('',#684,#57);
#50=LINE('',#688,#58);
#51=LINE('',#690,#59);
#52=VECTOR('',#553,4.69787950555344);
#53=VECTOR('',#559,3.78343186963026);
#54=VECTOR('',#563,5.56208085627869);
#55=VECTOR('',#572,5.56208085627868);
#56=VECTOR('',#576,5.56208085627863);
#57=VECTOR('',#581,4.85355717157782);
#58=VECTOR('',#585,3.21902247496686);
#59=VECTOR('',#587,5.56208085627863);
#60=PRESENTATION_LAYER_ASSIGNMENT('1','Layer 1',(#76,#77));
#61=STYLED_ITEM('',(#63),#76);
#62=STYLED_ITEM('',(#64),#77);
#63=PRESENTATION_STYLE_ASSIGNMENT((#65));
#64=PRESENTATION_STYLE_ASSIGNMENT((#66));
#65=SURFACE_STYLE_USAGE(.BOTH.,#67);
#66=SURFACE_STYLE_USAGE(.BOTH.,#68);
#67=SURFACE_SIDE_STYLE('',(#69));
#68=SURFACE_SIDE_STYLE('',(#70));
#69=SURFACE_STYLE_FILL_AREA(#71);
#70=SURFACE_STYLE_FILL_AREA(#72);
#71=FILL_AREA_STYLE('',(#73));
#72=FILL_AREA_STYLE('',(#74));
#73=FILL_AREA_STYLE_COLOUR('',#75);
#74=FILL_AREA_STYLE_COLOUR('',#23);
#75=COLOUR_RGB('smoke gray',0.694117647058824,0.694117647058824,0.694117647058824);
#76=MANIFOLD_SOLID_BREP('',#78);
#77=MANIFOLD_SOLID_BREP('',#79);
#78=CLOSED_SHELL('',(#98,#99,#100,#101,#102,#103,#104,#105,#106,#107,#108,
#109,#110,#111,#112,#113,#114,#115,#116,#117));
#79=CLOSED_SHELL('',(#118,#119,#120,#121,#122,#123,#124,#125,#126,#127,
#128,#129));
#80=FACE_OUTER_BOUND('',#218,.T.);
#81=FACE_OUTER_BOUND('',#231,.T.);
#82=FACE_OUTER_BOUND('',#232,.T.);
#83=FACE_OUTER_BOUND('',#233,.T.);
#84=PLANE('',#429);
#85=PLANE('',#432);
#86=PLANE('',#445);
#87=PLANE('',#447);
#88=PLANE('',#449);
#89=CONICAL_SURFACE('',#415,15.8103073792138,20.0000000000007);
#90=CONICAL_SURFACE('',#419,16.,14.9999999999993);
#91=CONICAL_SURFACE('',#427,16.2056692403837,81.999999999999);
#92=CONICAL_SURFACE('',#438,21.9202515050007,13.2405199151872);
#93=CYLINDRICAL_SURFACE('',#411,15.7499999999998);
#94=CYLINDRICAL_SURFACE('',#417,16.);
#95=CYLINDRICAL_SURFACE('',#423,15.7499999999997);
#96=CYLINDRICAL_SURFACE('',#434,22.0000000000001);
#97=CYLINDRICAL_SURFACE('',#442,18.);
#98=ADVANCED_FACE('',(#138,#139),#130,.T.);
#99=ADVANCED_FACE('',(#140,#141),#93,.T.);
#100=ADVANCED_FACE('',(#142,#143),#131,.F.);
#101=ADVANCED_FACE('',(#144,#145),#89,.T.);
#102=ADVANCED_FACE('',(#146,#147),#94,.T.);
#103=ADVANCED_FACE('',(#148,#149),#90,.T.);
#104=ADVANCED_FACE('',(#150,#151),#132,.F.);
#105=ADVANCED_FACE('',(#152,#153),#95,.T.);
#106=ADVANCED_FACE('',(#154,#155),#133,.F.);
#107=ADVANCED_FACE('',(#156,#157),#91,.F.);
#108=ADVANCED_FACE('',(#158,#159),#84,.F.);
#109=ADVANCED_FACE('',(#160,#161),#134,.T.);
#110=ADVANCED_FACE('',(#80),#85,.F.);
#111=ADVANCED_FACE('',(#162,#163),#96,.T.);
#112=ADVANCED_FACE('',(#164,#165),#135,.T.);
#113=ADVANCED_FACE('',(#166,#167),#92,.T.);
#114=ADVANCED_FACE('',(#168,#169),#136,.F.);
#115=ADVANCED_FACE('',(#170,#171),#97,.T.);
#116=ADVANCED_FACE('',(#172,#173),#137,.T.);
#117=ADVANCED_FACE('',(#81),#86,.F.);
#118=ADVANCED_FACE('',(#82),#87,.T.);
#119=ADVANCED_FACE('',(#83),#88,.F.);
#120=ADVANCED_FACE('',(#174,#175),#24,.T.);
#121=ADVANCED_FACE('',(#176,#177),#25,.T.);
#122=ADVANCED_FACE('',(#178,#179),#26,.T.);
#123=ADVANCED_FACE('',(#180,#181),#27,.T.);
#124=ADVANCED_FACE('',(#182,#183),#28,.T.);
#125=ADVANCED_FACE('',(#184,#185),#29,.T.);
#126=ADVANCED_FACE('',(#186,#187),#30,.T.);
#127=ADVANCED_FACE('',(#188,#189),#31,.T.);
#128=ADVANCED_FACE('',(#190,#191),#32,.T.);
#129=ADVANCED_FACE('',(#192,#193),#33,.T.);
#130=TOROIDAL_SURFACE('',#409,14.7499999999999,1.00000000000003);
#131=TOROIDAL_SURFACE('',#413,16.7499999999997,1.);
#132=TOROIDAL_SURFACE('',#421,16.1499999999997,0.399999999999997);
#133=TOROIDAL_SURFACE('',#425,16.1499999999997,0.4);
#134=TOROIDAL_SURFACE('',#431,21.3,0.800000000000011);
#135=TOROIDAL_SURFACE('',#436,19.,3.);
#136=TOROIDAL_SURFACE('',#440,23.,5.);
#137=TOROIDAL_SURFACE('',#444,16.6,1.4);
#138=FACE_BOUND('',#194,.T.);
#139=FACE_BOUND('',#195,.T.);
#140=FACE_BOUND('',#196,.T.);
#141=FACE_BOUND('',#197,.T.);
#142=FACE_BOUND('',#198,.T.);
#143=FACE_BOUND('',#199,.T.);
#144=FACE_BOUND('',#200,.T.);
#145=FACE_BOUND('',#201,.T.);
#146=FACE_BOUND('',#202,.T.);
#147=FACE_BOUND('',#203,.T.);
#148=FACE_BOUND('',#204,.T.);
#149=FACE_BOUND('',#205,.T.);
#150=FACE_BOUND('',#206,.T.);
#151=FACE_BOUND('',#207,.T.);
#152=FACE_BOUND('',#208,.T.);
#153=FACE_BOUND('',#209,.T.);
#154=FACE_BOUND('',#210,.T.);
#155=FACE_BOUND('',#211,.T.);
#156=FACE_BOUND('',#212,.T.);
#157=FACE_BOUND('',#213,.T.);
#158=FACE_BOUND('',#214,.T.);
#159=FACE_BOUND('',#215,.T.);
#160=FACE_BOUND('',#216,.T.);
#161=FACE_BOUND('',#217,.T.);
#162=FACE_BOUND('',#219,.T.);
#163=FACE_BOUND('',#220,.T.);
#164=FACE_BOUND('',#221,.T.);
#165=FACE_BOUND('',#222,.T.);
#166=FACE_BOUND('',#223,.T.);
#167=FACE_BOUND('',#224,.T.);
#168=FACE_BOUND('',#225,.T.);
#169=FACE_BOUND('',#226,.T.);
#170=FACE_BOUND('',#227,.T.);
#171=FACE_BOUND('',#228,.T.);
#172=FACE_BOUND('',#229,.T.);
#173=FACE_BOUND('',#230,.T.);
#174=FACE_BOUND('',#234,.T.);
#175=FACE_BOUND('',#235,.T.);
#176=FACE_BOUND('',#236,.T.);
#177=FACE_BOUND('',#237,.T.);
#178=FACE_BOUND('',#238,.T.);
#179=FACE_BOUND('',#239,.T.);
#180=FACE_BOUND('',#240,.T.);
#181=FACE_BOUND('',#241,.T.);
#182=FACE_BOUND('',#242,.T.);
#183=FACE_BOUND('',#243,.T.);
#184=FACE_BOUND('',#244,.T.);
#185=FACE_BOUND('',#245,.T.);
#186=FACE_BOUND('',#246,.T.);
#187=FACE_BOUND('',#247,.T.);
#188=FACE_BOUND('',#248,.T.);
#189=FACE_BOUND('',#249,.T.);
#190=FACE_BOUND('',#250,.T.);
#191=FACE_BOUND('',#251,.T.);
#192=FACE_BOUND('',#252,.T.);
#193=FACE_BOUND('',#253,.T.);
#194=EDGE_LOOP('',(#254));
#195=EDGE_LOOP('',(#255));
#196=EDGE_LOOP('',(#256));
#197=EDGE_LOOP('',(#257));
#198=EDGE_LOOP('',(#258));
#199=EDGE_LOOP('',(#259));
#200=EDGE_LOOP('',(#260));
#201=EDGE_LOOP('',(#261));
#202=EDGE_LOOP('',(#262));
#203=EDGE_LOOP('',(#263));
#204=EDGE_LOOP('',(#264));
#205=EDGE_LOOP('',(#265));
#206=EDGE_LOOP('',(#266));
#207=EDGE_LOOP('',(#267));
#208=EDGE_LOOP('',(#268));
#209=EDGE_LOOP('',(#269));
#210=EDGE_LOOP('',(#270));
#211=EDGE_LOOP('',(#271));
#212=EDGE_LOOP('',(#272));
#213=EDGE_LOOP('',(#273));
#214=EDGE_LOOP('',(#274));
#215=EDGE_LOOP('',(#275));
#216=EDGE_LOOP('',(#276));
#217=EDGE_LOOP('',(#277));
#218=EDGE_LOOP('',(#278));
#219=EDGE_LOOP('',(#279));
#220=EDGE_LOOP('',(#280));
#221=EDGE_LOOP('',(#281));
#222=EDGE_LOOP('',(#282));
#223=EDGE_LOOP('',(#283));
#224=EDGE_LOOP('',(#284));
#225=EDGE_LOOP('',(#285));
#226=EDGE_LOOP('',(#286));
#227=EDGE_LOOP('',(#287));
#228=EDGE_LOOP('',(#288));
#229=EDGE_LOOP('',(#289));
#230=EDGE_LOOP('',(#290));
#231=EDGE_LOOP('',(#291));
#232=EDGE_LOOP('',(#292));
#233=EDGE_LOOP('',(#293));
#234=EDGE_LOOP('',(#294));
#235=EDGE_LOOP('',(#295));
#236=EDGE_LOOP('',(#296));
#237=EDGE_LOOP('',(#297));
#238=EDGE_LOOP('',(#298));
#239=EDGE_LOOP('',(#299));
#240=EDGE_LOOP('',(#300));
#241=EDGE_LOOP('',(#301));
#242=EDGE_LOOP('',(#302));
#243=EDGE_LOOP('',(#303));
#244=EDGE_LOOP('',(#304));
#245=EDGE_LOOP('',(#305));
#246=EDGE_LOOP('',(#306));
#247=EDGE_LOOP('',(#307));
#248=EDGE_LOOP('',(#308));
#249=EDGE_LOOP('',(#309));
#250=EDGE_LOOP('',(#310));
#251=EDGE_LOOP('',(#311));
#252=EDGE_LOOP('',(#312));
#253=EDGE_LOOP('',(#313));
#254=ORIENTED_EDGE('',*,*,#344,.T.);
#255=ORIENTED_EDGE('',*,*,#345,.T.);
#256=ORIENTED_EDGE('',*,*,#346,.T.);
#257=ORIENTED_EDGE('',*,*,#344,.F.);
#258=ORIENTED_EDGE('',*,*,#347,.T.);
#259=ORIENTED_EDGE('',*,*,#346,.F.);
#260=ORIENTED_EDGE('',*,*,#348,.T.);
#261=ORIENTED_EDGE('',*,*,#347,.F.);
#262=ORIENTED_EDGE('',*,*,#349,.T.);
#263=ORIENTED_EDGE('',*,*,#348,.F.);
#264=ORIENTED_EDGE('',*,*,#350,.T.);
#265=ORIENTED_EDGE('',*,*,#349,.F.);
#266=ORIENTED_EDGE('',*,*,#351,.T.);
#267=ORIENTED_EDGE('',*,*,#350,.F.);
#268=ORIENTED_EDGE('',*,*,#352,.T.);
#269=ORIENTED_EDGE('',*,*,#351,.F.);
#270=ORIENTED_EDGE('',*,*,#353,.T.);
#271=ORIENTED_EDGE('',*,*,#352,.F.);
#272=ORIENTED_EDGE('',*,*,#354,.T.);
#273=ORIENTED_EDGE('',*,*,#353,.F.);
#274=ORIENTED_EDGE('',*,*,#355,.T.);
#275=ORIENTED_EDGE('',*,*,#354,.F.);
#276=ORIENTED_EDGE('',*,*,#356,.T.);
#277=ORIENTED_EDGE('',*,*,#355,.F.);
#278=ORIENTED_EDGE('',*,*,#345,.F.);
#279=ORIENTED_EDGE('',*,*,#357,.T.);
#280=ORIENTED_EDGE('',*,*,#356,.F.);
#281=ORIENTED_EDGE('',*,*,#358,.T.);
#282=ORIENTED_EDGE('',*,*,#357,.F.);
#283=ORIENTED_EDGE('',*,*,#359,.T.);
#284=ORIENTED_EDGE('',*,*,#358,.F.);
#285=ORIENTED_EDGE('',*,*,#360,.T.);
#286=ORIENTED_EDGE('',*,*,#359,.F.);
#287=ORIENTED_EDGE('',*,*,#360,.F.);
#288=ORIENTED_EDGE('',*,*,#361,.T.);
#289=ORIENTED_EDGE('',*,*,#362,.T.);
#290=ORIENTED_EDGE('',*,*,#361,.F.);
#291=ORIENTED_EDGE('',*,*,#362,.F.);
#292=ORIENTED_EDGE('',*,*,#363,.T.);
#293=ORIENTED_EDGE('',*,*,#364,.F.);
#294=ORIENTED_EDGE('',*,*,#365,.T.);
#295=ORIENTED_EDGE('',*,*,#366,.F.);
#296=ORIENTED_EDGE('',*,*,#367,.F.);
#297=ORIENTED_EDGE('',*,*,#368,.F.);
#298=ORIENTED_EDGE('',*,*,#369,.F.);
#299=ORIENTED_EDGE('',*,*,#367,.T.);
#300=ORIENTED_EDGE('',*,*,#370,.F.);
#301=ORIENTED_EDGE('',*,*,#369,.T.);
#302=ORIENTED_EDGE('',*,*,#371,.F.);
#303=ORIENTED_EDGE('',*,*,#370,.T.);
#304=ORIENTED_EDGE('',*,*,#372,.F.);
#305=ORIENTED_EDGE('',*,*,#371,.T.);
#306=ORIENTED_EDGE('',*,*,#365,.F.);
#307=ORIENTED_EDGE('',*,*,#372,.T.);
#308=ORIENTED_EDGE('',*,*,#363,.F.);
#309=ORIENTED_EDGE('',*,*,#366,.T.);
#310=ORIENTED_EDGE('',*,*,#373,.T.);
#311=ORIENTED_EDGE('',*,*,#368,.T.);
#312=ORIENTED_EDGE('',*,*,#373,.F.);
#313=ORIENTED_EDGE('',*,*,#364,.T.);
#314=VERTEX_POINT('',#591);
#315=VERTEX_POINT('',#593);
#316=VERTEX_POINT('',#596);
#317=VERTEX_POINT('',#599);
#318=VERTEX_POINT('',#602);
#319=VERTEX_POINT('',#605);
#320=VERTEX_POINT('',#608);
#321=VERTEX_POINT('',#611);
#322=VERTEX_POINT('',#614);
#323=VERTEX_POINT('',#617);
#324=VERTEX_POINT('',#620);
#325=VERTEX_POINT('',#623);
#326=VERTEX_POINT('',#626);
#327=VERTEX_POINT('',#630);
#328=VERTEX_POINT('',#633);
#329=VERTEX_POINT('',#636);
#330=VERTEX_POINT('',#639);
#331=VERTEX_POINT('',#642);
#332=VERTEX_POINT('',#645);
#333=VERTEX_POINT('',#649);
#334=VERTEX_POINT('',#652);
#335=VERTEX_POINT('',#655);
#336=VERTEX_POINT('',#657);
#337=VERTEX_POINT('',#661);
#338=VERTEX_POINT('',#663);
#339=VERTEX_POINT('',#667);
#340=VERTEX_POINT('',#671);
#341=VERTEX_POINT('',#675);
#342=VERTEX_POINT('',#679);
#343=VERTEX_POINT('',#687);
#344=EDGE_CURVE('',#314,#314,#374,.T.);
#345=EDGE_CURVE('',#315,#315,#375,.T.);
#346=EDGE_CURVE('',#316,#316,#376,.T.);
#347=EDGE_CURVE('',#317,#317,#377,.T.);
#348=EDGE_CURVE('',#318,#318,#378,.T.);
#349=EDGE_CURVE('',#319,#319,#379,.T.);
#350=EDGE_CURVE('',#320,#320,#380,.T.);
#351=EDGE_CURVE('',#321,#321,#381,.T.);
#352=EDGE_CURVE('',#322,#322,#382,.T.);
#353=EDGE_CURVE('',#323,#323,#383,.T.);
#354=EDGE_CURVE('',#324,#324,#384,.T.);
#355=EDGE_CURVE('',#325,#325,#385,.T.);
#356=EDGE_CURVE('',#326,#326,#386,.T.);
#357=EDGE_CURVE('',#327,#327,#387,.T.);
#358=EDGE_CURVE('',#328,#328,#388,.T.);
#359=EDGE_CURVE('',#329,#329,#389,.T.);
#360=EDGE_CURVE('',#330,#330,#390,.T.);
#361=EDGE_CURVE('',#331,#331,#391,.T.);
#362=EDGE_CURVE('',#332,#332,#392,.T.);
#363=EDGE_CURVE('',#333,#333,#393,.T.);
#364=EDGE_CURVE('',#334,#334,#394,.T.);
#365=EDGE_CURVE('',#335,#335,#395,.T.);
#366=EDGE_CURVE('',#336,#336,#396,.T.);
#367=EDGE_CURVE('',#337,#337,#397,.T.);
#368=EDGE_CURVE('',#338,#338,#398,.T.);
#369=EDGE_CURVE('',#339,#339,#399,.T.);
#370=EDGE_CURVE('',#340,#340,#400,.T.);
#371=EDGE_CURVE('',#341,#341,#402,.T.);
#372=EDGE_CURVE('',#342,#342,#403,.T.);
#373=EDGE_CURVE('',#343,#343,#405,.T.);
#374=CIRCLE('',#407,15.75);
#375=CIRCLE('',#408,14.7499999999999);
#376=CIRCLE('',#410,15.7499999999997);
#377=CIRCLE('',#412,15.8103073792138);
#378=CIRCLE('',#414,16.);
#379=CIRCLE('',#416,16.);
#380=CIRCLE('',#418,15.7636296694841);
#381=CIRCLE('',#420,15.7499999999997);
#382=CIRCLE('',#422,15.7499999999997);
#383=CIRCLE('',#424,16.2056692403837);
#384=CIRCLE('',#426,17.);
#385=CIRCLE('',#428,21.3);
#386=CIRCLE('',#430,22.0000000000001);
#387=CIRCLE('',#433,22.);
#388=CIRCLE('',#435,21.9202515050007);
#389=CIRCLE('',#437,18.1329141583321);
#390=CIRCLE('',#439,18.);
#391=CIRCLE('',#441,18.);
#392=CIRCLE('',#443,16.6);
#393=CIRCLE('',#446,5.48443435091315);
#394=CIRCLE('',#448,0.100000000000002);
#395=CIRCLE('',#450,11.843863903474);
#396=CIRCLE('',#451,8.8093565010548);
#397=CIRCLE('',#452,12.3604503679151);
#398=CIRCLE('',#453,8.65744162181345);
#399=CIRCLE('',#454,17.8333106945331);
#400=CIRCLE('',#455,18.4538877462989);
#401=CIRCLE('',#456,0.800000000000002);
#402=CIRCLE('',#457,16.5975198957094);
#403=CIRCLE('',#458,13.065527168239);
#404=CIRCLE('',#459,0.799999999999999);
#405=CIRCLE('',#460,5.52437513559383);
#406=AXIS2_PLACEMENT_3D('',#589,#461,#462);
#407=AXIS2_PLACEMENT_3D('',#590,#463,#464);
#408=AXIS2_PLACEMENT_3D('',#592,#465,#466);
#409=AXIS2_PLACEMENT_3D('',#594,#467,#468);
#410=AXIS2_PLACEMENT_3D('',#595,#469,#470);
#411=AXIS2_PLACEMENT_3D('',#597,#471,#472);
#412=AXIS2_PLACEMENT_3D('',#598,#473,#474);
#413=AXIS2_PLACEMENT_3D('',#600,#475,#476);
#414=AXIS2_PLACEMENT_3D('',#601,#477,#478);
#415=AXIS2_PLACEMENT_3D('',#603,#479,#480);
#416=AXIS2_PLACEMENT_3D('',#604,#481,#482);
#417=AXIS2_PLACEMENT_3D('',#606,#483,#484);
#418=AXIS2_PLACEMENT_3D('',#607,#485,#486);
#419=AXIS2_PLACEMENT_3D('',#609,#487,#488);
#420=AXIS2_PLACEMENT_3D('',#610,#489,#490);
#421=AXIS2_PLACEMENT_3D('',#612,#491,#492);
#422=AXIS2_PLACEMENT_3D('',#613,#493,#494);
#423=AXIS2_PLACEMENT_3D('',#615,#495,#496);
#424=AXIS2_PLACEMENT_3D('',#616,#497,#498);
#425=AXIS2_PLACEMENT_3D('',#618,#499,#500);
#426=AXIS2_PLACEMENT_3D('',#619,#501,#502);
#427=AXIS2_PLACEMENT_3D('',#621,#503,#504);
#428=AXIS2_PLACEMENT_3D('',#622,#505,#506);
#429=AXIS2_PLACEMENT_3D('',#624,#507,#508);
#430=AXIS2_PLACEMENT_3D('',#625,#509,#510);
#431=AXIS2_PLACEMENT_3D('',#627,#511,#512);
#432=AXIS2_PLACEMENT_3D('',#628,#513,#514);
#433=AXIS2_PLACEMENT_3D('',#629,#515,#516);
#434=AXIS2_PLACEMENT_3D('',#631,#517,#518);
#435=AXIS2_PLACEMENT_3D('',#632,#519,#520);
#436=AXIS2_PLACEMENT_3D('',#634,#521,#522);
#437=AXIS2_PLACEMENT_3D('',#635,#523,#524);
#438=AXIS2_PLACEMENT_3D('',#637,#525,#526);
#439=AXIS2_PLACEMENT_3D('',#638,#527,#528);
#440=AXIS2_PLACEMENT_3D('',#640,#529,#530);
#441=AXIS2_PLACEMENT_3D('',#641,#531,#532);
#442=AXIS2_PLACEMENT_3D('',#643,#533,#534);
#443=AXIS2_PLACEMENT_3D('',#644,#535,#536);
#444=AXIS2_PLACEMENT_3D('',#646,#537,#538);
#445=AXIS2_PLACEMENT_3D('',#647,#539,#540);
#446=AXIS2_PLACEMENT_3D('',#648,#541,#542);
#447=AXIS2_PLACEMENT_3D('',#650,#543,#544);
#448=AXIS2_PLACEMENT_3D('',#651,#545,#546);
#449=AXIS2_PLACEMENT_3D('',#653,#547,#548);
#450=AXIS2_PLACEMENT_3D('',#654,#549,#550);
#451=AXIS2_PLACEMENT_3D('',#656,#551,#552);
#452=AXIS2_PLACEMENT_3D('',#660,#555,#556);
#453=AXIS2_PLACEMENT_3D('',#662,#557,#558);
#454=AXIS2_PLACEMENT_3D('',#666,#561,#562);
#455=AXIS2_PLACEMENT_3D('',#670,#565,#566);
#456=AXIS2_PLACEMENT_3D('',#672,#567,#568);
#457=AXIS2_PLACEMENT_3D('',#674,#570,#571);
#458=AXIS2_PLACEMENT_3D('',#678,#574,#575);
#459=AXIS2_PLACEMENT_3D('',#682,#578,#579);
#460=AXIS2_PLACEMENT_3D('',#686,#583,#584);
#461=DIRECTION('',(0.,0.,1.));
#462=DIRECTION('',(1.,0.,0.));
#463=DIRECTION('',(1.,0.,0.));
#464=DIRECTION('',(0.,0.,1.));
#465=DIRECTION('',(-1.,0.,0.));
#466=DIRECTION('',(0.,0.,1.));
#467=DIRECTION('',(-1.,0.,0.));
#468=DIRECTION('',(0.,0.,1.));
#469=DIRECTION('',(1.,0.,0.));
#470=DIRECTION('',(0.,0.,1.));
#471=DIRECTION('',(-1.,0.,0.));
#472=DIRECTION('',(0.,0.,1.));
#473=DIRECTION('',(1.,0.,0.));
#474=DIRECTION('',(0.,0.,1.));
#475=DIRECTION('',(-1.,0.,0.));
#476=DIRECTION('',(0.,0.,1.));
#477=DIRECTION('',(1.,0.,0.));
#478=DIRECTION('',(0.,0.,1.));
#479=DIRECTION('',(-1.,0.,0.));
#480=DIRECTION('',(7.30831956144345E-17,0.,1.));
#481=DIRECTION('',(1.,0.,0.));
#482=DIRECTION('',(0.,0.,1.));
#483=DIRECTION('',(-1.,0.,0.));
#484=DIRECTION('',(0.,0.,1.));
#485=DIRECTION('',(1.,0.,0.));
#486=DIRECTION('',(0.,0.,1.));
#487=DIRECTION('',(1.,0.,0.));
#488=DIRECTION('',(3.90993548923199E-16,0.,-1.));
#489=DIRECTION('',(1.,0.,0.));
#490=DIRECTION('',(0.,0.,1.));
#491=DIRECTION('',(-1.,0.,0.));
#492=DIRECTION('',(0.,0.,1.));
#493=DIRECTION('',(1.,0.,0.));
#494=DIRECTION('',(0.,0.,1.));
#495=DIRECTION('',(-1.,0.,0.));
#496=DIRECTION('',(0.,0.,1.));
#497=DIRECTION('',(1.,0.,0.));
#498=DIRECTION('',(0.,0.,1.));
#499=DIRECTION('',(-1.,0.,0.));
#500=DIRECTION('',(0.,0.,1.));
#501=DIRECTION('',(1.,0.,0.));
#502=DIRECTION('',(0.,0.,1.));
#503=DIRECTION('',(1.,0.,0.));
#504=DIRECTION('',(-1.16757830176886E-17,0.,-1.));
#505=DIRECTION('',(1.,0.,0.));
#506=DIRECTION('',(0.,0.,1.));
#507=DIRECTION('',(-1.,0.,0.));
#508=DIRECTION('',(0.,0.,1.));
#509=DIRECTION('',(1.,0.,0.));
#510=DIRECTION('',(0.,0.,1.));
#511=DIRECTION('',(-1.,0.,0.));
#512=DIRECTION('',(0.,0.,1.));
#513=DIRECTION('',(-1.,0.,0.));
#514=DIRECTION('',(0.,0.,1.));
#515=DIRECTION('',(1.,0.,0.));
#516=DIRECTION('',(0.,0.,1.));
#517=DIRECTION('',(-1.,0.,0.));
#518=DIRECTION('',(0.,0.,1.));
#519=DIRECTION('',(1.,0.,0.));
#520=DIRECTION('',(0.,0.,1.));
#521=DIRECTION('',(-1.,0.,0.));
#522=DIRECTION('',(0.,0.,1.));
#523=DIRECTION('',(1.,0.,0.));
#524=DIRECTION('',(0.,0.,1.));
#525=DIRECTION('',(1.,0.,0.));
#526=DIRECTION('',(-1.07908340063305E-16,0.,-1.));
#527=DIRECTION('',(1.,0.,0.));
#528=DIRECTION('',(0.,0.,1.));
#529=DIRECTION('',(-1.,0.,0.));
#530=DIRECTION('',(0.,0.,1.));
#531=DIRECTION('',(1.,0.,0.));
#532=DIRECTION('',(0.,0.,-1.));
#533=DIRECTION('',(-1.,0.,0.));
#534=DIRECTION('',(0.,0.,1.));
#535=DIRECTION('',(1.,0.,0.));
#536=DIRECTION('',(0.,0.,-1.));
#537=DIRECTION('',(1.,0.,0.));
#538=DIRECTION('',(0.,0.,-1.));
#539=DIRECTION('',(1.,0.,0.));
#540=DIRECTION('',(0.,0.,-1.));
#541=DIRECTION('',(1.,0.,0.));
#542=DIRECTION('',(0.,0.,-1.));
#543=DIRECTION('',(1.,0.,0.));
#544=DIRECTION('',(0.,0.,-1.));
#545=DIRECTION('',(1.,0.,0.));
#546=DIRECTION('',(0.,0.,-1.));
#547=DIRECTION('',(1.,0.,0.));
#548=DIRECTION('',(0.,0.,-1.));
#549=DIRECTION('',(1.,0.,0.));
#550=DIRECTION('',(0.,0.,-1.));
#551=DIRECTION('',(1.,0.,0.));
#552=DIRECTION('',(0.,0.,-1.));
#553=DIRECTION('',(-0.760745911552606,0.649049811690901,1.9492743821975E-16));
#554=DIRECTION('',(1.,0.,0.));
#555=DIRECTION('',(1.,0.,0.));
#556=DIRECTION('',(0.,0.,-1.));
#557=DIRECTION('',(-1.,0.,0.));
#558=DIRECTION('',(0.,0.,-1.));
#559=DIRECTION('',(-0.181720669469519,-0.983350191075158,-4.28840364083447E-16));
#560=DIRECTION('',(1.,0.,0.));
#561=DIRECTION('',(1.,0.,0.));
#562=DIRECTION('',(0.,0.,-1.));
#563=DIRECTION('',(0.165564001146067,-0.98619904761894,-2.72898413507647E-16));
#564=DIRECTION('',(1.,0.,0.));
#565=DIRECTION('',(1.,0.,0.));
#566=DIRECTION('',(0.,0.,-1.));
#567=DIRECTION('',(-2.04755498844022E-17,-5.15466656965442E-17,1.));
#568=DIRECTION('',(0.942466581022128,0.334300379384261,3.6529591392449E-17));
#569=DIRECTION('',(1.,0.,0.));
#570=DIRECTION('',(1.,0.,0.));
#571=DIRECTION('',(0.,0.,-1.));
#572=DIRECTION('',(0.942466581022129,0.334300379384258,1.16956462931849E-16));
#573=DIRECTION('',(1.,0.,0.));
#574=DIRECTION('',(1.,0.,0.));
#575=DIRECTION('',(0.,0.,-1.));
#576=DIRECTION('',(0.771291427852984,0.636482154754165,1.1695646293185E-16));
#577=DIRECTION('',(1.,0.,0.));
#578=DIRECTION('',(-2.04755498844022E-17,-5.15466656965442E-17,1.));
#579=DIRECTION('',(0.942466581022128,0.334300379384261,3.6529591392449E-17));
#580=DIRECTION('',(1.,0.,0.));
#581=DIRECTION('',(0.728430760604691,-0.684180492998035,-0.0358563802668033));
#582=DIRECTION('',(1.,0.,0.));
#583=DIRECTION('',(1.,0.,0.));
#584=DIRECTION('',(0.,0.,-1.));
#585=DIRECTION('',(0.229115446685137,0.972065246410782,0.0509437808826114));
#586=DIRECTION('',(1.,0.,0.));
#587=DIRECTION('',(-0.117624058581536,0.991697244356274,0.0519726502978238));
#588=DIRECTION('',(1.,0.,0.));
#589=CARTESIAN_POINT('',(0.,0.,0.));
#590=CARTESIAN_POINT('',(197.,0.,0.));
#591=CARTESIAN_POINT('',(197.,0.,15.75));
#592=CARTESIAN_POINT('',(198.,0.,0.));
#593=CARTESIAN_POINT('',(198.,0.,14.7499999999999));
#594=CARTESIAN_POINT('',(197.,0.,0.));
#595=CARTESIAN_POINT('',(195.176326980709,0.,0.));
#596=CARTESIAN_POINT('',(195.176326980709,0.,15.7499999999997));
#597=CARTESIAN_POINT('',(0.,0.,0.));
#598=CARTESIAN_POINT('',(194.834306837383,0.,0.));
#599=CARTESIAN_POINT('',(194.834306837383,0.,15.8103073792138));
#600=CARTESIAN_POINT('',(195.176326980709,0.,0.));
#601=CARTESIAN_POINT('',(194.313130645136,0.,0.));
#602=CARTESIAN_POINT('',(194.313130645136,0.,16.));
#603=CARTESIAN_POINT('',(194.834306837383,0.,0.));
#604=CARTESIAN_POINT('',(140.,0.,0.));
#605=CARTESIAN_POINT('',(140.,0.,16.));
#606=CARTESIAN_POINT('',(0.,0.,0.));
#607=CARTESIAN_POINT('',(139.117853917113,0.,0.));
#608=CARTESIAN_POINT('',(139.117853917113,0.,15.7636296694841));
#609=CARTESIAN_POINT('',(140.,0.,0.));
#610=CARTESIAN_POINT('',(139.014326299072,0.,0.));
#611=CARTESIAN_POINT('',(139.014326299072,0.,15.7499999999997));
#612=CARTESIAN_POINT('',(139.014326299072,0.,0.));
#613=CARTESIAN_POINT('',(138.28447131951,0.,0.));
#614=CARTESIAN_POINT('',(138.28447131951,0.,15.7499999999997));
#615=CARTESIAN_POINT('',(0.,0.,0.));
#616=CARTESIAN_POINT('',(137.888364092014,0.,0.));
#617=CARTESIAN_POINT('',(137.888364092014,0.,16.2056692403837));
#618=CARTESIAN_POINT('',(138.28447131951,0.,0.));
#619=CARTESIAN_POINT('',(138.,0.,0.));
#620=CARTESIAN_POINT('',(138.,0.,17.));
#621=CARTESIAN_POINT('',(137.888364092014,0.,0.));
#622=CARTESIAN_POINT('',(138.,0.,0.));
#623=CARTESIAN_POINT('',(138.,0.,21.3));
#624=CARTESIAN_POINT('',(138.,17.,0.));
#625=CARTESIAN_POINT('',(137.587298334621,0.,0.));
#626=CARTESIAN_POINT('',(137.587298334621,0.,22.0000000000001));
#627=CARTESIAN_POINT('',(137.2,0.,0.));
#628=CARTESIAN_POINT('',(198.,22.5,0.));
#629=CARTESIAN_POINT('',(133.34818689743,0.,0.));
#630=CARTESIAN_POINT('',(133.34818689743,0.,22.));
#631=CARTESIAN_POINT('',(0.,0.,0.));
#632=CARTESIAN_POINT('',(132.661068896253,0.,0.));
#633=CARTESIAN_POINT('',(132.661068896253,0.,21.9202515050007));
#634=CARTESIAN_POINT('',(133.34818689743,0.,0.));
#635=CARTESIAN_POINT('',(116.564885172912,0.,0.));
#636=CARTESIAN_POINT('',(116.564885172912,0.,18.1329141583321));
#637=CARTESIAN_POINT('',(132.661068896253,0.,0.));
#638=CARTESIAN_POINT('',(115.419688504284,0.,0.));
#639=CARTESIAN_POINT('',(115.419688504284,0.,18.));
#640=CARTESIAN_POINT('',(115.419688504284,0.,0.));
#641=CARTESIAN_POINT('',(2.2,0.,0.));
#642=CARTESIAN_POINT('',(2.2,0.,-18.));
#643=CARTESIAN_POINT('',(0.,0.,0.));
#644=CARTESIAN_POINT('',(0.800000000000001,0.,0.));
#645=CARTESIAN_POINT('',(0.800000000000001,0.,-16.6));
#646=CARTESIAN_POINT('',(2.2,0.,0.));
#647=CARTESIAN_POINT('',(0.800000000000001,16.2941135957613,0.));
#648=CARTESIAN_POINT('',(11.5309823571882,0.,0.));
#649=CARTESIAN_POINT('',(11.5309823571882,0.,-5.48443435091315));
#650=CARTESIAN_POINT('',(11.5309823571882,0.,0.));
#651=CARTESIAN_POINT('',(0.65423452447416,0.,0.));
#652=CARTESIAN_POINT('',(0.65423452447416,0.,-0.100000000000002));
#653=CARTESIAN_POINT('',(0.65423452447416,0.,0.));
#654=CARTESIAN_POINT('',(11.569394641874,0.,0.));
#655=CARTESIAN_POINT('',(11.569394641874,0.,-11.843863903474));
#656=CARTESIAN_POINT('',(7.99550201505743,0.,0.));
#657=CARTESIAN_POINT('',(7.99550201505743,0.,-8.8093565010548));
#658=CARTESIAN_POINT('',(11.569394641874,-11.8015724445522,1.));
#659=CARTESIAN_POINT('',(7.99999999999999,0.,0.));
#660=CARTESIAN_POINT('',(0.0500000000000084,0.,0.));
#661=CARTESIAN_POINT('',(0.0500000000000084,0.,-12.3604503679151));
#662=CARTESIAN_POINT('',(0.737527772241532,0.,0.));
#663=CARTESIAN_POINT('',(0.737527772241532,0.,-8.65744162181345));
#664=CARTESIAN_POINT('',(0.737527772241532,-8.59949390575445,1.));
#665=CARTESIAN_POINT('',(7.99999999999999,0.,0.));
#666=CARTESIAN_POINT('',(0.970880361263448,0.,0.));
#667=CARTESIAN_POINT('',(0.970880361263448,0.,-17.8333106945331));
#668=CARTESIAN_POINT('',(0.0500000000000074,-12.3199323576752,1.));
#669=CARTESIAN_POINT('',(7.99999999999999,0.,0.));
#670=CARTESIAN_POINT('',(2.02727990286605,0.,0.));
#671=CARTESIAN_POINT('',(2.02727990286605,0.,-18.4538877462989));
#672=CARTESIAN_POINT('',(1.75983959935864,-17.6728,1.));
#673=CARTESIAN_POINT('',(7.99999999999999,0.,0.));
#674=CARTESIAN_POINT('',(7.26935523085161,0.,0.));
#675=CARTESIAN_POINT('',(7.26935523085161,0.,-16.5975198957094));
#676=CARTESIAN_POINT('',(2.02727990286601,-18.4267732648176,0.999999999999999));
#677=CARTESIAN_POINT('',(7.99999999999999,0.,0.));
#678=CARTESIAN_POINT('',(11.5593405163245,0.,0.));
#679=CARTESIAN_POINT('',(11.5593405163245,0.,-13.065527168239));
#680=CARTESIAN_POINT('',(7.26935523085161,-16.5673675243978,0.999999999999999));
#681=CARTESIAN_POINT('',(7.99999999999999,0.,0.));
#682=CARTESIAN_POINT('',(11.0501547925213,-12.4101691737943,1.));
#683=CARTESIAN_POINT('',(7.99999999999999,0.,0.));
#684=CARTESIAN_POINT('',(7.99550201505743,8.79148316975037,0.560879344130643));
#685=CARTESIAN_POINT('',(7.99999999999999,0.,0.));
#686=CARTESIAN_POINT('',(3.46944695195361E-15,0.,0.));
#687=CARTESIAN_POINT('',(3.46944695195361E-15,0.,-5.52437513559383));
#688=CARTESIAN_POINT('',(3.80874016615349E-15,5.51066666243401,0.388939036747049));
#689=CARTESIAN_POINT('',(7.99999999999999,0.,0.));
#690=CARTESIAN_POINT('',(0.65423452447416,-0.00523359562429442,0.099862953475459));
#691=CARTESIAN_POINT('',(7.99999999999999,0.,0.));
#692=(
GEOMETRIC_REPRESENTATION_CONTEXT(3)
GLOBAL_UNCERTAINTY_ASSIGNED_CONTEXT((#693))
GLOBAL_UNIT_ASSIGNED_CONTEXT((#699,#695,#694))
REPRESENTATION_CONTEXT('ATUM-37XD3-WCM-06T308-light',
'TOP_LEVEL_ASSEMBLY_PART')
);
#693=UNCERTAINTY_MEASURE_WITH_UNIT(LENGTH_MEASURE(2.E-5),#699,
'DISTANCE_ACCURACY_VALUE','Maximum Tolerance applied to model');
#694=(
NAMED_UNIT(*)
SI_UNIT($,.STERADIAN.)
SOLID_ANGLE_UNIT()
);
#695=(
CONVERSION_BASED_UNIT('DEGREE',#697)
NAMED_UNIT(#696)
PLANE_ANGLE_UNIT()
);
#696=DIMENSIONAL_EXPONENTS(0.,0.,0.,0.,0.,0.,0.);
#697=PLANE_ANGLE_MEASURE_WITH_UNIT(PLANE_ANGLE_MEASURE(0.0174532925),#698);
#698=(
NAMED_UNIT(*)
PLANE_ANGLE_UNIT()
SI_UNIT($,.RADIAN.)
);
#699=(
LENGTH_UNIT()
NAMED_UNIT(*)
SI_UNIT(.MILLI.,.METRE.)
);
ENDSEC;
END-ISO-10303-21;
