ISO-10303-21;
HEADER;
/* Generated by software containing ST-Developer
 * from STEP Tools, Inc. (www.steptools.com) 
 */
/* OPTION: using custom schema-name function */

FILE_DESCRIPTION(
/* description */ (''),
/* implementation_level */ '2;1');

FILE_NAME(
/* name */ 'ATUM-39XD4-WCM-06T308-light.stp',
/* time_stamp */ '2023-10-31T11:27:57+03:00',
/* author */ (''),
/* organization */ (''),
/* preprocessor_version */ 'ST-DEVELOPER v19.4',
/* originating_system */ 'SIEMENS PLM Software NX2306.3001',
/* authorisation */ '');

FILE_SCHEMA (('AUTOMOTIVE_DESIGN { 1 0 10303 214 3 1 1 1 }'));
ENDSEC;

DATA;
#10=SHAPE_REPRESENTATION_RELATIONSHIP('None',
'relationship between STP-ATUM 30XD4 WCM. 06T308-None and STP-ATUM 30X
D4 WCM. 06T308-None',#22,#11);
#11=ADVANCED_BREP_SHAPE_REPRESENTATION(
'STP-ATUM 30XD4 WCM. 06T308-None',(#80,#81),#715);
#12=SHAPE_DEFINITION_REPRESENTATION(#13,#22);
#13=PRODUCT_DEFINITION_SHAPE('','',#14);
#14=PRODUCT_DEFINITION(' ','',#16,#15);
#15=PRODUCT_DEFINITION_CONTEXT('part definition',#21,'design');
#16=PRODUCT_DEFINITION_FORMATION_WITH_SPECIFIED_SOURCE(' ',' ',#18,
 .NOT_KNOWN.);
#17=PRODUCT_RELATED_PRODUCT_CATEGORY('part','',(#18));
#18=PRODUCT('STP-ATUM 30XD4 WCM. 06T308','STP-ATUM 30XD4 WCM. 06T308',
' ',(#19));
#19=PRODUCT_CONTEXT(' ',#21,'mechanical');
#20=APPLICATION_PROTOCOL_DEFINITION('international standard',
'automotive_design',2010,#21);
#21=APPLICATION_CONTEXT(
'core data for automotive mechanical design processes');
#22=SHAPE_REPRESENTATION('STP-ATUM 30XD4 WCM. 06T308-None',(#420),#715);
#23=DRAUGHTING_PRE_DEFINED_COLOUR('yellow');
#24=SURFACE_OF_REVOLUTION('',#46,#35);
#25=SURFACE_OF_REVOLUTION('',#47,#36);
#26=SURFACE_OF_REVOLUTION('',#48,#37);
#27=SURFACE_OF_REVOLUTION('',#414,#38);
#28=SURFACE_OF_REVOLUTION('',#49,#39);
#29=SURFACE_OF_REVOLUTION('',#50,#40);
#30=SURFACE_OF_REVOLUTION('',#417,#41);
#31=SURFACE_OF_REVOLUTION('',#51,#42);
#32=SURFACE_OF_REVOLUTION('',#52,#43);
#33=SURFACE_OF_REVOLUTION('',#53,#44);
#34=SURFACE_OF_REVOLUTION('',#54,#45);
#35=AXIS1_PLACEMENT('',#678,#569);
#36=AXIS1_PLACEMENT('',#684,#575);
#37=AXIS1_PLACEMENT('',#688,#579);
#38=AXIS1_PLACEMENT('',#692,#584);
#39=AXIS1_PLACEMENT('',#696,#588);
#40=AXIS1_PLACEMENT('',#700,#592);
#41=AXIS1_PLACEMENT('',#702,#595);
#42=AXIS1_PLACEMENT('',#706,#599);
#43=AXIS1_PLACEMENT('',#710,#603);
#44=AXIS1_PLACEMENT('',#712,#605);
#45=AXIS1_PLACEMENT('',#714,#607);
#46=LINE('',#677,#55);
#47=LINE('',#683,#56);
#48=LINE('',#687,#57);
#49=LINE('',#695,#58);
#50=LINE('',#699,#59);
#51=LINE('',#705,#60);
#52=LINE('',#709,#61);
#53=LINE('',#711,#62);
#54=LINE('',#713,#63);
#55=VECTOR('',#568,5.4506463469173);
#56=VECTOR('',#574,4.3523148263368);
#57=VECTOR('',#578,5.56208085627866);
#58=VECTOR('',#587,5.56208085627868);
#59=VECTOR('',#591,5.56208085627864);
#60=VECTOR('',#598,0.0615501429317044);
#61=VECTOR('',#602,3.67022641271177);
#62=VECTOR('',#604,5.56208085627863);
#63=VECTOR('',#606,5.56208085627863);
#64=PRESENTATION_LAYER_ASSIGNMENT('1','Layer 1',(#80,#81));
#65=STYLED_ITEM('',(#67),#80);
#66=STYLED_ITEM('',(#68),#81);
#67=PRESENTATION_STYLE_ASSIGNMENT((#69));
#68=PRESENTATION_STYLE_ASSIGNMENT((#70));
#69=SURFACE_STYLE_USAGE(.BOTH.,#71);
#70=SURFACE_STYLE_USAGE(.BOTH.,#72);
#71=SURFACE_SIDE_STYLE('',(#73));
#72=SURFACE_SIDE_STYLE('',(#74));
#73=SURFACE_STYLE_FILL_AREA(#75);
#74=SURFACE_STYLE_FILL_AREA(#76);
#75=FILL_AREA_STYLE('',(#77));
#76=FILL_AREA_STYLE('',(#78));
#77=FILL_AREA_STYLE_COLOUR('',#79);
#78=FILL_AREA_STYLE_COLOUR('',#23);
#79=COLOUR_RGB('smoke gray',0.694117647058824,0.694117647058824,0.694117647058824);
#80=MANIFOLD_SOLID_BREP('',#82);
#81=MANIFOLD_SOLID_BREP('',#83);
#82=CLOSED_SHELL('',(#102,#103,#104,#105,#106,#107,#108,#109,#110,#111,
#112,#113,#114,#115,#116,#117,#118,#119,#120,#121));
#83=CLOSED_SHELL('',(#122,#123,#124,#125,#126,#127,#128,#129,#130,#131,
#132,#133,#134));
#84=FACE_OUTER_BOUND('',#225,.T.);
#85=FACE_OUTER_BOUND('',#238,.T.);
#86=FACE_OUTER_BOUND('',#239,.T.);
#87=FACE_OUTER_BOUND('',#240,.T.);
#88=PLANE('',#443);
#89=PLANE('',#446);
#90=PLANE('',#459);
#91=PLANE('',#461);
#92=PLANE('',#463);
#93=CONICAL_SURFACE('',#429,15.8103073792139,19.9999999999988);
#94=CONICAL_SURFACE('',#433,16.,15.0000000000011);
#95=CONICAL_SURFACE('',#441,16.2056692403838,82.0000000000023);
#96=CONICAL_SURFACE('',#452,21.9543506764538,10.0079798014413);
#97=CYLINDRICAL_SURFACE('',#425,15.7499999999999);
#98=CYLINDRICAL_SURFACE('',#431,16.);
#99=CYLINDRICAL_SURFACE('',#437,15.7499999999998);
#100=CYLINDRICAL_SURFACE('',#448,22.);
#101=CYLINDRICAL_SURFACE('',#456,19.);
#102=ADVANCED_FACE('',(#143,#144),#135,.T.);
#103=ADVANCED_FACE('',(#145,#146),#97,.T.);
#104=ADVANCED_FACE('',(#147,#148),#136,.F.);
#105=ADVANCED_FACE('',(#149,#150),#93,.T.);
#106=ADVANCED_FACE('',(#151,#152),#98,.T.);
#107=ADVANCED_FACE('',(#153,#154),#94,.T.);
#108=ADVANCED_FACE('',(#155,#156),#137,.F.);
#109=ADVANCED_FACE('',(#157,#158),#99,.T.);
#110=ADVANCED_FACE('',(#159,#160),#138,.F.);
#111=ADVANCED_FACE('',(#161,#162),#95,.F.);
#112=ADVANCED_FACE('',(#163,#164),#88,.F.);
#113=ADVANCED_FACE('',(#165,#166),#139,.T.);
#114=ADVANCED_FACE('',(#84),#89,.F.);
#115=ADVANCED_FACE('',(#167,#168),#100,.T.);
#116=ADVANCED_FACE('',(#169,#170),#140,.T.);
#117=ADVANCED_FACE('',(#171,#172),#96,.T.);
#118=ADVANCED_FACE('',(#173,#174),#141,.F.);
#119=ADVANCED_FACE('',(#175,#176),#101,.T.);
#120=ADVANCED_FACE('',(#177,#178),#142,.T.);
#121=ADVANCED_FACE('',(#85),#90,.F.);
#122=ADVANCED_FACE('',(#86),#91,.F.);
#123=ADVANCED_FACE('',(#87),#92,.T.);
#124=ADVANCED_FACE('',(#179,#180),#24,.T.);
#125=ADVANCED_FACE('',(#181,#182),#25,.T.);
#126=ADVANCED_FACE('',(#183,#184),#26,.T.);
#127=ADVANCED_FACE('',(#185,#186),#27,.T.);
#128=ADVANCED_FACE('',(#187,#188),#28,.T.);
#129=ADVANCED_FACE('',(#189,#190),#29,.T.);
#130=ADVANCED_FACE('',(#191,#192),#30,.T.);
#131=ADVANCED_FACE('',(#193,#194),#31,.T.);
#132=ADVANCED_FACE('',(#195,#196),#32,.T.);
#133=ADVANCED_FACE('',(#197,#198),#33,.T.);
#134=ADVANCED_FACE('',(#199,#200),#34,.T.);
#135=TOROIDAL_SURFACE('',#423,14.7500000000001,1.00000000000003);
#136=TOROIDAL_SURFACE('',#427,16.7499999999998,0.999999999999989);
#137=TOROIDAL_SURFACE('',#435,16.1499999999998,0.399999999999997);
#138=TOROIDAL_SURFACE('',#439,16.1499999999998,0.399999999999972);
#139=TOROIDAL_SURFACE('',#445,21.3,0.800000000000011);
#140=TOROIDAL_SURFACE('',#450,19.,3.);
#141=TOROIDAL_SURFACE('',#454,24.,5.);
#142=TOROIDAL_SURFACE('',#458,17.2,1.8);
#143=FACE_BOUND('',#201,.T.);
#144=FACE_BOUND('',#202,.T.);
#145=FACE_BOUND('',#203,.T.);
#146=FACE_BOUND('',#204,.T.);
#147=FACE_BOUND('',#205,.T.);
#148=FACE_BOUND('',#206,.T.);
#149=FACE_BOUND('',#207,.T.);
#150=FACE_BOUND('',#208,.T.);
#151=FACE_BOUND('',#209,.T.);
#152=FACE_BOUND('',#210,.T.);
#153=FACE_BOUND('',#211,.T.);
#154=FACE_BOUND('',#212,.T.);
#155=FACE_BOUND('',#213,.T.);
#156=FACE_BOUND('',#214,.T.);
#157=FACE_BOUND('',#215,.T.);
#158=FACE_BOUND('',#216,.T.);
#159=FACE_BOUND('',#217,.T.);
#160=FACE_BOUND('',#218,.T.);
#161=FACE_BOUND('',#219,.T.);
#162=FACE_BOUND('',#220,.T.);
#163=FACE_BOUND('',#221,.T.);
#164=FACE_BOUND('',#222,.T.);
#165=FACE_BOUND('',#223,.T.);
#166=FACE_BOUND('',#224,.T.);
#167=FACE_BOUND('',#226,.T.);
#168=FACE_BOUND('',#227,.T.);
#169=FACE_BOUND('',#228,.T.);
#170=FACE_BOUND('',#229,.T.);
#171=FACE_BOUND('',#230,.T.);
#172=FACE_BOUND('',#231,.T.);
#173=FACE_BOUND('',#232,.T.);
#174=FACE_BOUND('',#233,.T.);
#175=FACE_BOUND('',#234,.T.);
#176=FACE_BOUND('',#235,.T.);
#177=FACE_BOUND('',#236,.T.);
#178=FACE_BOUND('',#237,.T.);
#179=FACE_BOUND('',#241,.T.);
#180=FACE_BOUND('',#242,.T.);
#181=FACE_BOUND('',#243,.T.);
#182=FACE_BOUND('',#244,.T.);
#183=FACE_BOUND('',#245,.T.);
#184=FACE_BOUND('',#246,.T.);
#185=FACE_BOUND('',#247,.T.);
#186=FACE_BOUND('',#248,.T.);
#187=FACE_BOUND('',#249,.T.);
#188=FACE_BOUND('',#250,.T.);
#189=FACE_BOUND('',#251,.T.);
#190=FACE_BOUND('',#252,.T.);
#191=FACE_BOUND('',#253,.T.);
#192=FACE_BOUND('',#254,.T.);
#193=FACE_BOUND('',#255,.T.);
#194=FACE_BOUND('',#256,.T.);
#195=FACE_BOUND('',#257,.T.);
#196=FACE_BOUND('',#258,.T.);
#197=FACE_BOUND('',#259,.T.);
#198=FACE_BOUND('',#260,.T.);
#199=FACE_BOUND('',#261,.T.);
#200=FACE_BOUND('',#262,.T.);
#201=EDGE_LOOP('',(#263));
#202=EDGE_LOOP('',(#264));
#203=EDGE_LOOP('',(#265));
#204=EDGE_LOOP('',(#266));
#205=EDGE_LOOP('',(#267));
#206=EDGE_LOOP('',(#268));
#207=EDGE_LOOP('',(#269));
#208=EDGE_LOOP('',(#270));
#209=EDGE_LOOP('',(#271));
#210=EDGE_LOOP('',(#272));
#211=EDGE_LOOP('',(#273));
#212=EDGE_LOOP('',(#274));
#213=EDGE_LOOP('',(#275));
#214=EDGE_LOOP('',(#276));
#215=EDGE_LOOP('',(#277));
#216=EDGE_LOOP('',(#278));
#217=EDGE_LOOP('',(#279));
#218=EDGE_LOOP('',(#280));
#219=EDGE_LOOP('',(#281));
#220=EDGE_LOOP('',(#282));
#221=EDGE_LOOP('',(#283));
#222=EDGE_LOOP('',(#284));
#223=EDGE_LOOP('',(#285));
#224=EDGE_LOOP('',(#286));
#225=EDGE_LOOP('',(#287));
#226=EDGE_LOOP('',(#288));
#227=EDGE_LOOP('',(#289));
#228=EDGE_LOOP('',(#290));
#229=EDGE_LOOP('',(#291));
#230=EDGE_LOOP('',(#292));
#231=EDGE_LOOP('',(#293));
#232=EDGE_LOOP('',(#294));
#233=EDGE_LOOP('',(#295));
#234=EDGE_LOOP('',(#296));
#235=EDGE_LOOP('',(#297));
#236=EDGE_LOOP('',(#298));
#237=EDGE_LOOP('',(#299));
#238=EDGE_LOOP('',(#300));
#239=EDGE_LOOP('',(#301));
#240=EDGE_LOOP('',(#302));
#241=EDGE_LOOP('',(#303));
#242=EDGE_LOOP('',(#304));
#243=EDGE_LOOP('',(#305));
#244=EDGE_LOOP('',(#306));
#245=EDGE_LOOP('',(#307));
#246=EDGE_LOOP('',(#308));
#247=EDGE_LOOP('',(#309));
#248=EDGE_LOOP('',(#310));
#249=EDGE_LOOP('',(#311));
#250=EDGE_LOOP('',(#312));
#251=EDGE_LOOP('',(#313));
#252=EDGE_LOOP('',(#314));
#253=EDGE_LOOP('',(#315));
#254=EDGE_LOOP('',(#316));
#255=EDGE_LOOP('',(#317));
#256=EDGE_LOOP('',(#318));
#257=EDGE_LOOP('',(#319));
#258=EDGE_LOOP('',(#320));
#259=EDGE_LOOP('',(#321));
#260=EDGE_LOOP('',(#322));
#261=EDGE_LOOP('',(#323));
#262=EDGE_LOOP('',(#324));
#263=ORIENTED_EDGE('',*,*,#356,.T.);
#264=ORIENTED_EDGE('',*,*,#357,.T.);
#265=ORIENTED_EDGE('',*,*,#358,.T.);
#266=ORIENTED_EDGE('',*,*,#356,.F.);
#267=ORIENTED_EDGE('',*,*,#359,.T.);
#268=ORIENTED_EDGE('',*,*,#358,.F.);
#269=ORIENTED_EDGE('',*,*,#360,.T.);
#270=ORIENTED_EDGE('',*,*,#359,.F.);
#271=ORIENTED_EDGE('',*,*,#361,.T.);
#272=ORIENTED_EDGE('',*,*,#360,.F.);
#273=ORIENTED_EDGE('',*,*,#362,.T.);
#274=ORIENTED_EDGE('',*,*,#361,.F.);
#275=ORIENTED_EDGE('',*,*,#363,.T.);
#276=ORIENTED_EDGE('',*,*,#362,.F.);
#277=ORIENTED_EDGE('',*,*,#364,.T.);
#278=ORIENTED_EDGE('',*,*,#363,.F.);
#279=ORIENTED_EDGE('',*,*,#365,.T.);
#280=ORIENTED_EDGE('',*,*,#364,.F.);
#281=ORIENTED_EDGE('',*,*,#366,.T.);
#282=ORIENTED_EDGE('',*,*,#365,.F.);
#283=ORIENTED_EDGE('',*,*,#367,.T.);
#284=ORIENTED_EDGE('',*,*,#366,.F.);
#285=ORIENTED_EDGE('',*,*,#368,.T.);
#286=ORIENTED_EDGE('',*,*,#367,.F.);
#287=ORIENTED_EDGE('',*,*,#357,.F.);
#288=ORIENTED_EDGE('',*,*,#369,.T.);
#289=ORIENTED_EDGE('',*,*,#368,.F.);
#290=ORIENTED_EDGE('',*,*,#370,.T.);
#291=ORIENTED_EDGE('',*,*,#369,.F.);
#292=ORIENTED_EDGE('',*,*,#371,.T.);
#293=ORIENTED_EDGE('',*,*,#370,.F.);
#294=ORIENTED_EDGE('',*,*,#372,.T.);
#295=ORIENTED_EDGE('',*,*,#371,.F.);
#296=ORIENTED_EDGE('',*,*,#372,.F.);
#297=ORIENTED_EDGE('',*,*,#373,.T.);
#298=ORIENTED_EDGE('',*,*,#374,.T.);
#299=ORIENTED_EDGE('',*,*,#373,.F.);
#300=ORIENTED_EDGE('',*,*,#374,.F.);
#301=ORIENTED_EDGE('',*,*,#375,.F.);
#302=ORIENTED_EDGE('',*,*,#376,.T.);
#303=ORIENTED_EDGE('',*,*,#377,.T.);
#304=ORIENTED_EDGE('',*,*,#378,.F.);
#305=ORIENTED_EDGE('',*,*,#379,.F.);
#306=ORIENTED_EDGE('',*,*,#380,.F.);
#307=ORIENTED_EDGE('',*,*,#381,.F.);
#308=ORIENTED_EDGE('',*,*,#379,.T.);
#309=ORIENTED_EDGE('',*,*,#382,.F.);
#310=ORIENTED_EDGE('',*,*,#381,.T.);
#311=ORIENTED_EDGE('',*,*,#383,.F.);
#312=ORIENTED_EDGE('',*,*,#382,.T.);
#313=ORIENTED_EDGE('',*,*,#384,.F.);
#314=ORIENTED_EDGE('',*,*,#383,.T.);
#315=ORIENTED_EDGE('',*,*,#377,.F.);
#316=ORIENTED_EDGE('',*,*,#384,.T.);
#317=ORIENTED_EDGE('',*,*,#385,.F.);
#318=ORIENTED_EDGE('',*,*,#378,.T.);
#319=ORIENTED_EDGE('',*,*,#386,.T.);
#320=ORIENTED_EDGE('',*,*,#380,.T.);
#321=ORIENTED_EDGE('',*,*,#386,.F.);
#322=ORIENTED_EDGE('',*,*,#375,.T.);
#323=ORIENTED_EDGE('',*,*,#376,.F.);
#324=ORIENTED_EDGE('',*,*,#385,.T.);
#325=VERTEX_POINT('',#610);
#326=VERTEX_POINT('',#612);
#327=VERTEX_POINT('',#615);
#328=VERTEX_POINT('',#618);
#329=VERTEX_POINT('',#621);
#330=VERTEX_POINT('',#624);
#331=VERTEX_POINT('',#627);
#332=VERTEX_POINT('',#630);
#333=VERTEX_POINT('',#633);
#334=VERTEX_POINT('',#636);
#335=VERTEX_POINT('',#639);
#336=VERTEX_POINT('',#642);
#337=VERTEX_POINT('',#645);
#338=VERTEX_POINT('',#649);
#339=VERTEX_POINT('',#652);
#340=VERTEX_POINT('',#655);
#341=VERTEX_POINT('',#658);
#342=VERTEX_POINT('',#661);
#343=VERTEX_POINT('',#664);
#344=VERTEX_POINT('',#668);
#345=VERTEX_POINT('',#671);
#346=VERTEX_POINT('',#674);
#347=VERTEX_POINT('',#676);
#348=VERTEX_POINT('',#680);
#349=VERTEX_POINT('',#682);
#350=VERTEX_POINT('',#686);
#351=VERTEX_POINT('',#690);
#352=VERTEX_POINT('',#694);
#353=VERTEX_POINT('',#698);
#354=VERTEX_POINT('',#704);
#355=VERTEX_POINT('',#708);
#356=EDGE_CURVE('',#325,#325,#387,.T.);
#357=EDGE_CURVE('',#326,#326,#388,.T.);
#358=EDGE_CURVE('',#327,#327,#389,.T.);
#359=EDGE_CURVE('',#328,#328,#390,.T.);
#360=EDGE_CURVE('',#329,#329,#391,.T.);
#361=EDGE_CURVE('',#330,#330,#392,.T.);
#362=EDGE_CURVE('',#331,#331,#393,.T.);
#363=EDGE_CURVE('',#332,#332,#394,.T.);
#364=EDGE_CURVE('',#333,#333,#395,.T.);
#365=EDGE_CURVE('',#334,#334,#396,.T.);
#366=EDGE_CURVE('',#335,#335,#397,.T.);
#367=EDGE_CURVE('',#336,#336,#398,.T.);
#368=EDGE_CURVE('',#337,#337,#399,.T.);
#369=EDGE_CURVE('',#338,#338,#400,.T.);
#370=EDGE_CURVE('',#339,#339,#401,.T.);
#371=EDGE_CURVE('',#340,#340,#402,.T.);
#372=EDGE_CURVE('',#341,#341,#403,.T.);
#373=EDGE_CURVE('',#342,#342,#404,.T.);
#374=EDGE_CURVE('',#343,#343,#405,.T.);
#375=EDGE_CURVE('',#344,#344,#406,.T.);
#376=EDGE_CURVE('',#345,#345,#407,.T.);
#377=EDGE_CURVE('',#346,#346,#408,.T.);
#378=EDGE_CURVE('',#347,#347,#409,.T.);
#379=EDGE_CURVE('',#348,#348,#410,.T.);
#380=EDGE_CURVE('',#349,#349,#411,.T.);
#381=EDGE_CURVE('',#350,#350,#412,.T.);
#382=EDGE_CURVE('',#351,#351,#413,.T.);
#383=EDGE_CURVE('',#352,#352,#415,.T.);
#384=EDGE_CURVE('',#353,#353,#416,.T.);
#385=EDGE_CURVE('',#354,#354,#418,.T.);
#386=EDGE_CURVE('',#355,#355,#419,.T.);
#387=CIRCLE('',#421,15.7500000000001);
#388=CIRCLE('',#422,14.7500000000001);
#389=CIRCLE('',#424,15.7499999999998);
#390=CIRCLE('',#426,15.8103073792139);
#391=CIRCLE('',#428,16.);
#392=CIRCLE('',#430,16.);
#393=CIRCLE('',#432,15.7636296694841);
#394=CIRCLE('',#434,15.7499999999998);
#395=CIRCLE('',#436,15.7499999999998);
#396=CIRCLE('',#438,16.2056692403838);
#397=CIRCLE('',#440,17.);
#398=CIRCLE('',#442,21.3);
#399=CIRCLE('',#444,22.);
#400=CIRCLE('',#447,22.);
#401=CIRCLE('',#449,21.9543506764538);
#402=CIRCLE('',#451,19.0760822059103);
#403=CIRCLE('',#453,19.);
#404=CIRCLE('',#455,19.);
#405=CIRCLE('',#457,17.2);
#406=CIRCLE('',#460,0.100000000000002);
#407=CIRCLE('',#462,5.48443435091315);
#408=CIRCLE('',#464,12.8419664933359);
#409=CIRCLE('',#465,9.31904040113344);
#410=CIRCLE('',#466,13.3588134122625);
#411=CIRCLE('',#467,9.09661531374428);
#412=CIRCLE('',#468,18.8332187740955);
#413=CIRCLE('',#469,19.4538920632294);
#414=CIRCLE('',#470,0.800000000000003);
#415=CIRCLE('',#471,17.597204105378);
#416=CIRCLE('',#472,14.0641986242598);
#417=CIRCLE('',#473,0.800000000000003);
#418=CIRCLE('',#474,9.29475019777774);
#419=CIRCLE('',#475,5.52437513559382);
#420=AXIS2_PLACEMENT_3D('',#608,#476,#477);
#421=AXIS2_PLACEMENT_3D('',#609,#478,#479);
#422=AXIS2_PLACEMENT_3D('',#611,#480,#481);
#423=AXIS2_PLACEMENT_3D('',#613,#482,#483);
#424=AXIS2_PLACEMENT_3D('',#614,#484,#485);
#425=AXIS2_PLACEMENT_3D('',#616,#486,#487);
#426=AXIS2_PLACEMENT_3D('',#617,#488,#489);
#427=AXIS2_PLACEMENT_3D('',#619,#490,#491);
#428=AXIS2_PLACEMENT_3D('',#620,#492,#493);
#429=AXIS2_PLACEMENT_3D('',#622,#494,#495);
#430=AXIS2_PLACEMENT_3D('',#623,#496,#497);
#431=AXIS2_PLACEMENT_3D('',#625,#498,#499);
#432=AXIS2_PLACEMENT_3D('',#626,#500,#501);
#433=AXIS2_PLACEMENT_3D('',#628,#502,#503);
#434=AXIS2_PLACEMENT_3D('',#629,#504,#505);
#435=AXIS2_PLACEMENT_3D('',#631,#506,#507);
#436=AXIS2_PLACEMENT_3D('',#632,#508,#509);
#437=AXIS2_PLACEMENT_3D('',#634,#510,#511);
#438=AXIS2_PLACEMENT_3D('',#635,#512,#513);
#439=AXIS2_PLACEMENT_3D('',#637,#514,#515);
#440=AXIS2_PLACEMENT_3D('',#638,#516,#517);
#441=AXIS2_PLACEMENT_3D('',#640,#518,#519);
#442=AXIS2_PLACEMENT_3D('',#641,#520,#521);
#443=AXIS2_PLACEMENT_3D('',#643,#522,#523);
#444=AXIS2_PLACEMENT_3D('',#644,#524,#525);
#445=AXIS2_PLACEMENT_3D('',#646,#526,#527);
#446=AXIS2_PLACEMENT_3D('',#647,#528,#529);
#447=AXIS2_PLACEMENT_3D('',#648,#530,#531);
#448=AXIS2_PLACEMENT_3D('',#650,#532,#533);
#449=AXIS2_PLACEMENT_3D('',#651,#534,#535);
#450=AXIS2_PLACEMENT_3D('',#653,#536,#537);
#451=AXIS2_PLACEMENT_3D('',#654,#538,#539);
#452=AXIS2_PLACEMENT_3D('',#656,#540,#541);
#453=AXIS2_PLACEMENT_3D('',#657,#542,#543);
#454=AXIS2_PLACEMENT_3D('',#659,#544,#545);
#455=AXIS2_PLACEMENT_3D('',#660,#546,#547);
#456=AXIS2_PLACEMENT_3D('',#662,#548,#549);
#457=AXIS2_PLACEMENT_3D('',#663,#550,#551);
#458=AXIS2_PLACEMENT_3D('',#665,#552,#553);
#459=AXIS2_PLACEMENT_3D('',#666,#554,#555);
#460=AXIS2_PLACEMENT_3D('',#667,#556,#557);
#461=AXIS2_PLACEMENT_3D('',#669,#558,#559);
#462=AXIS2_PLACEMENT_3D('',#670,#560,#561);
#463=AXIS2_PLACEMENT_3D('',#672,#562,#563);
#464=AXIS2_PLACEMENT_3D('',#673,#564,#565);
#465=AXIS2_PLACEMENT_3D('',#675,#566,#567);
#466=AXIS2_PLACEMENT_3D('',#679,#570,#571);
#467=AXIS2_PLACEMENT_3D('',#681,#572,#573);
#468=AXIS2_PLACEMENT_3D('',#685,#576,#577);
#469=AXIS2_PLACEMENT_3D('',#689,#580,#581);
#470=AXIS2_PLACEMENT_3D('',#691,#582,#583);
#471=AXIS2_PLACEMENT_3D('',#693,#585,#586);
#472=AXIS2_PLACEMENT_3D('',#697,#589,#590);
#473=AXIS2_PLACEMENT_3D('',#701,#593,#594);
#474=AXIS2_PLACEMENT_3D('',#703,#596,#597);
#475=AXIS2_PLACEMENT_3D('',#707,#600,#601);
#476=DIRECTION('',(0.,0.,1.));
#477=DIRECTION('',(1.,0.,0.));
#478=DIRECTION('',(1.,0.,0.));
#479=DIRECTION('',(0.,0.,1.));
#480=DIRECTION('',(-1.,0.,0.));
#481=DIRECTION('',(0.,0.,1.));
#482=DIRECTION('',(-1.,0.,0.));
#483=DIRECTION('',(0.,0.,1.));
#484=DIRECTION('',(1.,0.,0.));
#485=DIRECTION('',(0.,0.,1.));
#486=DIRECTION('',(-1.,0.,0.));
#487=DIRECTION('',(0.,0.,1.));
#488=DIRECTION('',(1.,0.,0.));
#489=DIRECTION('',(0.,0.,1.));
#490=DIRECTION('',(-1.,0.,0.));
#491=DIRECTION('',(0.,0.,1.));
#492=DIRECTION('',(1.,0.,0.));
#493=DIRECTION('',(0.,0.,1.));
#494=DIRECTION('',(-1.,0.,0.));
#495=DIRECTION('',(7.30831956144419E-17,0.,1.));
#496=DIRECTION('',(1.,0.,0.));
#497=DIRECTION('',(0.,0.,1.));
#498=DIRECTION('',(-1.,0.,0.));
#499=DIRECTION('',(0.,0.,1.));
#500=DIRECTION('',(1.,0.,0.));
#501=DIRECTION('',(0.,0.,1.));
#502=DIRECTION('',(1.,0.,0.));
#503=DIRECTION('',(1.95496774461576E-16,0.,-1.));
#504=DIRECTION('',(1.,0.,0.));
#505=DIRECTION('',(0.,0.,1.));
#506=DIRECTION('',(-1.,0.,0.));
#507=DIRECTION('',(0.,0.,1.));
#508=DIRECTION('',(1.,0.,0.));
#509=DIRECTION('',(0.,0.,1.));
#510=DIRECTION('',(-1.,0.,0.));
#511=DIRECTION('',(0.,0.,1.));
#512=DIRECTION('',(1.,0.,0.));
#513=DIRECTION('',(0.,0.,1.));
#514=DIRECTION('',(-1.,0.,0.));
#515=DIRECTION('',(0.,0.,1.));
#516=DIRECTION('',(1.,0.,0.));
#517=DIRECTION('',(0.,0.,1.));
#518=DIRECTION('',(1.,0.,0.));
#519=DIRECTION('',(3.89192767256127E-18,0.,-1.));
#520=DIRECTION('',(1.,0.,0.));
#521=DIRECTION('',(0.,0.,1.));
#522=DIRECTION('',(-1.,0.,0.));
#523=DIRECTION('',(0.,0.,1.));
#524=DIRECTION('',(1.,0.,0.));
#525=DIRECTION('',(0.,0.,1.));
#526=DIRECTION('',(-1.,0.,0.));
#527=DIRECTION('',(0.,0.,1.));
#528=DIRECTION('',(-1.,0.,0.));
#529=DIRECTION('',(0.,0.,1.));
#530=DIRECTION('',(1.,0.,0.));
#531=DIRECTION('',(0.,0.,1.));
#532=DIRECTION('',(-1.,0.,0.));
#533=DIRECTION('',(0.,0.,1.));
#534=DIRECTION('',(1.,0.,0.));
#535=DIRECTION('',(0.,0.,1.));
#536=DIRECTION('',(-1.,0.,0.));
#537=DIRECTION('',(0.,0.,1.));
#538=DIRECTION('',(1.,0.,0.));
#539=DIRECTION('',(0.,0.,1.));
#540=DIRECTION('',(1.,0.,0.));
#541=DIRECTION('',(2.7975894328458E-16,0.,-1.));
#542=DIRECTION('',(1.,0.,0.));
#543=DIRECTION('',(0.,0.,1.));
#544=DIRECTION('',(-1.,0.,0.));
#545=DIRECTION('',(0.,0.,1.));
#546=DIRECTION('',(1.,0.,0.));
#547=DIRECTION('',(0.,0.,-1.));
#548=DIRECTION('',(-1.,0.,0.));
#549=DIRECTION('',(0.,0.,1.));
#550=DIRECTION('',(1.,0.,0.));
#551=DIRECTION('',(0.,0.,-1.));
#552=DIRECTION('',(1.,0.,0.));
#553=DIRECTION('',(0.,0.,-1.));
#554=DIRECTION('',(1.,0.,0.));
#555=DIRECTION('',(0.,0.,-1.));
#556=DIRECTION('',(1.,0.,0.));
#557=DIRECTION('',(0.,0.,-1.));
#558=DIRECTION('',(1.,0.,0.));
#559=DIRECTION('',(0.,0.,-1.));
#560=DIRECTION('',(1.,0.,0.));
#561=DIRECTION('',(0.,0.,-1.));
#562=DIRECTION('',(1.,0.,0.));
#563=DIRECTION('',(0.,0.,-1.));
#564=DIRECTION('',(1.,0.,0.));
#565=DIRECTION('',(0.,0.,-1.));
#566=DIRECTION('',(1.,0.,0.));
#567=DIRECTION('',(0.,0.,-1.));
#568=DIRECTION('',(-0.760745911552607,0.6490498116909,2.339129258637E-16));
#569=DIRECTION('',(1.,0.,0.));
#570=DIRECTION('',(1.,0.,0.));
#571=DIRECTION('',(0.,0.,-1.));
#572=DIRECTION('',(-1.,0.,0.));
#573=DIRECTION('',(0.,0.,-1.));
#574=DIRECTION('',(-0.181720669469518,-0.983350191075158,-4.28840364083447E-16));
#575=DIRECTION('',(1.,0.,0.));
#576=DIRECTION('',(1.,0.,0.));
#577=DIRECTION('',(0.,0.,-1.));
#578=DIRECTION('',(0.165564001146067,-0.986199047618941,-1.94927438219749E-16));
#579=DIRECTION('',(1.,0.,0.));
#580=DIRECTION('',(1.,0.,0.));
#581=DIRECTION('',(0.,0.,-1.));
#582=DIRECTION('',(-2.04755498844022E-17,-5.15466656965442E-17,1.));
#583=DIRECTION('',(0.942466581022128,0.334300379384261,3.6529591392449E-17));
#584=DIRECTION('',(1.,0.,0.));
#585=DIRECTION('',(1.,0.,0.));
#586=DIRECTION('',(0.,0.,-1.));
#587=DIRECTION('',(0.942466581022129,0.334300379384258,1.55941950575799E-16));
#588=DIRECTION('',(1.,0.,0.));
#589=DIRECTION('',(1.,0.,0.));
#590=DIRECTION('',(0.,0.,-1.));
#591=DIRECTION('',(0.771291427852985,0.636482154754164,7.79709752878997E-17));
#592=DIRECTION('',(1.,0.,0.));
#593=DIRECTION('',(-2.04755498844022E-17,-5.15466656965442E-17,1.));
#594=DIRECTION('',(0.942466581022128,0.334300379384261,3.6529591392449E-17));
#595=DIRECTION('',(1.,0.,0.));
#596=DIRECTION('',(1.,0.,0.));
#597=DIRECTION('',(0.,0.,-1.));
#598=DIRECTION('',(0.918825654550337,-0.394122802371994,-0.0206551008371251));
#599=DIRECTION('',(1.,0.,0.));
#600=DIRECTION('',(1.,0.,0.));
#601=DIRECTION('',(0.,0.,-1.));
#602=DIRECTION('',(0.229115446685139,0.972065246410782,0.0509437808826114));
#603=DIRECTION('',(1.,0.,0.));
#604=DIRECTION('',(-0.117624058581536,0.991697244356274,0.0519726502978238));
#605=DIRECTION('',(1.,0.,0.));
#606=DIRECTION('',(0.728430760604692,-0.684180492998034,-0.0358563802668033));
#607=DIRECTION('',(1.,0.,0.));
#608=CARTESIAN_POINT('',(0.,0.,0.));
#609=CARTESIAN_POINT('',(242.,0.,0.));
#610=CARTESIAN_POINT('',(242.,0.,15.7500000000001));
#611=CARTESIAN_POINT('',(243.,0.,0.));
#612=CARTESIAN_POINT('',(243.,0.,14.7500000000001));
#613=CARTESIAN_POINT('',(242.,0.,0.));
#614=CARTESIAN_POINT('',(240.176326980708,0.,0.));
#615=CARTESIAN_POINT('',(240.176326980708,0.,15.7499999999998));
#616=CARTESIAN_POINT('',(0.,0.,0.));
#617=CARTESIAN_POINT('',(239.834306837383,0.,0.));
#618=CARTESIAN_POINT('',(239.834306837383,0.,15.8103073792139));
#619=CARTESIAN_POINT('',(240.176326980708,0.,0.));
#620=CARTESIAN_POINT('',(239.313130645136,0.,0.));
#621=CARTESIAN_POINT('',(239.313130645136,0.,16.));
#622=CARTESIAN_POINT('',(239.834306837383,0.,0.));
#623=CARTESIAN_POINT('',(185.,0.,0.));
#624=CARTESIAN_POINT('',(185.,0.,16.));
#625=CARTESIAN_POINT('',(0.,0.,0.));
#626=CARTESIAN_POINT('',(184.117853917113,0.,0.));
#627=CARTESIAN_POINT('',(184.117853917113,0.,15.7636296694841));
#628=CARTESIAN_POINT('',(185.,0.,0.));
#629=CARTESIAN_POINT('',(184.014326299072,0.,0.));
#630=CARTESIAN_POINT('',(184.014326299072,0.,15.7499999999998));
#631=CARTESIAN_POINT('',(184.014326299072,0.,0.));
#632=CARTESIAN_POINT('',(183.28447131951,0.,0.));
#633=CARTESIAN_POINT('',(183.28447131951,0.,15.7499999999998));
#634=CARTESIAN_POINT('',(0.,0.,0.));
#635=CARTESIAN_POINT('',(182.888364092014,0.,0.));
#636=CARTESIAN_POINT('',(182.888364092014,0.,16.2056692403838));
#637=CARTESIAN_POINT('',(183.28447131951,0.,0.));
#638=CARTESIAN_POINT('',(183.,0.,0.));
#639=CARTESIAN_POINT('',(183.,0.,17.));
#640=CARTESIAN_POINT('',(182.888364092014,0.,0.));
#641=CARTESIAN_POINT('',(183.,0.,0.));
#642=CARTESIAN_POINT('',(183.,0.,21.3));
#643=CARTESIAN_POINT('',(183.,17.,0.));
#644=CARTESIAN_POINT('',(182.587298334621,0.,0.));
#645=CARTESIAN_POINT('',(182.587298334621,0.,22.));
#646=CARTESIAN_POINT('',(182.2,0.,0.));
#647=CARTESIAN_POINT('',(243.,22.5,0.));
#648=CARTESIAN_POINT('',(178.262676501632,0.,0.));
#649=CARTESIAN_POINT('',(178.262676501632,0.,22.));
#650=CARTESIAN_POINT('',(0.,0.,0.));
#651=CARTESIAN_POINT('',(177.741320499905,0.,0.));
#652=CARTESIAN_POINT('',(177.741320499905,0.,21.9543506764538));
#653=CARTESIAN_POINT('',(178.262676501632,0.,0.));
#654=CARTESIAN_POINT('',(161.431132500158,0.,0.));
#655=CARTESIAN_POINT('',(161.431132500158,0.,19.0760822059103));
#656=CARTESIAN_POINT('',(177.741320499905,0.,0.));
#657=CARTESIAN_POINT('',(160.562205830613,0.,0.));
#658=CARTESIAN_POINT('',(160.562205830613,0.,19.));
#659=CARTESIAN_POINT('',(160.562205830613,0.,0.));
#660=CARTESIAN_POINT('',(3.1,0.,0.));
#661=CARTESIAN_POINT('',(3.1,0.,-19.));
#662=CARTESIAN_POINT('',(0.,0.,0.));
#663=CARTESIAN_POINT('',(1.3,0.,0.));
#664=CARTESIAN_POINT('',(1.3,0.,-17.2));
#665=CARTESIAN_POINT('',(3.1,0.,0.));
#666=CARTESIAN_POINT('',(1.3,16.8097122105092,0.));
#667=CARTESIAN_POINT('',(0.654234524474148,0.,0.));
#668=CARTESIAN_POINT('',(0.654234524474148,0.,-0.100000000000002));
#669=CARTESIAN_POINT('',(0.654234524474148,0.,0.));
#670=CARTESIAN_POINT('',(11.5309823571882,0.,0.));
#671=CARTESIAN_POINT('',(11.5309823571882,0.,-5.48443435091315));
#672=CARTESIAN_POINT('',(11.5309823571882,0.,0.));
#673=CARTESIAN_POINT('',(11.569394641874,0.,0.));
#674=CARTESIAN_POINT('',(11.569394641874,0.,-12.8419664933359));
#675=CARTESIAN_POINT('',(7.42283771813749,0.,0.));
#676=CARTESIAN_POINT('',(7.42283771813749,0.,-9.31904040113344));
#677=CARTESIAN_POINT('',(11.569394641874,-12.8029724445522,1.));
#678=CARTESIAN_POINT('',(3.1,0.,0.));
#679=CARTESIAN_POINT('',(0.0500000000000114,0.,0.));
#680=CARTESIAN_POINT('',(0.0500000000000114,0.,-13.3588134122625));
#681=CARTESIAN_POINT('',(0.840905563984043,0.,0.));
#682=CARTESIAN_POINT('',(0.840905563984043,0.,-9.09661531374428));
#683=CARTESIAN_POINT('',(0.840905563984043,-9.04148274157768,1.));
#684=CARTESIAN_POINT('',(3.1,0.,0.));
#685=CARTESIAN_POINT('',(0.97088036126345,0.,0.));
#686=CARTESIAN_POINT('',(0.97088036126345,0.,-18.8332187740955));
#687=CARTESIAN_POINT('',(0.0500000000000113,-13.3213323576752,1.));
#688=CARTESIAN_POINT('',(3.1,0.,0.));
#689=CARTESIAN_POINT('',(2.02727990286604,0.,0.));
#690=CARTESIAN_POINT('',(2.02727990286604,0.,-19.4538920632294));
#691=CARTESIAN_POINT('',(1.75983959935863,-18.6742,1.));
#692=CARTESIAN_POINT('',(3.1,0.,0.));
#693=CARTESIAN_POINT('',(7.2693552308516,0.,0.));
#694=CARTESIAN_POINT('',(7.2693552308516,0.,-17.597204105378));
#695=CARTESIAN_POINT('',(2.027279902866,-19.4281732648176,0.999999999999999));
#696=CARTESIAN_POINT('',(3.1,0.,0.));
#697=CARTESIAN_POINT('',(11.5593405163245,0.,0.));
#698=CARTESIAN_POINT('',(11.5593405163245,0.,-14.0641986242598));
#699=CARTESIAN_POINT('',(7.2693552308516,-17.5687675243977,1.));
#700=CARTESIAN_POINT('',(3.1,0.,0.));
#701=CARTESIAN_POINT('',(11.0501547925213,-13.4115691737943,1.));
#702=CARTESIAN_POINT('',(3.1,0.,0.));
#703=CARTESIAN_POINT('',(7.47939156850438,0.,0.));
#704=CARTESIAN_POINT('',(7.47939156850438,0.,-9.29475019777774));
#705=CARTESIAN_POINT('',(7.42283771813749,9.30049956846839,0.587555763206106));
#706=CARTESIAN_POINT('',(3.1,0.,0.));
#707=CARTESIAN_POINT('',(-9.10729824887824E-15,0.,0.));
#708=CARTESIAN_POINT('',(-9.10729824887824E-15,0.,-5.52437513559382));
#709=CARTESIAN_POINT('',(-6.43665995258427E-15,5.510666662434,0.388939036747048));
#710=CARTESIAN_POINT('',(3.1,0.,0.));
#711=CARTESIAN_POINT('',(0.654234524474148,-0.00523359562430497,0.0998629534754586));
#712=CARTESIAN_POINT('',(3.1,0.,0.));
#713=CARTESIAN_POINT('',(7.47939156850438,9.27624125364975,0.586284438797312));
#714=CARTESIAN_POINT('',(3.1,0.,0.));
#715=(
GEOMETRIC_REPRESENTATION_CONTEXT(3)
GLOBAL_UNCERTAINTY_ASSIGNED_CONTEXT((#716))
GLOBAL_UNIT_ASSIGNED_CONTEXT((#722,#718,#717))
REPRESENTATION_CONTEXT('ATUM-39XD4-WCM-06T308-light',
'TOP_LEVEL_ASSEMBLY_PART')
);
#716=UNCERTAINTY_MEASURE_WITH_UNIT(LENGTH_MEASURE(2.E-5),#722,
'DISTANCE_ACCURACY_VALUE','Maximum Tolerance applied to model');
#717=(
NAMED_UNIT(*)
SI_UNIT($,.STERADIAN.)
SOLID_ANGLE_UNIT()
);
#718=(
CONVERSION_BASED_UNIT('DEGREE',#720)
NAMED_UNIT(#719)
PLANE_ANGLE_UNIT()
);
#719=DIMENSIONAL_EXPONENTS(0.,0.,0.,0.,0.,0.,0.);
#720=PLANE_ANGLE_MEASURE_WITH_UNIT(PLANE_ANGLE_MEASURE(0.0174532925),#721);
#721=(
NAMED_UNIT(*)
PLANE_ANGLE_UNIT()
SI_UNIT($,.RADIAN.)
);
#722=(
LENGTH_UNIT()
NAMED_UNIT(*)
SI_UNIT(.MILLI.,.METRE.)
);
ENDSEC;
END-ISO-10303-21;
