ISO-10303-21;
HEADER;
/* Generated by software containing ST-Developer
 * from STEP Tools, Inc. (www.steptools.com) 
 */
/* OPTION: using custom schema-name function */

FILE_DESCRIPTION(
/* description */ (''),
/* implementation_level */ '2;1');

FILE_NAME(
/* name */ 'ATUM-40XD4-SP-110408-light.stp',
/* time_stamp */ '2023-10-14T20:50:28+03:00',
/* author */ (''),
/* organization */ (''),
/* preprocessor_version */ 'ST-DEVELOPER v19.4',
/* originating_system */ 'SIEMENS PLM Software NX2306.3001',
/* authorisation */ '');

FILE_SCHEMA (('AUTOMOTIVE_DESIGN { 1 0 10303 214 3 1 1 1 }'));
ENDSEC;

DATA;
#10=SHAPE_REPRESENTATION_RELATIONSHIP('None',
'relationship between STP_ATUM 34XD4 SP.. 110408-None and STP_ATUM 34X
D4 SP.. 110408-None',#22,#11);
#11=ADVANCED_BREP_SHAPE_REPRESENTATION(
'STP_ATUM 34XD4 SP.. 110408-None',(#68,#69),#680);
#12=SHAPE_DEFINITION_REPRESENTATION(#13,#22);
#13=PRODUCT_DEFINITION_SHAPE('','',#14);
#14=PRODUCT_DEFINITION(' ','',#16,#15);
#15=PRODUCT_DEFINITION_CONTEXT('part definition',#21,'design');
#16=PRODUCT_DEFINITION_FORMATION_WITH_SPECIFIED_SOURCE(' ',' ',#18,
 .NOT_KNOWN.);
#17=PRODUCT_RELATED_PRODUCT_CATEGORY('part','',(#18));
#18=PRODUCT('STP_ATUM 34XD4 SP.. 110408','STP_ATUM 34XD4 SP.. 110408',
' ',(#19));
#19=PRODUCT_CONTEXT(' ',#21,'mechanical');
#20=APPLICATION_PROTOCOL_DEFINITION('international standard',
'automotive_design',2010,#21);
#21=APPLICATION_CONTEXT(
'core data for automotive mechanical design processes');
#22=SHAPE_REPRESENTATION('STP_ATUM 34XD4 SP.. 110408-None',(#387),#680);
#23=DRAUGHTING_PRE_DEFINED_COLOUR('yellow');
#24=B_SPLINE_CURVE_WITH_KNOTS('',3,(#638,#639,#640,#641,#642,#643,#644),
 .UNSPECIFIED.,.F.,.F.,(4,1,1,1,4),(0.,0.25,0.5,0.75,1.),.UNSPECIFIED.);
#25=B_SPLINE_CURVE_WITH_KNOTS('',3,(#650,#651,#652,#653,#654,#655,#656),
 .UNSPECIFIED.,.F.,.F.,(4,1,1,1,4),(0.,0.25,0.5,0.75,1.),.UNSPECIFIED.);
#26=B_SPLINE_CURVE_WITH_KNOTS('',3,(#660,#661,#662,#663,#664,#665,#666),
 .UNSPECIFIED.,.F.,.F.,(4,1,1,1,4),(0.,0.25,0.5,0.75,1.),.UNSPECIFIED.);
#27=B_SPLINE_CURVE_WITH_KNOTS('',3,(#672,#673,#674,#675,#676,#677,#678),
 .UNSPECIFIED.,.F.,.F.,(4,1,1,1,4),(0.,0.25,0.5,0.75,1.),.UNSPECIFIED.);
#28=SURFACE_OF_REVOLUTION('',#44,#36);
#29=SURFACE_OF_REVOLUTION('',#45,#37);
#30=SURFACE_OF_REVOLUTION('',#24,#38);
#31=SURFACE_OF_REVOLUTION('',#46,#39);
#32=SURFACE_OF_REVOLUTION('',#25,#40);
#33=SURFACE_OF_REVOLUTION('',#26,#41);
#34=SURFACE_OF_REVOLUTION('',#47,#42);
#35=SURFACE_OF_REVOLUTION('',#27,#43);
#36=AXIS1_PLACEMENT('',#631,#537);
#37=AXIS1_PLACEMENT('',#635,#541);
#38=AXIS1_PLACEMENT('',#645,#544);
#39=AXIS1_PLACEMENT('',#649,#548);
#40=AXIS1_PLACEMENT('',#657,#549);
#41=AXIS1_PLACEMENT('',#667,#552);
#42=AXIS1_PLACEMENT('',#671,#556);
#43=AXIS1_PLACEMENT('',#679,#557);
#44=LINE('',#630,#48);
#45=LINE('',#634,#49);
#46=LINE('',#648,#50);
#47=LINE('',#670,#51);
#48=VECTOR('',#536,8.95969613908911);
#49=VECTOR('',#540,8.96869843431502);
#50=VECTOR('',#547,9.90608848305322);
#51=VECTOR('',#555,0.47662185312949);
#52=PRESENTATION_LAYER_ASSIGNMENT('1','Layer 1',(#68,#69));
#53=STYLED_ITEM('',(#55),#68);
#54=STYLED_ITEM('',(#56),#69);
#55=PRESENTATION_STYLE_ASSIGNMENT((#57));
#56=PRESENTATION_STYLE_ASSIGNMENT((#58));
#57=SURFACE_STYLE_USAGE(.BOTH.,#59);
#58=SURFACE_STYLE_USAGE(.BOTH.,#60);
#59=SURFACE_SIDE_STYLE('',(#61));
#60=SURFACE_SIDE_STYLE('',(#62));
#61=SURFACE_STYLE_FILL_AREA(#63);
#62=SURFACE_STYLE_FILL_AREA(#64);
#63=FILL_AREA_STYLE('',(#65));
#64=FILL_AREA_STYLE('',(#66));
#65=FILL_AREA_STYLE_COLOUR('',#67);
#66=FILL_AREA_STYLE_COLOUR('',#23);
#67=COLOUR_RGB('smoke gray',0.694117647058824,0.694117647058824,0.694117647058824);
#68=MANIFOLD_SOLID_BREP('',#70);
#69=MANIFOLD_SOLID_BREP('',#71);
#70=CLOSED_SHELL('',(#91,#92,#93,#94,#95,#96,#97,#98,#99,#100,#101,#102,
#103,#104,#105,#106,#107,#108,#109,#110,#111));
#71=CLOSED_SHELL('',(#112,#113,#114,#115,#116,#117,#118,#119,#120,#121));
#72=FACE_OUTER_BOUND('',#208,.T.);
#73=FACE_OUTER_BOUND('',#223,.T.);
#74=FACE_OUTER_BOUND('',#224,.T.);
#75=FACE_OUTER_BOUND('',#225,.T.);
#76=PLANE('',#410);
#77=PLANE('',#413);
#78=PLANE('',#428);
#79=PLANE('',#430);
#80=PLANE('',#432);
#81=CONICAL_SURFACE('',#396,15.8103073792138,20.0000000000006);
#82=CONICAL_SURFACE('',#400,16.,15.0000000000009);
#83=CONICAL_SURFACE('',#408,16.2056692403838,82.0000000000008);
#84=CONICAL_SURFACE('',#419,21.9680774060946,8.36588612403259);
#85=CONICAL_SURFACE('',#425,19.5,2.99999999999999);
#86=CYLINDRICAL_SURFACE('',#392,15.7499999999998);
#87=CYLINDRICAL_SURFACE('',#398,16.);
#88=CYLINDRICAL_SURFACE('',#404,15.7499999999997);
#89=CYLINDRICAL_SURFACE('',#415,22.);
#90=CYLINDRICAL_SURFACE('',#423,19.5);
#91=ADVANCED_FACE('',(#130,#131),#122,.T.);
#92=ADVANCED_FACE('',(#132,#133),#86,.T.);
#93=ADVANCED_FACE('',(#134,#135),#123,.F.);
#94=ADVANCED_FACE('',(#136,#137),#81,.T.);
#95=ADVANCED_FACE('',(#138,#139),#87,.T.);
#96=ADVANCED_FACE('',(#140,#141),#82,.T.);
#97=ADVANCED_FACE('',(#142,#143),#124,.F.);
#98=ADVANCED_FACE('',(#144,#145),#88,.T.);
#99=ADVANCED_FACE('',(#146,#147),#125,.F.);
#100=ADVANCED_FACE('',(#148,#149),#83,.F.);
#101=ADVANCED_FACE('',(#150,#151),#76,.F.);
#102=ADVANCED_FACE('',(#152,#153),#126,.T.);
#103=ADVANCED_FACE('',(#72),#77,.F.);
#104=ADVANCED_FACE('',(#154,#155),#89,.T.);
#105=ADVANCED_FACE('',(#156,#157),#127,.T.);
#106=ADVANCED_FACE('',(#158,#159),#84,.T.);
#107=ADVANCED_FACE('',(#160,#161),#128,.F.);
#108=ADVANCED_FACE('',(#162,#163),#90,.T.);
#109=ADVANCED_FACE('',(#164,#165),#85,.T.);
#110=ADVANCED_FACE('',(#166,#167),#129,.T.);
#111=ADVANCED_FACE('',(#73),#78,.F.);
#112=ADVANCED_FACE('',(#74),#79,.F.);
#113=ADVANCED_FACE('',(#75),#80,.T.);
#114=ADVANCED_FACE('',(#168,#169),#28,.F.);
#115=ADVANCED_FACE('',(#170,#171),#29,.F.);
#116=ADVANCED_FACE('',(#172,#173),#30,.F.);
#117=ADVANCED_FACE('',(#174,#175),#31,.F.);
#118=ADVANCED_FACE('',(#176,#177),#32,.F.);
#119=ADVANCED_FACE('',(#178,#179),#33,.F.);
#120=ADVANCED_FACE('',(#180,#181),#34,.T.);
#121=ADVANCED_FACE('',(#182,#183),#35,.T.);
#122=TOROIDAL_SURFACE('',#390,14.7499999999999,0.999999999999972);
#123=TOROIDAL_SURFACE('',#394,16.7499999999997,0.999999999999984);
#124=TOROIDAL_SURFACE('',#402,16.1499999999997,0.4);
#125=TOROIDAL_SURFACE('',#406,16.1499999999997,0.399999999999971);
#126=TOROIDAL_SURFACE('',#412,21.3,0.800000000000011);
#127=TOROIDAL_SURFACE('',#417,19.,3.);
#128=TOROIDAL_SURFACE('',#421,24.5,5.);
#129=TOROIDAL_SURFACE('',#427,17.3490180449715,1.8);
#130=FACE_BOUND('',#184,.T.);
#131=FACE_BOUND('',#185,.T.);
#132=FACE_BOUND('',#186,.T.);
#133=FACE_BOUND('',#187,.T.);
#134=FACE_BOUND('',#188,.T.);
#135=FACE_BOUND('',#189,.T.);
#136=FACE_BOUND('',#190,.T.);
#137=FACE_BOUND('',#191,.T.);
#138=FACE_BOUND('',#192,.T.);
#139=FACE_BOUND('',#193,.T.);
#140=FACE_BOUND('',#194,.T.);
#141=FACE_BOUND('',#195,.T.);
#142=FACE_BOUND('',#196,.T.);
#143=FACE_BOUND('',#197,.T.);
#144=FACE_BOUND('',#198,.T.);
#145=FACE_BOUND('',#199,.T.);
#146=FACE_BOUND('',#200,.T.);
#147=FACE_BOUND('',#201,.T.);
#148=FACE_BOUND('',#202,.T.);
#149=FACE_BOUND('',#203,.T.);
#150=FACE_BOUND('',#204,.T.);
#151=FACE_BOUND('',#205,.T.);
#152=FACE_BOUND('',#206,.T.);
#153=FACE_BOUND('',#207,.T.);
#154=FACE_BOUND('',#209,.T.);
#155=FACE_BOUND('',#210,.T.);
#156=FACE_BOUND('',#211,.T.);
#157=FACE_BOUND('',#212,.T.);
#158=FACE_BOUND('',#213,.T.);
#159=FACE_BOUND('',#214,.T.);
#160=FACE_BOUND('',#215,.T.);
#161=FACE_BOUND('',#216,.T.);
#162=FACE_BOUND('',#217,.T.);
#163=FACE_BOUND('',#218,.T.);
#164=FACE_BOUND('',#219,.T.);
#165=FACE_BOUND('',#220,.T.);
#166=FACE_BOUND('',#221,.T.);
#167=FACE_BOUND('',#222,.T.);
#168=FACE_BOUND('',#226,.T.);
#169=FACE_BOUND('',#227,.T.);
#170=FACE_BOUND('',#228,.T.);
#171=FACE_BOUND('',#229,.T.);
#172=FACE_BOUND('',#230,.T.);
#173=FACE_BOUND('',#231,.T.);
#174=FACE_BOUND('',#232,.T.);
#175=FACE_BOUND('',#233,.T.);
#176=FACE_BOUND('',#234,.T.);
#177=FACE_BOUND('',#235,.T.);
#178=FACE_BOUND('',#236,.T.);
#179=FACE_BOUND('',#237,.T.);
#180=FACE_BOUND('',#238,.T.);
#181=FACE_BOUND('',#239,.T.);
#182=FACE_BOUND('',#240,.T.);
#183=FACE_BOUND('',#241,.T.);
#184=EDGE_LOOP('',(#242));
#185=EDGE_LOOP('',(#243));
#186=EDGE_LOOP('',(#244));
#187=EDGE_LOOP('',(#245));
#188=EDGE_LOOP('',(#246));
#189=EDGE_LOOP('',(#247));
#190=EDGE_LOOP('',(#248));
#191=EDGE_LOOP('',(#249));
#192=EDGE_LOOP('',(#250));
#193=EDGE_LOOP('',(#251));
#194=EDGE_LOOP('',(#252));
#195=EDGE_LOOP('',(#253));
#196=EDGE_LOOP('',(#254));
#197=EDGE_LOOP('',(#255));
#198=EDGE_LOOP('',(#256));
#199=EDGE_LOOP('',(#257));
#200=EDGE_LOOP('',(#258));
#201=EDGE_LOOP('',(#259));
#202=EDGE_LOOP('',(#260));
#203=EDGE_LOOP('',(#261));
#204=EDGE_LOOP('',(#262));
#205=EDGE_LOOP('',(#263));
#206=EDGE_LOOP('',(#264));
#207=EDGE_LOOP('',(#265));
#208=EDGE_LOOP('',(#266));
#209=EDGE_LOOP('',(#267));
#210=EDGE_LOOP('',(#268));
#211=EDGE_LOOP('',(#269));
#212=EDGE_LOOP('',(#270));
#213=EDGE_LOOP('',(#271));
#214=EDGE_LOOP('',(#272));
#215=EDGE_LOOP('',(#273));
#216=EDGE_LOOP('',(#274));
#217=EDGE_LOOP('',(#275));
#218=EDGE_LOOP('',(#276));
#219=EDGE_LOOP('',(#277));
#220=EDGE_LOOP('',(#278));
#221=EDGE_LOOP('',(#279));
#222=EDGE_LOOP('',(#280));
#223=EDGE_LOOP('',(#281));
#224=EDGE_LOOP('',(#282));
#225=EDGE_LOOP('',(#283));
#226=EDGE_LOOP('',(#284));
#227=EDGE_LOOP('',(#285));
#228=EDGE_LOOP('',(#286));
#229=EDGE_LOOP('',(#287));
#230=EDGE_LOOP('',(#288));
#231=EDGE_LOOP('',(#289));
#232=EDGE_LOOP('',(#290));
#233=EDGE_LOOP('',(#291));
#234=EDGE_LOOP('',(#292));
#235=EDGE_LOOP('',(#293));
#236=EDGE_LOOP('',(#294));
#237=EDGE_LOOP('',(#295));
#238=EDGE_LOOP('',(#296));
#239=EDGE_LOOP('',(#297));
#240=EDGE_LOOP('',(#298));
#241=EDGE_LOOP('',(#299));
#242=ORIENTED_EDGE('',*,*,#329,.T.);
#243=ORIENTED_EDGE('',*,*,#330,.T.);
#244=ORIENTED_EDGE('',*,*,#331,.T.);
#245=ORIENTED_EDGE('',*,*,#329,.F.);
#246=ORIENTED_EDGE('',*,*,#332,.T.);
#247=ORIENTED_EDGE('',*,*,#331,.F.);
#248=ORIENTED_EDGE('',*,*,#333,.T.);
#249=ORIENTED_EDGE('',*,*,#332,.F.);
#250=ORIENTED_EDGE('',*,*,#334,.T.);
#251=ORIENTED_EDGE('',*,*,#333,.F.);
#252=ORIENTED_EDGE('',*,*,#335,.T.);
#253=ORIENTED_EDGE('',*,*,#334,.F.);
#254=ORIENTED_EDGE('',*,*,#336,.T.);
#255=ORIENTED_EDGE('',*,*,#335,.F.);
#256=ORIENTED_EDGE('',*,*,#337,.T.);
#257=ORIENTED_EDGE('',*,*,#336,.F.);
#258=ORIENTED_EDGE('',*,*,#338,.T.);
#259=ORIENTED_EDGE('',*,*,#337,.F.);
#260=ORIENTED_EDGE('',*,*,#339,.T.);
#261=ORIENTED_EDGE('',*,*,#338,.F.);
#262=ORIENTED_EDGE('',*,*,#340,.T.);
#263=ORIENTED_EDGE('',*,*,#339,.F.);
#264=ORIENTED_EDGE('',*,*,#341,.T.);
#265=ORIENTED_EDGE('',*,*,#340,.F.);
#266=ORIENTED_EDGE('',*,*,#330,.F.);
#267=ORIENTED_EDGE('',*,*,#342,.T.);
#268=ORIENTED_EDGE('',*,*,#341,.F.);
#269=ORIENTED_EDGE('',*,*,#343,.T.);
#270=ORIENTED_EDGE('',*,*,#342,.F.);
#271=ORIENTED_EDGE('',*,*,#344,.T.);
#272=ORIENTED_EDGE('',*,*,#343,.F.);
#273=ORIENTED_EDGE('',*,*,#345,.T.);
#274=ORIENTED_EDGE('',*,*,#344,.F.);
#275=ORIENTED_EDGE('',*,*,#346,.T.);
#276=ORIENTED_EDGE('',*,*,#345,.F.);
#277=ORIENTED_EDGE('',*,*,#347,.T.);
#278=ORIENTED_EDGE('',*,*,#346,.F.);
#279=ORIENTED_EDGE('',*,*,#348,.T.);
#280=ORIENTED_EDGE('',*,*,#347,.F.);
#281=ORIENTED_EDGE('',*,*,#348,.F.);
#282=ORIENTED_EDGE('',*,*,#349,.F.);
#283=ORIENTED_EDGE('',*,*,#350,.F.);
#284=ORIENTED_EDGE('',*,*,#351,.F.);
#285=ORIENTED_EDGE('',*,*,#352,.T.);
#286=ORIENTED_EDGE('',*,*,#353,.T.);
#287=ORIENTED_EDGE('',*,*,#350,.T.);
#288=ORIENTED_EDGE('',*,*,#354,.T.);
#289=ORIENTED_EDGE('',*,*,#353,.F.);
#290=ORIENTED_EDGE('',*,*,#355,.T.);
#291=ORIENTED_EDGE('',*,*,#354,.F.);
#292=ORIENTED_EDGE('',*,*,#351,.T.);
#293=ORIENTED_EDGE('',*,*,#355,.F.);
#294=ORIENTED_EDGE('',*,*,#356,.T.);
#295=ORIENTED_EDGE('',*,*,#349,.T.);
#296=ORIENTED_EDGE('',*,*,#357,.F.);
#297=ORIENTED_EDGE('',*,*,#356,.F.);
#298=ORIENTED_EDGE('',*,*,#352,.F.);
#299=ORIENTED_EDGE('',*,*,#357,.T.);
#300=VERTEX_POINT('',#560);
#301=VERTEX_POINT('',#562);
#302=VERTEX_POINT('',#565);
#303=VERTEX_POINT('',#568);
#304=VERTEX_POINT('',#571);
#305=VERTEX_POINT('',#574);
#306=VERTEX_POINT('',#577);
#307=VERTEX_POINT('',#580);
#308=VERTEX_POINT('',#583);
#309=VERTEX_POINT('',#586);
#310=VERTEX_POINT('',#589);
#311=VERTEX_POINT('',#592);
#312=VERTEX_POINT('',#595);
#313=VERTEX_POINT('',#599);
#314=VERTEX_POINT('',#602);
#315=VERTEX_POINT('',#605);
#316=VERTEX_POINT('',#608);
#317=VERTEX_POINT('',#611);
#318=VERTEX_POINT('',#614);
#319=VERTEX_POINT('',#617);
#320=VERTEX_POINT('',#621);
#321=VERTEX_POINT('',#624);
#322=VERTEX_POINT('',#627);
#323=VERTEX_POINT('',#629);
#324=VERTEX_POINT('',#633);
#325=VERTEX_POINT('',#637);
#326=VERTEX_POINT('',#647);
#327=VERTEX_POINT('',#659);
#328=VERTEX_POINT('',#669);
#329=EDGE_CURVE('',#300,#300,#358,.T.);
#330=EDGE_CURVE('',#301,#301,#359,.T.);
#331=EDGE_CURVE('',#302,#302,#360,.T.);
#332=EDGE_CURVE('',#303,#303,#361,.T.);
#333=EDGE_CURVE('',#304,#304,#362,.T.);
#334=EDGE_CURVE('',#305,#305,#363,.T.);
#335=EDGE_CURVE('',#306,#306,#364,.T.);
#336=EDGE_CURVE('',#307,#307,#365,.T.);
#337=EDGE_CURVE('',#308,#308,#366,.T.);
#338=EDGE_CURVE('',#309,#309,#367,.T.);
#339=EDGE_CURVE('',#310,#310,#368,.T.);
#340=EDGE_CURVE('',#311,#311,#369,.T.);
#341=EDGE_CURVE('',#312,#312,#370,.T.);
#342=EDGE_CURVE('',#313,#313,#371,.T.);
#343=EDGE_CURVE('',#314,#314,#372,.T.);
#344=EDGE_CURVE('',#315,#315,#373,.T.);
#345=EDGE_CURVE('',#316,#316,#374,.T.);
#346=EDGE_CURVE('',#317,#317,#375,.T.);
#347=EDGE_CURVE('',#318,#318,#376,.T.);
#348=EDGE_CURVE('',#319,#319,#377,.T.);
#349=EDGE_CURVE('',#320,#320,#378,.T.);
#350=EDGE_CURVE('',#321,#321,#379,.T.);
#351=EDGE_CURVE('',#322,#322,#380,.T.);
#352=EDGE_CURVE('',#323,#323,#381,.T.);
#353=EDGE_CURVE('',#324,#324,#382,.T.);
#354=EDGE_CURVE('',#325,#325,#383,.T.);
#355=EDGE_CURVE('',#326,#326,#384,.T.);
#356=EDGE_CURVE('',#327,#327,#385,.T.);
#357=EDGE_CURVE('',#328,#328,#386,.T.);
#358=CIRCLE('',#388,15.7499999999998);
#359=CIRCLE('',#389,14.7499999999999);
#360=CIRCLE('',#391,15.7499999999997);
#361=CIRCLE('',#393,15.8103073792138);
#362=CIRCLE('',#395,16.);
#363=CIRCLE('',#397,16.);
#364=CIRCLE('',#399,15.7636296694841);
#365=CIRCLE('',#401,15.7499999999997);
#366=CIRCLE('',#403,15.7499999999997);
#367=CIRCLE('',#405,16.2056692403838);
#368=CIRCLE('',#407,17.);
#369=CIRCLE('',#409,21.3);
#370=CIRCLE('',#411,22.);
#371=CIRCLE('',#414,22.);
#372=CIRCLE('',#416,21.9680774060946);
#373=CIRCLE('',#418,19.5532043231757);
#374=CIRCLE('',#420,19.5);
#375=CIRCLE('',#422,19.5);
#376=CIRCLE('',#424,19.1465512075297);
#377=CIRCLE('',#426,17.3490180449715);
#378=CIRCLE('',#429,9.18849479887172);
#379=CIRCLE('',#431,9.55042625909053);
#380=CIRCLE('',#433,19.2619319018183);
#381=CIRCLE('',#434,10.3557914185242);
#382=CIRCLE('',#435,18.461327581822);
#383=CIRCLE('',#436,19.3102476711833);
#384=CIRCLE('',#437,19.9999964145908);
#385=CIRCLE('',#438,9.38566255802637);
#386=CIRCLE('',#439,9.85995201760668);
#387=AXIS2_PLACEMENT_3D('',#558,#440,#441);
#388=AXIS2_PLACEMENT_3D('',#559,#442,#443);
#389=AXIS2_PLACEMENT_3D('',#561,#444,#445);
#390=AXIS2_PLACEMENT_3D('',#563,#446,#447);
#391=AXIS2_PLACEMENT_3D('',#564,#448,#449);
#392=AXIS2_PLACEMENT_3D('',#566,#450,#451);
#393=AXIS2_PLACEMENT_3D('',#567,#452,#453);
#394=AXIS2_PLACEMENT_3D('',#569,#454,#455);
#395=AXIS2_PLACEMENT_3D('',#570,#456,#457);
#396=AXIS2_PLACEMENT_3D('',#572,#458,#459);
#397=AXIS2_PLACEMENT_3D('',#573,#460,#461);
#398=AXIS2_PLACEMENT_3D('',#575,#462,#463);
#399=AXIS2_PLACEMENT_3D('',#576,#464,#465);
#400=AXIS2_PLACEMENT_3D('',#578,#466,#467);
#401=AXIS2_PLACEMENT_3D('',#579,#468,#469);
#402=AXIS2_PLACEMENT_3D('',#581,#470,#471);
#403=AXIS2_PLACEMENT_3D('',#582,#472,#473);
#404=AXIS2_PLACEMENT_3D('',#584,#474,#475);
#405=AXIS2_PLACEMENT_3D('',#585,#476,#477);
#406=AXIS2_PLACEMENT_3D('',#587,#478,#479);
#407=AXIS2_PLACEMENT_3D('',#588,#480,#481);
#408=AXIS2_PLACEMENT_3D('',#590,#482,#483);
#409=AXIS2_PLACEMENT_3D('',#591,#484,#485);
#410=AXIS2_PLACEMENT_3D('',#593,#486,#487);
#411=AXIS2_PLACEMENT_3D('',#594,#488,#489);
#412=AXIS2_PLACEMENT_3D('',#596,#490,#491);
#413=AXIS2_PLACEMENT_3D('',#597,#492,#493);
#414=AXIS2_PLACEMENT_3D('',#598,#494,#495);
#415=AXIS2_PLACEMENT_3D('',#600,#496,#497);
#416=AXIS2_PLACEMENT_3D('',#601,#498,#499);
#417=AXIS2_PLACEMENT_3D('',#603,#500,#501);
#418=AXIS2_PLACEMENT_3D('',#604,#502,#503);
#419=AXIS2_PLACEMENT_3D('',#606,#504,#505);
#420=AXIS2_PLACEMENT_3D('',#607,#506,#507);
#421=AXIS2_PLACEMENT_3D('',#609,#508,#509);
#422=AXIS2_PLACEMENT_3D('',#610,#510,#511);
#423=AXIS2_PLACEMENT_3D('',#612,#512,#513);
#424=AXIS2_PLACEMENT_3D('',#613,#514,#515);
#425=AXIS2_PLACEMENT_3D('',#615,#516,#517);
#426=AXIS2_PLACEMENT_3D('',#616,#518,#519);
#427=AXIS2_PLACEMENT_3D('',#618,#520,#521);
#428=AXIS2_PLACEMENT_3D('',#619,#522,#523);
#429=AXIS2_PLACEMENT_3D('',#620,#524,#525);
#430=AXIS2_PLACEMENT_3D('',#622,#526,#527);
#431=AXIS2_PLACEMENT_3D('',#623,#528,#529);
#432=AXIS2_PLACEMENT_3D('',#625,#530,#531);
#433=AXIS2_PLACEMENT_3D('',#626,#532,#533);
#434=AXIS2_PLACEMENT_3D('',#628,#534,#535);
#435=AXIS2_PLACEMENT_3D('',#632,#538,#539);
#436=AXIS2_PLACEMENT_3D('',#636,#542,#543);
#437=AXIS2_PLACEMENT_3D('',#646,#545,#546);
#438=AXIS2_PLACEMENT_3D('',#658,#550,#551);
#439=AXIS2_PLACEMENT_3D('',#668,#553,#554);
#440=DIRECTION('',(0.,0.,1.));
#441=DIRECTION('',(1.,0.,0.));
#442=DIRECTION('',(1.,0.,0.));
#443=DIRECTION('',(0.,0.,1.));
#444=DIRECTION('',(-1.,0.,0.));
#445=DIRECTION('',(0.,0.,1.));
#446=DIRECTION('',(-1.,0.,0.));
#447=DIRECTION('',(0.,0.,1.));
#448=DIRECTION('',(1.,0.,0.));
#449=DIRECTION('',(0.,0.,1.));
#450=DIRECTION('',(-1.,0.,0.));
#451=DIRECTION('',(0.,0.,1.));
#452=DIRECTION('',(1.,0.,0.));
#453=DIRECTION('',(0.,0.,1.));
#454=DIRECTION('',(-1.,0.,0.));
#455=DIRECTION('',(0.,0.,1.));
#456=DIRECTION('',(1.,0.,0.));
#457=DIRECTION('',(0.,0.,1.));
#458=DIRECTION('',(-1.,0.,0.));
#459=DIRECTION('',(-1.4616639122887E-16,0.,1.));
#460=DIRECTION('',(1.,0.,0.));
#461=DIRECTION('',(0.,0.,1.));
#462=DIRECTION('',(-1.,0.,0.));
#463=DIRECTION('',(0.,0.,1.));
#464=DIRECTION('',(1.,0.,0.));
#465=DIRECTION('',(0.,0.,1.));
#466=DIRECTION('',(1.,0.,0.));
#467=DIRECTION('',(1.95496774461578E-16,0.,-1.));
#468=DIRECTION('',(1.,0.,0.));
#469=DIRECTION('',(0.,0.,1.));
#470=DIRECTION('',(-1.,0.,0.));
#471=DIRECTION('',(0.,0.,1.));
#472=DIRECTION('',(1.,0.,0.));
#473=DIRECTION('',(0.,0.,1.));
#474=DIRECTION('',(-1.,0.,0.));
#475=DIRECTION('',(0.,0.,1.));
#476=DIRECTION('',(1.,0.,0.));
#477=DIRECTION('',(0.,0.,1.));
#478=DIRECTION('',(-1.,0.,0.));
#479=DIRECTION('',(0.,0.,1.));
#480=DIRECTION('',(1.,0.,0.));
#481=DIRECTION('',(0.,0.,1.));
#482=DIRECTION('',(1.,0.,0.));
#483=DIRECTION('',(7.7838553451241E-18,0.,-1.));
#484=DIRECTION('',(1.,0.,0.));
#485=DIRECTION('',(0.,0.,1.));
#486=DIRECTION('',(-1.,0.,0.));
#487=DIRECTION('',(0.,0.,1.));
#488=DIRECTION('',(1.,0.,0.));
#489=DIRECTION('',(0.,0.,1.));
#490=DIRECTION('',(-1.,0.,0.));
#491=DIRECTION('',(0.,0.,1.));
#492=DIRECTION('',(-1.,0.,0.));
#493=DIRECTION('',(0.,0.,1.));
#494=DIRECTION('',(1.,0.,0.));
#495=DIRECTION('',(0.,0.,1.));
#496=DIRECTION('',(-1.,0.,0.));
#497=DIRECTION('',(0.,0.,1.));
#498=DIRECTION('',(1.,0.,0.));
#499=DIRECTION('',(0.,0.,1.));
#500=DIRECTION('',(-1.,0.,0.));
#501=DIRECTION('',(0.,0.,1.));
#502=DIRECTION('',(1.,0.,0.));
#503=DIRECTION('',(0.,0.,1.));
#504=DIRECTION('',(1.,0.,0.));
#505=DIRECTION('',(3.28416074151644E-16,0.,-1.));
#506=DIRECTION('',(1.,0.,0.));
#507=DIRECTION('',(0.,0.,1.));
#508=DIRECTION('',(-1.,0.,0.));
#509=DIRECTION('',(0.,0.,1.));
#510=DIRECTION('',(1.,0.,0.));
#511=DIRECTION('',(0.,0.,1.));
#512=DIRECTION('',(-1.,0.,0.));
#513=DIRECTION('',(0.,0.,1.));
#514=DIRECTION('',(1.,0.,0.));
#515=DIRECTION('',(0.,0.,1.));
#516=DIRECTION('',(1.,0.,0.));
#517=DIRECTION('',(0.,0.,-1.));
#518=DIRECTION('',(1.,0.,0.));
#519=DIRECTION('',(0.,0.,1.));
#520=DIRECTION('',(-1.,0.,0.));
#521=DIRECTION('',(0.,0.,1.));
#522=DIRECTION('',(1.,0.,0.));
#523=DIRECTION('',(0.,0.,-1.));
#524=DIRECTION('',(1.,0.,0.));
#525=DIRECTION('',(0.,0.,-1.));
#526=DIRECTION('',(1.,0.,0.));
#527=DIRECTION('',(0.,0.,-1.));
#528=DIRECTION('',(-1.,0.,0.));
#529=DIRECTION('',(0.,0.,-1.));
#530=DIRECTION('',(1.,0.,0.));
#531=DIRECTION('',(0.,0.,-1.));
#532=DIRECTION('',(1.,0.,0.));
#533=DIRECTION('',(0.,0.,-1.));
#534=DIRECTION('',(1.,0.,0.));
#535=DIRECTION('',(0.,0.,-1.));
#536=DIRECTION('',(-0.0697564737441259,0.992099290015652,-0.104273837184716));
#537=DIRECTION('',(1.,0.,0.));
#538=DIRECTION('',(1.,0.,0.));
#539=DIRECTION('',(0.,0.,-1.));
#540=DIRECTION('',(0.0697564737441266,-0.992099290015652,0.104273837184716));
#541=DIRECTION('',(1.,0.,0.));
#542=DIRECTION('',(1.,0.,0.));
#543=DIRECTION('',(0.,0.,-1.));
#544=DIRECTION('',(1.,0.,0.));
#545=DIRECTION('',(1.,0.,0.));
#546=DIRECTION('',(0.,0.,-1.));
#547=DIRECTION('',(-0.997564050259824,-0.0693743404822154,0.00729153700344339));
#548=DIRECTION('',(1.,0.,0.));
#549=DIRECTION('',(1.,0.,0.));
#550=DIRECTION('',(-1.,0.,0.));
#551=DIRECTION('',(0.,0.,-1.));
#552=DIRECTION('',(1.,0.,0.));
#553=DIRECTION('',(1.,0.,0.));
#554=DIRECTION('',(0.,0.,-1.));
#555=DIRECTION('',(-0.09758289975915,0.995227399981831,8.20860454411671E-18));
#556=DIRECTION('',(1.,0.,0.));
#557=DIRECTION('',(1.,0.,0.));
#558=CARTESIAN_POINT('',(0.,0.,0.));
#559=CARTESIAN_POINT('',(246.,0.,0.));
#560=CARTESIAN_POINT('',(246.,0.,15.7499999999998));
#561=CARTESIAN_POINT('',(247.,0.,0.));
#562=CARTESIAN_POINT('',(247.,0.,14.7499999999999));
#563=CARTESIAN_POINT('',(246.,0.,0.));
#564=CARTESIAN_POINT('',(244.176326980708,0.,0.));
#565=CARTESIAN_POINT('',(244.176326980708,0.,15.7499999999997));
#566=CARTESIAN_POINT('',(0.,0.,0.));
#567=CARTESIAN_POINT('',(243.834306837383,0.,0.));
#568=CARTESIAN_POINT('',(243.834306837383,0.,15.8103073792138));
#569=CARTESIAN_POINT('',(244.176326980708,0.,0.));
#570=CARTESIAN_POINT('',(243.313130645136,0.,0.));
#571=CARTESIAN_POINT('',(243.313130645136,0.,16.));
#572=CARTESIAN_POINT('',(243.834306837383,0.,0.));
#573=CARTESIAN_POINT('',(189.,0.,0.));
#574=CARTESIAN_POINT('',(189.,0.,16.));
#575=CARTESIAN_POINT('',(0.,0.,0.));
#576=CARTESIAN_POINT('',(188.117853917113,0.,0.));
#577=CARTESIAN_POINT('',(188.117853917113,0.,15.7636296694841));
#578=CARTESIAN_POINT('',(189.,0.,0.));
#579=CARTESIAN_POINT('',(188.014326299072,0.,0.));
#580=CARTESIAN_POINT('',(188.014326299072,0.,15.7499999999997));
#581=CARTESIAN_POINT('',(188.014326299072,0.,0.));
#582=CARTESIAN_POINT('',(187.28447131951,0.,0.));
#583=CARTESIAN_POINT('',(187.28447131951,0.,15.7499999999997));
#584=CARTESIAN_POINT('',(0.,0.,0.));
#585=CARTESIAN_POINT('',(186.888364092014,0.,0.));
#586=CARTESIAN_POINT('',(186.888364092014,0.,16.2056692403838));
#587=CARTESIAN_POINT('',(187.28447131951,0.,0.));
#588=CARTESIAN_POINT('',(187.,0.,0.));
#589=CARTESIAN_POINT('',(187.,0.,17.));
#590=CARTESIAN_POINT('',(186.888364092014,0.,0.));
#591=CARTESIAN_POINT('',(187.,0.,0.));
#592=CARTESIAN_POINT('',(187.,0.,21.3));
#593=CARTESIAN_POINT('',(187.,17.,0.));
#594=CARTESIAN_POINT('',(186.587298334621,0.,0.));
#595=CARTESIAN_POINT('',(186.587298334621,0.,22.));
#596=CARTESIAN_POINT('',(186.2,0.,0.));
#597=CARTESIAN_POINT('',(247.,22.5,0.));
#598=CARTESIAN_POINT('',(182.219408332927,0.,0.));
#599=CARTESIAN_POINT('',(182.219408332927,0.,22.));
#600=CARTESIAN_POINT('',(0.,0.,0.));
#601=CARTESIAN_POINT('',(181.782926361443,0.,0.));
#602=CARTESIAN_POINT('',(181.782926361443,0.,21.9680774060946));
#603=CARTESIAN_POINT('',(182.219408332927,0.,0.));
#604=CARTESIAN_POINT('',(165.361789397595,0.,0.));
#605=CARTESIAN_POINT('',(165.361789397595,0.,19.5532043231757));
#606=CARTESIAN_POINT('',(181.782926361443,0.,0.));
#607=CARTESIAN_POINT('',(164.634319445121,0.,0.));
#608=CARTESIAN_POINT('',(164.634319445121,0.,19.5));
#609=CARTESIAN_POINT('',(164.634319445121,0.,0.));
#610=CARTESIAN_POINT('',(10.,0.,0.));
#611=CARTESIAN_POINT('',(10.,0.,19.5));
#612=CARTESIAN_POINT('',(0.,0.,0.));
#613=CARTESIAN_POINT('',(3.2557952787627,0.,0.));
#614=CARTESIAN_POINT('',(3.2557952787627,0.,19.1465512075297));
#615=CARTESIAN_POINT('',(10.,0.,0.));
#616=CARTESIAN_POINT('',(1.55,0.,0.));
#617=CARTESIAN_POINT('',(1.55,0.,17.3490180449715));
#618=CARTESIAN_POINT('',(3.35,0.,0.));
#619=CARTESIAN_POINT('',(1.55,17.3490180449715,0.));
#620=CARTESIAN_POINT('',(0.0696761468383291,0.,0.));
#621=CARTESIAN_POINT('',(0.0696761468383291,0.,-9.18849479887172));
#622=CARTESIAN_POINT('',(0.0696761468383291,0.,0.));
#623=CARTESIAN_POINT('',(11.5893320065488,0.,0.));
#624=CARTESIAN_POINT('',(11.5893320065488,0.,-9.55042625909053));
#625=CARTESIAN_POINT('',(11.5893320065488,0.,0.));
#626=CARTESIAN_POINT('',(0.742970205413078,0.,0.));
#627=CARTESIAN_POINT('',(0.742970205413078,0.,-19.2619319018183));
#628=CARTESIAN_POINT('',(0.117973396931276,0.,0.));
#629=CARTESIAN_POINT('',(0.117973396931276,0.,-10.3557914185242));
#630=CARTESIAN_POINT('',(0.742970205413078,-18.995663617134,3.19167422131043));
#631=CARTESIAN_POINT('',(10.,0.,0.));
#632=CARTESIAN_POINT('',(12.2149567834011,0.,0.));
#633=CARTESIAN_POINT('',(12.2149567834011,0.,-18.461327581822));
#634=CARTESIAN_POINT('',(11.5893320065488,-9.30001935254014,2.17262094547225));
#635=CARTESIAN_POINT('',(10.,0.,0.));
#636=CARTESIAN_POINT('',(11.4755351925416,0.,0.));
#637=CARTESIAN_POINT('',(11.4755351925416,0.,-19.3102476711833));
#638=CARTESIAN_POINT('',(12.2149567834011,-18.1978587015886,3.10782154577083));
#639=CARTESIAN_POINT('',(12.222197067391,-18.3008323787312,3.1186445153594));
#640=CARTESIAN_POINT('',(12.1955735640012,-18.5120907097724,3.14084866068699));
#641=CARTESIAN_POINT('',(12.0373798846195,-18.7869369609632,3.16973616573403));
#642=CARTESIAN_POINT('',(11.7857255266378,-18.9809841475759,3.19013134688842));
#643=CARTESIAN_POINT('',(11.5790760774857,-19.0366056029248,3.19597739741723));
#644=CARTESIAN_POINT('',(11.4755351925416,-19.0438062238815,3.19673421317632));
#645=CARTESIAN_POINT('',(10.,0.,0.));
#646=CARTESIAN_POINT('',(1.59357744315487,0.,0.));
#647=CARTESIAN_POINT('',(1.59357744315487,0.,-19.9999964145908));
#648=CARTESIAN_POINT('',(11.4755351925416,-19.0438062238815,3.19673421317632));
#649=CARTESIAN_POINT('',(10.,0.,0.));
#650=CARTESIAN_POINT('',(1.59357744315488,-19.7310345791518,3.26896482390989));
#651=CARTESIAN_POINT('',(1.49003655821082,-19.7382352001085,3.26972163966898));
#652=CARTESIAN_POINT('',(1.27761455722218,-19.7117575430559,3.26693872577284));
#653=CARTESIAN_POINT('',(1.00125437604283,-19.5544304652019,3.25040298356841));
#654=CARTESIAN_POINT('',(0.8061383232777,-19.3041546961242,3.22409794025398));
#655=CARTESIAN_POINT('',(0.750210489403029,-19.0986372942767,3.202497190899));
#656=CARTESIAN_POINT('',(0.742970205413081,-18.995663617134,3.19167422131043));
#657=CARTESIAN_POINT('',(10.,0.,0.));
#658=CARTESIAN_POINT('',(0.0503411566157418,0.,0.));
#659=CARTESIAN_POINT('',(0.0503411566157418,0.,-9.38566255802637));
#660=CARTESIAN_POINT('',(0.0519564042379877,-9.1678402662647,2.15872836369114));
#661=CARTESIAN_POINT('',(0.0447161202480393,-9.06486658912203,2.14790539410257));
#662=CARTESIAN_POINT('',(0.0713396236378287,-8.85360825808089,2.12570124877499));
#663=CARTESIAN_POINT('',(0.229533303019607,-8.57876200689009,2.09681374372794));
#664=CARTESIAN_POINT('',(0.481187661001305,-8.38471482027733,2.07641856257355));
#665=CARTESIAN_POINT('',(0.687837110153365,-8.32909336492845,2.07057251204474));
#666=CARTESIAN_POINT('',(0.791377995097423,-8.32189274397177,2.06981569628565));
#667=CARTESIAN_POINT('',(10.,0.,0.));
#668=CARTESIAN_POINT('',(0.00383101409878565,0.,0.));
#669=CARTESIAN_POINT('',(0.00383101409878565,0.,-9.85995201760668));
#670=CARTESIAN_POINT('',(0.0503411566157411,9.38446384473498,0.150000000000004));
#671=CARTESIAN_POINT('',(10.,0.,0.));
#672=CARTESIAN_POINT('',(0.00383101409878606,9.85881097239957,0.150000000000004));
#673=CARTESIAN_POINT('',(-0.00629747819585735,9.96210932771605,0.150000000000004));
#674=CARTESIAN_POINT('',(0.0143844747218436,10.1751918804046,0.150000000000003));
#675=CARTESIAN_POINT('',(0.164800047630849,10.4558613396699,0.150000000000003));
#676=CARTESIAN_POINT('',(0.410908329428864,10.6579279216875,0.150000000000003));
#677=CARTESIAN_POINT('',(0.61591561229674,10.7196039414025,0.150000000000003));
#678=CARTESIAN_POINT('',(0.719213967613226,10.7297324336972,0.150000000000003));
#679=CARTESIAN_POINT('',(10.,0.,0.));
#680=(
GEOMETRIC_REPRESENTATION_CONTEXT(3)
GLOBAL_UNCERTAINTY_ASSIGNED_CONTEXT((#681))
GLOBAL_UNIT_ASSIGNED_CONTEXT((#687,#683,#682))
REPRESENTATION_CONTEXT('ATUM-40XD4-SP-110408-light',
'TOP_LEVEL_ASSEMBLY_PART')
);
#681=UNCERTAINTY_MEASURE_WITH_UNIT(LENGTH_MEASURE(2.E-5),#687,
'DISTANCE_ACCURACY_VALUE','Maximum Tolerance applied to model');
#682=(
NAMED_UNIT(*)
SI_UNIT($,.STERADIAN.)
SOLID_ANGLE_UNIT()
);
#683=(
CONVERSION_BASED_UNIT('DEGREE',#685)
NAMED_UNIT(#684)
PLANE_ANGLE_UNIT()
);
#684=DIMENSIONAL_EXPONENTS(0.,0.,0.,0.,0.,0.,0.);
#685=PLANE_ANGLE_MEASURE_WITH_UNIT(PLANE_ANGLE_MEASURE(0.0174532925),#686);
#686=(
NAMED_UNIT(*)
PLANE_ANGLE_UNIT()
SI_UNIT($,.RADIAN.)
);
#687=(
LENGTH_UNIT()
NAMED_UNIT(*)
SI_UNIT(.MILLI.,.METRE.)
);
ENDSEC;
END-ISO-10303-21;
