ISO-10303-21;
HEADER;
/* Generated by software containing ST-Developer
 * from STEP Tools, Inc. (www.steptools.com) 
 */
/* OPTION: using custom schema-name function */

FILE_DESCRIPTION(
/* description */ (''),
/* implementation_level */ '2;1');

FILE_NAME(
/* name */ 'ATUM-47XD2-SP-140512-light.stp',
/* time_stamp */ '2023-10-13T23:54:42+03:00',
/* author */ (''),
/* organization */ (''),
/* preprocessor_version */ 'ST-DEVELOPER v19.4',
/* originating_system */ 'SIEMENS PLM Software NX2306.3001',
/* authorisation */ '');

FILE_SCHEMA (('AUTOMOTIVE_DESIGN { 1 0 10303 214 3 1 1 1 }'));
ENDSEC;

DATA;
#10=SHAPE_REPRESENTATION_RELATIONSHIP('None',
'relationship between STP_ATUM 42XD2 SP.. 140512-None and STP_ATUM 42X
D2 SP.. 140512-None',#22,#11);
#11=ADVANCED_BREP_SHAPE_REPRESENTATION(
'STP_ATUM 42XD2 SP.. 140512-None',(#68,#69),#691);
#12=SHAPE_DEFINITION_REPRESENTATION(#13,#22);
#13=PRODUCT_DEFINITION_SHAPE('','',#14);
#14=PRODUCT_DEFINITION(' ','',#16,#15);
#15=PRODUCT_DEFINITION_CONTEXT('part definition',#21,'design');
#16=PRODUCT_DEFINITION_FORMATION_WITH_SPECIFIED_SOURCE(' ',' ',#18,
 .NOT_KNOWN.);
#17=PRODUCT_RELATED_PRODUCT_CATEGORY('part','',(#18));
#18=PRODUCT('STP_ATUM 42XD2 SP.. 140512','STP_ATUM 42XD2 SP.. 140512',
' ',(#19));
#19=PRODUCT_CONTEXT(' ',#21,'mechanical');
#20=APPLICATION_PROTOCOL_DEFINITION('international standard',
'automotive_design',2010,#21);
#21=APPLICATION_CONTEXT(
'core data for automotive mechanical design processes');
#22=SHAPE_REPRESENTATION('STP_ATUM 42XD2 SP.. 140512-None',(#401),#691);
#23=DRAUGHTING_PRE_DEFINED_COLOUR('yellow');
#24=SURFACE_OF_REVOLUTION('',#42,#33);
#25=SURFACE_OF_REVOLUTION('',#43,#34);
#26=SURFACE_OF_REVOLUTION('',#393,#35);
#27=SURFACE_OF_REVOLUTION('',#44,#36);
#28=SURFACE_OF_REVOLUTION('',#395,#37);
#29=SURFACE_OF_REVOLUTION('',#397,#38);
#30=SURFACE_OF_REVOLUTION('',#45,#39);
#31=SURFACE_OF_REVOLUTION('',#46,#40);
#32=SURFACE_OF_REVOLUTION('',#400,#41);
#33=AXIS1_PLACEMENT('',#662,#556);
#34=AXIS1_PLACEMENT('',#666,#560);
#35=AXIS1_PLACEMENT('',#670,#565);
#36=AXIS1_PLACEMENT('',#674,#569);
#37=AXIS1_PLACEMENT('',#676,#572);
#38=AXIS1_PLACEMENT('',#680,#577);
#39=AXIS1_PLACEMENT('',#684,#581);
#40=AXIS1_PLACEMENT('',#688,#585);
#41=AXIS1_PLACEMENT('',#690,#588);
#42=LINE('',#661,#47);
#43=LINE('',#665,#48);
#44=LINE('',#673,#49);
#45=LINE('',#683,#50);
#46=LINE('',#687,#51);
#47=VECTOR('',#555,9.83055045673413);
#48=VECTOR('',#559,10.2056214651612);
#49=VECTOR('',#568,11.9);
#50=VECTOR('',#580,0.423530124377577);
#51=VECTOR('',#584,0.823749158164616);
#52=PRESENTATION_LAYER_ASSIGNMENT('1','Layer 1',(#68,#69));
#53=STYLED_ITEM('',(#55),#68);
#54=STYLED_ITEM('',(#56),#69);
#55=PRESENTATION_STYLE_ASSIGNMENT((#57));
#56=PRESENTATION_STYLE_ASSIGNMENT((#58));
#57=SURFACE_STYLE_USAGE(.BOTH.,#59);
#58=SURFACE_STYLE_USAGE(.BOTH.,#60);
#59=SURFACE_SIDE_STYLE('',(#61));
#60=SURFACE_SIDE_STYLE('',(#62));
#61=SURFACE_STYLE_FILL_AREA(#63);
#62=SURFACE_STYLE_FILL_AREA(#64);
#63=FILL_AREA_STYLE('',(#65));
#64=FILL_AREA_STYLE('',(#66));
#65=FILL_AREA_STYLE_COLOUR('',#67);
#66=FILL_AREA_STYLE_COLOUR('',#23);
#67=COLOUR_RGB('smoke gray',0.694117647058824,0.694117647058824,0.694117647058824);
#68=MANIFOLD_SOLID_BREP('',#70);
#69=MANIFOLD_SOLID_BREP('',#71);
#70=CLOSED_SHELL('',(#91,#92,#93,#94,#95,#96,#97,#98,#99,#100,#101,#102,
#103,#104,#105,#106,#107,#108,#109,#110,#111));
#71=CLOSED_SHELL('',(#112,#113,#114,#115,#116,#117,#118,#119,#120,#121,
#122));
#72=FACE_OUTER_BOUND('',#211,.T.);
#73=FACE_OUTER_BOUND('',#226,.T.);
#74=FACE_OUTER_BOUND('',#227,.T.);
#75=FACE_OUTER_BOUND('',#228,.T.);
#76=PLANE('',#424);
#77=PLANE('',#427);
#78=PLANE('',#442);
#79=PLANE('',#444);
#80=PLANE('',#446);
#81=CONICAL_SURFACE('',#410,19.8103073792139,20.0000000000006);
#82=CONICAL_SURFACE('',#414,20.,14.9999999999992);
#83=CONICAL_SURFACE('',#422,20.205669240384,81.9999999999984);
#84=CONICAL_SURFACE('',#433,26.9516097302997,10.304846468766);
#85=CONICAL_SURFACE('',#439,23.,3.00000000000009);
#86=CYLINDRICAL_SURFACE('',#406,19.7499999999999);
#87=CYLINDRICAL_SURFACE('',#412,20.);
#88=CYLINDRICAL_SURFACE('',#418,19.75);
#89=CYLINDRICAL_SURFACE('',#429,27.);
#90=CYLINDRICAL_SURFACE('',#437,23.);
#91=ADVANCED_FACE('',(#131,#132),#123,.T.);
#92=ADVANCED_FACE('',(#133,#134),#86,.T.);
#93=ADVANCED_FACE('',(#135,#136),#124,.F.);
#94=ADVANCED_FACE('',(#137,#138),#81,.T.);
#95=ADVANCED_FACE('',(#139,#140),#87,.T.);
#96=ADVANCED_FACE('',(#141,#142),#82,.T.);
#97=ADVANCED_FACE('',(#143,#144),#125,.F.);
#98=ADVANCED_FACE('',(#145,#146),#88,.T.);
#99=ADVANCED_FACE('',(#147,#148),#126,.F.);
#100=ADVANCED_FACE('',(#149,#150),#83,.F.);
#101=ADVANCED_FACE('',(#151,#152),#76,.F.);
#102=ADVANCED_FACE('',(#153,#154),#127,.T.);
#103=ADVANCED_FACE('',(#72),#77,.F.);
#104=ADVANCED_FACE('',(#155,#156),#89,.T.);
#105=ADVANCED_FACE('',(#157,#158),#128,.T.);
#106=ADVANCED_FACE('',(#159,#160),#84,.T.);
#107=ADVANCED_FACE('',(#161,#162),#129,.F.);
#108=ADVANCED_FACE('',(#163,#164),#90,.T.);
#109=ADVANCED_FACE('',(#165,#166),#85,.T.);
#110=ADVANCED_FACE('',(#167,#168),#130,.T.);
#111=ADVANCED_FACE('',(#73),#78,.F.);
#112=ADVANCED_FACE('',(#74),#79,.F.);
#113=ADVANCED_FACE('',(#75),#80,.T.);
#114=ADVANCED_FACE('',(#169,#170),#24,.F.);
#115=ADVANCED_FACE('',(#171,#172),#25,.F.);
#116=ADVANCED_FACE('',(#173,#174),#26,.F.);
#117=ADVANCED_FACE('',(#175,#176),#27,.F.);
#118=ADVANCED_FACE('',(#177,#178),#28,.F.);
#119=ADVANCED_FACE('',(#179,#180),#29,.F.);
#120=ADVANCED_FACE('',(#181,#182),#30,.F.);
#121=ADVANCED_FACE('',(#183,#184),#31,.T.);
#122=ADVANCED_FACE('',(#185,#186),#32,.T.);
#123=TOROIDAL_SURFACE('',#404,18.75,1.);
#124=TOROIDAL_SURFACE('',#408,20.7499999999998,0.999999999999997);
#125=TOROIDAL_SURFACE('',#416,20.15,0.399999999999999);
#126=TOROIDAL_SURFACE('',#420,20.15,0.4);
#127=TOROIDAL_SURFACE('',#426,26.3,0.799999999999983);
#128=TOROIDAL_SURFACE('',#431,24.,3.);
#129=TOROIDAL_SURFACE('',#435,28.,5.);
#130=TOROIDAL_SURFACE('',#441,20.6172989082021,2.);
#131=FACE_BOUND('',#187,.T.);
#132=FACE_BOUND('',#188,.T.);
#133=FACE_BOUND('',#189,.T.);
#134=FACE_BOUND('',#190,.T.);
#135=FACE_BOUND('',#191,.T.);
#136=FACE_BOUND('',#192,.T.);
#137=FACE_BOUND('',#193,.T.);
#138=FACE_BOUND('',#194,.T.);
#139=FACE_BOUND('',#195,.T.);
#140=FACE_BOUND('',#196,.T.);
#141=FACE_BOUND('',#197,.T.);
#142=FACE_BOUND('',#198,.T.);
#143=FACE_BOUND('',#199,.T.);
#144=FACE_BOUND('',#200,.T.);
#145=FACE_BOUND('',#201,.T.);
#146=FACE_BOUND('',#202,.T.);
#147=FACE_BOUND('',#203,.T.);
#148=FACE_BOUND('',#204,.T.);
#149=FACE_BOUND('',#205,.T.);
#150=FACE_BOUND('',#206,.T.);
#151=FACE_BOUND('',#207,.T.);
#152=FACE_BOUND('',#208,.T.);
#153=FACE_BOUND('',#209,.T.);
#154=FACE_BOUND('',#210,.T.);
#155=FACE_BOUND('',#212,.T.);
#156=FACE_BOUND('',#213,.T.);
#157=FACE_BOUND('',#214,.T.);
#158=FACE_BOUND('',#215,.T.);
#159=FACE_BOUND('',#216,.T.);
#160=FACE_BOUND('',#217,.T.);
#161=FACE_BOUND('',#218,.T.);
#162=FACE_BOUND('',#219,.T.);
#163=FACE_BOUND('',#220,.T.);
#164=FACE_BOUND('',#221,.T.);
#165=FACE_BOUND('',#222,.T.);
#166=FACE_BOUND('',#223,.T.);
#167=FACE_BOUND('',#224,.T.);
#168=FACE_BOUND('',#225,.T.);
#169=FACE_BOUND('',#229,.T.);
#170=FACE_BOUND('',#230,.T.);
#171=FACE_BOUND('',#231,.T.);
#172=FACE_BOUND('',#232,.T.);
#173=FACE_BOUND('',#233,.T.);
#174=FACE_BOUND('',#234,.T.);
#175=FACE_BOUND('',#235,.T.);
#176=FACE_BOUND('',#236,.T.);
#177=FACE_BOUND('',#237,.T.);
#178=FACE_BOUND('',#238,.T.);
#179=FACE_BOUND('',#239,.T.);
#180=FACE_BOUND('',#240,.T.);
#181=FACE_BOUND('',#241,.T.);
#182=FACE_BOUND('',#242,.T.);
#183=FACE_BOUND('',#243,.T.);
#184=FACE_BOUND('',#244,.T.);
#185=FACE_BOUND('',#245,.T.);
#186=FACE_BOUND('',#246,.T.);
#187=EDGE_LOOP('',(#247));
#188=EDGE_LOOP('',(#248));
#189=EDGE_LOOP('',(#249));
#190=EDGE_LOOP('',(#250));
#191=EDGE_LOOP('',(#251));
#192=EDGE_LOOP('',(#252));
#193=EDGE_LOOP('',(#253));
#194=EDGE_LOOP('',(#254));
#195=EDGE_LOOP('',(#255));
#196=EDGE_LOOP('',(#256));
#197=EDGE_LOOP('',(#257));
#198=EDGE_LOOP('',(#258));
#199=EDGE_LOOP('',(#259));
#200=EDGE_LOOP('',(#260));
#201=EDGE_LOOP('',(#261));
#202=EDGE_LOOP('',(#262));
#203=EDGE_LOOP('',(#263));
#204=EDGE_LOOP('',(#264));
#205=EDGE_LOOP('',(#265));
#206=EDGE_LOOP('',(#266));
#207=EDGE_LOOP('',(#267));
#208=EDGE_LOOP('',(#268));
#209=EDGE_LOOP('',(#269));
#210=EDGE_LOOP('',(#270));
#211=EDGE_LOOP('',(#271));
#212=EDGE_LOOP('',(#272));
#213=EDGE_LOOP('',(#273));
#214=EDGE_LOOP('',(#274));
#215=EDGE_LOOP('',(#275));
#216=EDGE_LOOP('',(#276));
#217=EDGE_LOOP('',(#277));
#218=EDGE_LOOP('',(#278));
#219=EDGE_LOOP('',(#279));
#220=EDGE_LOOP('',(#280));
#221=EDGE_LOOP('',(#281));
#222=EDGE_LOOP('',(#282));
#223=EDGE_LOOP('',(#283));
#224=EDGE_LOOP('',(#284));
#225=EDGE_LOOP('',(#285));
#226=EDGE_LOOP('',(#286));
#227=EDGE_LOOP('',(#287));
#228=EDGE_LOOP('',(#288));
#229=EDGE_LOOP('',(#289));
#230=EDGE_LOOP('',(#290));
#231=EDGE_LOOP('',(#291));
#232=EDGE_LOOP('',(#292));
#233=EDGE_LOOP('',(#293));
#234=EDGE_LOOP('',(#294));
#235=EDGE_LOOP('',(#295));
#236=EDGE_LOOP('',(#296));
#237=EDGE_LOOP('',(#297));
#238=EDGE_LOOP('',(#298));
#239=EDGE_LOOP('',(#299));
#240=EDGE_LOOP('',(#300));
#241=EDGE_LOOP('',(#301));
#242=EDGE_LOOP('',(#302));
#243=EDGE_LOOP('',(#303));
#244=EDGE_LOOP('',(#304));
#245=EDGE_LOOP('',(#305));
#246=EDGE_LOOP('',(#306));
#247=ORIENTED_EDGE('',*,*,#337,.T.);
#248=ORIENTED_EDGE('',*,*,#338,.T.);
#249=ORIENTED_EDGE('',*,*,#339,.T.);
#250=ORIENTED_EDGE('',*,*,#337,.F.);
#251=ORIENTED_EDGE('',*,*,#340,.T.);
#252=ORIENTED_EDGE('',*,*,#339,.F.);
#253=ORIENTED_EDGE('',*,*,#341,.T.);
#254=ORIENTED_EDGE('',*,*,#340,.F.);
#255=ORIENTED_EDGE('',*,*,#342,.T.);
#256=ORIENTED_EDGE('',*,*,#341,.F.);
#257=ORIENTED_EDGE('',*,*,#343,.T.);
#258=ORIENTED_EDGE('',*,*,#342,.F.);
#259=ORIENTED_EDGE('',*,*,#344,.T.);
#260=ORIENTED_EDGE('',*,*,#343,.F.);
#261=ORIENTED_EDGE('',*,*,#345,.T.);
#262=ORIENTED_EDGE('',*,*,#344,.F.);
#263=ORIENTED_EDGE('',*,*,#346,.T.);
#264=ORIENTED_EDGE('',*,*,#345,.F.);
#265=ORIENTED_EDGE('',*,*,#347,.T.);
#266=ORIENTED_EDGE('',*,*,#346,.F.);
#267=ORIENTED_EDGE('',*,*,#348,.T.);
#268=ORIENTED_EDGE('',*,*,#347,.F.);
#269=ORIENTED_EDGE('',*,*,#349,.T.);
#270=ORIENTED_EDGE('',*,*,#348,.F.);
#271=ORIENTED_EDGE('',*,*,#338,.F.);
#272=ORIENTED_EDGE('',*,*,#350,.T.);
#273=ORIENTED_EDGE('',*,*,#349,.F.);
#274=ORIENTED_EDGE('',*,*,#351,.T.);
#275=ORIENTED_EDGE('',*,*,#350,.F.);
#276=ORIENTED_EDGE('',*,*,#352,.T.);
#277=ORIENTED_EDGE('',*,*,#351,.F.);
#278=ORIENTED_EDGE('',*,*,#353,.T.);
#279=ORIENTED_EDGE('',*,*,#352,.F.);
#280=ORIENTED_EDGE('',*,*,#354,.T.);
#281=ORIENTED_EDGE('',*,*,#353,.F.);
#282=ORIENTED_EDGE('',*,*,#355,.T.);
#283=ORIENTED_EDGE('',*,*,#354,.F.);
#284=ORIENTED_EDGE('',*,*,#356,.T.);
#285=ORIENTED_EDGE('',*,*,#355,.F.);
#286=ORIENTED_EDGE('',*,*,#356,.F.);
#287=ORIENTED_EDGE('',*,*,#357,.F.);
#288=ORIENTED_EDGE('',*,*,#358,.F.);
#289=ORIENTED_EDGE('',*,*,#359,.F.);
#290=ORIENTED_EDGE('',*,*,#360,.T.);
#291=ORIENTED_EDGE('',*,*,#361,.T.);
#292=ORIENTED_EDGE('',*,*,#358,.T.);
#293=ORIENTED_EDGE('',*,*,#362,.T.);
#294=ORIENTED_EDGE('',*,*,#361,.F.);
#295=ORIENTED_EDGE('',*,*,#363,.T.);
#296=ORIENTED_EDGE('',*,*,#362,.F.);
#297=ORIENTED_EDGE('',*,*,#359,.T.);
#298=ORIENTED_EDGE('',*,*,#363,.F.);
#299=ORIENTED_EDGE('',*,*,#364,.F.);
#300=ORIENTED_EDGE('',*,*,#357,.T.);
#301=ORIENTED_EDGE('',*,*,#364,.T.);
#302=ORIENTED_EDGE('',*,*,#365,.T.);
#303=ORIENTED_EDGE('',*,*,#365,.F.);
#304=ORIENTED_EDGE('',*,*,#366,.F.);
#305=ORIENTED_EDGE('',*,*,#360,.F.);
#306=ORIENTED_EDGE('',*,*,#366,.T.);
#307=VERTEX_POINT('',#591);
#308=VERTEX_POINT('',#593);
#309=VERTEX_POINT('',#596);
#310=VERTEX_POINT('',#599);
#311=VERTEX_POINT('',#602);
#312=VERTEX_POINT('',#605);
#313=VERTEX_POINT('',#608);
#314=VERTEX_POINT('',#611);
#315=VERTEX_POINT('',#614);
#316=VERTEX_POINT('',#617);
#317=VERTEX_POINT('',#620);
#318=VERTEX_POINT('',#623);
#319=VERTEX_POINT('',#626);
#320=VERTEX_POINT('',#630);
#321=VERTEX_POINT('',#633);
#322=VERTEX_POINT('',#636);
#323=VERTEX_POINT('',#639);
#324=VERTEX_POINT('',#642);
#325=VERTEX_POINT('',#645);
#326=VERTEX_POINT('',#648);
#327=VERTEX_POINT('',#652);
#328=VERTEX_POINT('',#655);
#329=VERTEX_POINT('',#658);
#330=VERTEX_POINT('',#660);
#331=VERTEX_POINT('',#664);
#332=VERTEX_POINT('',#668);
#333=VERTEX_POINT('',#672);
#334=VERTEX_POINT('',#678);
#335=VERTEX_POINT('',#682);
#336=VERTEX_POINT('',#686);
#337=EDGE_CURVE('',#307,#307,#367,.T.);
#338=EDGE_CURVE('',#308,#308,#368,.T.);
#339=EDGE_CURVE('',#309,#309,#369,.T.);
#340=EDGE_CURVE('',#310,#310,#370,.T.);
#341=EDGE_CURVE('',#311,#311,#371,.T.);
#342=EDGE_CURVE('',#312,#312,#372,.T.);
#343=EDGE_CURVE('',#313,#313,#373,.T.);
#344=EDGE_CURVE('',#314,#314,#374,.T.);
#345=EDGE_CURVE('',#315,#315,#375,.T.);
#346=EDGE_CURVE('',#316,#316,#376,.T.);
#347=EDGE_CURVE('',#317,#317,#377,.T.);
#348=EDGE_CURVE('',#318,#318,#378,.T.);
#349=EDGE_CURVE('',#319,#319,#379,.T.);
#350=EDGE_CURVE('',#320,#320,#380,.T.);
#351=EDGE_CURVE('',#321,#321,#381,.T.);
#352=EDGE_CURVE('',#322,#322,#382,.T.);
#353=EDGE_CURVE('',#323,#323,#383,.T.);
#354=EDGE_CURVE('',#324,#324,#384,.T.);
#355=EDGE_CURVE('',#325,#325,#385,.T.);
#356=EDGE_CURVE('',#326,#326,#386,.T.);
#357=EDGE_CURVE('',#327,#327,#387,.T.);
#358=EDGE_CURVE('',#328,#328,#388,.T.);
#359=EDGE_CURVE('',#329,#329,#389,.T.);
#360=EDGE_CURVE('',#330,#330,#390,.T.);
#361=EDGE_CURVE('',#331,#331,#391,.T.);
#362=EDGE_CURVE('',#332,#332,#392,.T.);
#363=EDGE_CURVE('',#333,#333,#394,.T.);
#364=EDGE_CURVE('',#334,#334,#396,.T.);
#365=EDGE_CURVE('',#335,#335,#398,.T.);
#366=EDGE_CURVE('',#336,#336,#399,.T.);
#367=CIRCLE('',#402,19.75);
#368=CIRCLE('',#403,18.75);
#369=CIRCLE('',#405,19.7499999999998);
#370=CIRCLE('',#407,19.8103073792139);
#371=CIRCLE('',#409,20.);
#372=CIRCLE('',#411,20.);
#373=CIRCLE('',#413,19.7636296694843);
#374=CIRCLE('',#415,19.75);
#375=CIRCLE('',#417,19.75);
#376=CIRCLE('',#419,20.205669240384);
#377=CIRCLE('',#421,21.);
#378=CIRCLE('',#423,26.3);
#379=CIRCLE('',#425,27.);
#380=CIRCLE('',#428,27.);
#381=CIRCLE('',#430,26.9516097302997);
#382=CIRCLE('',#432,23.0806504495005);
#383=CIRCLE('',#434,23.);
#384=CIRCLE('',#436,23.);
#385=CIRCLE('',#438,22.6145579777112);
#386=CIRCLE('',#440,20.6172989082021);
#387=CIRCLE('',#443,9.95219043809141);
#388=CIRCLE('',#445,11.1662498674738);
#389=CIRCLE('',#447,22.4007163494186);
#390=CIRCLE('',#448,12.6476564080454);
#391=CIRCLE('',#449,21.2819559095469);
#392=CIRCLE('',#450,22.5687492309658);
#393=CIRCLE('',#451,1.2);
#394=CIRCLE('',#452,23.5000157193351);
#395=CIRCLE('',#453,1.2);
#396=CIRCLE('',#454,10.6056098437725);
#397=CIRCLE('',#455,1.2);
#398=CIRCLE('',#456,11.0228945183938);
#399=CIRCLE('',#457,11.8426103920712);
#400=CIRCLE('',#458,1.2);
#401=AXIS2_PLACEMENT_3D('',#589,#459,#460);
#402=AXIS2_PLACEMENT_3D('',#590,#461,#462);
#403=AXIS2_PLACEMENT_3D('',#592,#463,#464);
#404=AXIS2_PLACEMENT_3D('',#594,#465,#466);
#405=AXIS2_PLACEMENT_3D('',#595,#467,#468);
#406=AXIS2_PLACEMENT_3D('',#597,#469,#470);
#407=AXIS2_PLACEMENT_3D('',#598,#471,#472);
#408=AXIS2_PLACEMENT_3D('',#600,#473,#474);
#409=AXIS2_PLACEMENT_3D('',#601,#475,#476);
#410=AXIS2_PLACEMENT_3D('',#603,#477,#478);
#411=AXIS2_PLACEMENT_3D('',#604,#479,#480);
#412=AXIS2_PLACEMENT_3D('',#606,#481,#482);
#413=AXIS2_PLACEMENT_3D('',#607,#483,#484);
#414=AXIS2_PLACEMENT_3D('',#609,#485,#486);
#415=AXIS2_PLACEMENT_3D('',#610,#487,#488);
#416=AXIS2_PLACEMENT_3D('',#612,#489,#490);
#417=AXIS2_PLACEMENT_3D('',#613,#491,#492);
#418=AXIS2_PLACEMENT_3D('',#615,#493,#494);
#419=AXIS2_PLACEMENT_3D('',#616,#495,#496);
#420=AXIS2_PLACEMENT_3D('',#618,#497,#498);
#421=AXIS2_PLACEMENT_3D('',#619,#499,#500);
#422=AXIS2_PLACEMENT_3D('',#621,#501,#502);
#423=AXIS2_PLACEMENT_3D('',#622,#503,#504);
#424=AXIS2_PLACEMENT_3D('',#624,#505,#506);
#425=AXIS2_PLACEMENT_3D('',#625,#507,#508);
#426=AXIS2_PLACEMENT_3D('',#627,#509,#510);
#427=AXIS2_PLACEMENT_3D('',#628,#511,#512);
#428=AXIS2_PLACEMENT_3D('',#629,#513,#514);
#429=AXIS2_PLACEMENT_3D('',#631,#515,#516);
#430=AXIS2_PLACEMENT_3D('',#632,#517,#518);
#431=AXIS2_PLACEMENT_3D('',#634,#519,#520);
#432=AXIS2_PLACEMENT_3D('',#635,#521,#522);
#433=AXIS2_PLACEMENT_3D('',#637,#523,#524);
#434=AXIS2_PLACEMENT_3D('',#638,#525,#526);
#435=AXIS2_PLACEMENT_3D('',#640,#527,#528);
#436=AXIS2_PLACEMENT_3D('',#641,#529,#530);
#437=AXIS2_PLACEMENT_3D('',#643,#531,#532);
#438=AXIS2_PLACEMENT_3D('',#644,#533,#534);
#439=AXIS2_PLACEMENT_3D('',#646,#535,#536);
#440=AXIS2_PLACEMENT_3D('',#647,#537,#538);
#441=AXIS2_PLACEMENT_3D('',#649,#539,#540);
#442=AXIS2_PLACEMENT_3D('',#650,#541,#542);
#443=AXIS2_PLACEMENT_3D('',#651,#543,#544);
#444=AXIS2_PLACEMENT_3D('',#653,#545,#546);
#445=AXIS2_PLACEMENT_3D('',#654,#547,#548);
#446=AXIS2_PLACEMENT_3D('',#656,#549,#550);
#447=AXIS2_PLACEMENT_3D('',#657,#551,#552);
#448=AXIS2_PLACEMENT_3D('',#659,#553,#554);
#449=AXIS2_PLACEMENT_3D('',#663,#557,#558);
#450=AXIS2_PLACEMENT_3D('',#667,#561,#562);
#451=AXIS2_PLACEMENT_3D('',#669,#563,#564);
#452=AXIS2_PLACEMENT_3D('',#671,#566,#567);
#453=AXIS2_PLACEMENT_3D('',#675,#570,#571);
#454=AXIS2_PLACEMENT_3D('',#677,#573,#574);
#455=AXIS2_PLACEMENT_3D('',#679,#575,#576);
#456=AXIS2_PLACEMENT_3D('',#681,#578,#579);
#457=AXIS2_PLACEMENT_3D('',#685,#582,#583);
#458=AXIS2_PLACEMENT_3D('',#689,#586,#587);
#459=DIRECTION('',(0.,0.,1.));
#460=DIRECTION('',(1.,0.,0.));
#461=DIRECTION('',(1.,0.,0.));
#462=DIRECTION('',(0.,0.,1.));
#463=DIRECTION('',(-1.,0.,0.));
#464=DIRECTION('',(0.,0.,1.));
#465=DIRECTION('',(-1.,0.,0.));
#466=DIRECTION('',(0.,0.,1.));
#467=DIRECTION('',(1.,0.,0.));
#468=DIRECTION('',(0.,0.,1.));
#469=DIRECTION('',(-1.,0.,0.));
#470=DIRECTION('',(0.,0.,1.));
#471=DIRECTION('',(1.,0.,0.));
#472=DIRECTION('',(0.,0.,1.));
#473=DIRECTION('',(-1.,0.,0.));
#474=DIRECTION('',(0.,0.,1.));
#475=DIRECTION('',(1.,0.,0.));
#476=DIRECTION('',(0.,0.,1.));
#477=DIRECTION('',(-1.,0.,0.));
#478=DIRECTION('',(1.44642953999852E-16,0.,1.));
#479=DIRECTION('',(1.,0.,0.));
#480=DIRECTION('',(0.,0.,1.));
#481=DIRECTION('',(-1.,0.,0.));
#482=DIRECTION('',(0.,0.,1.));
#483=DIRECTION('',(1.,0.,0.));
#484=DIRECTION('',(0.,0.,1.));
#485=DIRECTION('',(1.,0.,0.));
#486=DIRECTION('',(3.85562124780321E-16,0.,-1.));
#487=DIRECTION('',(1.,0.,0.));
#488=DIRECTION('',(0.,0.,1.));
#489=DIRECTION('',(-1.,0.,0.));
#490=DIRECTION('',(0.,0.,1.));
#491=DIRECTION('',(1.,0.,0.));
#492=DIRECTION('',(0.,0.,1.));
#493=DIRECTION('',(-1.,0.,0.));
#494=DIRECTION('',(0.,0.,1.));
#495=DIRECTION('',(1.,0.,0.));
#496=DIRECTION('',(0.,0.,1.));
#497=DIRECTION('',(-1.,0.,0.));
#498=DIRECTION('',(0.,0.,1.));
#499=DIRECTION('',(1.,0.,0.));
#500=DIRECTION('',(0.,0.,1.));
#501=DIRECTION('',(1.,0.,0.));
#502=DIRECTION('',(1.1669237906818E-17,0.,-1.));
#503=DIRECTION('',(1.,0.,0.));
#504=DIRECTION('',(0.,0.,1.));
#505=DIRECTION('',(-1.,0.,0.));
#506=DIRECTION('',(0.,0.,1.));
#507=DIRECTION('',(1.,0.,0.));
#508=DIRECTION('',(0.,0.,1.));
#509=DIRECTION('',(-1.,0.,0.));
#510=DIRECTION('',(0.,0.,1.));
#511=DIRECTION('',(-1.,0.,0.));
#512=DIRECTION('',(0.,0.,1.));
#513=DIRECTION('',(1.,0.,0.));
#514=DIRECTION('',(0.,0.,1.));
#515=DIRECTION('',(-1.,0.,0.));
#516=DIRECTION('',(0.,0.,1.));
#517=DIRECTION('',(1.,0.,0.));
#518=DIRECTION('',(0.,0.,1.));
#519=DIRECTION('',(-1.,0.,0.));
#520=DIRECTION('',(0.,0.,1.));
#521=DIRECTION('',(1.,0.,0.));
#522=DIRECTION('',(0.,0.,1.));
#523=DIRECTION('',(1.,0.,0.));
#524=DIRECTION('',(0.,0.,-1.));
#525=DIRECTION('',(1.,0.,0.));
#526=DIRECTION('',(0.,0.,1.));
#527=DIRECTION('',(-1.,0.,0.));
#528=DIRECTION('',(0.,0.,1.));
#529=DIRECTION('',(1.,0.,0.));
#530=DIRECTION('',(0.,0.,1.));
#531=DIRECTION('',(-1.,0.,0.));
#532=DIRECTION('',(0.,0.,1.));
#533=DIRECTION('',(1.,0.,0.));
#534=DIRECTION('',(0.,0.,1.));
#535=DIRECTION('',(1.,0.,0.));
#536=DIRECTION('',(-1.28825587463688E-15,0.,-1.));
#537=DIRECTION('',(1.,0.,0.));
#538=DIRECTION('',(0.,0.,1.));
#539=DIRECTION('',(-1.,0.,0.));
#540=DIRECTION('',(0.,0.,1.));
#541=DIRECTION('',(1.,0.,0.));
#542=DIRECTION('',(0.,0.,-1.));
#543=DIRECTION('',(1.,0.,0.));
#544=DIRECTION('',(0.,0.,-1.));
#545=DIRECTION('',(1.,0.,0.));
#546=DIRECTION('',(0.,0.,-1.));
#547=DIRECTION('',(-1.,0.,0.));
#548=DIRECTION('',(0.,0.,-1.));
#549=DIRECTION('',(1.,0.,0.));
#550=DIRECTION('',(0.,0.,-1.));
#551=DIRECTION('',(1.,0.,0.));
#552=DIRECTION('',(0.,0.,-1.));
#553=DIRECTION('',(1.,0.,0.));
#554=DIRECTION('',(0.,0.,-1.));
#555=DIRECTION('',(-0.078459095727846,0.989486463101343,-0.121493660891267));
#556=DIRECTION('',(1.,0.,0.));
#557=DIRECTION('',(1.,0.,0.));
#558=DIRECTION('',(0.,0.,-1.));
#559=DIRECTION('',(0.0784590957278457,-0.989486463101343,0.121493660891267));
#560=DIRECTION('',(1.,0.,0.));
#561=DIRECTION('',(1.,0.,0.));
#562=DIRECTION('',(0.,0.,-1.));
#563=DIRECTION('',(5.27355936696949E-16,-0.121869343405148,-0.992546151641322));
#564=DIRECTION('',(0.996917333733128,0.0778742735259316,-0.00956175848051369));
#565=DIRECTION('',(1.,0.,0.));
#566=DIRECTION('',(1.,0.,0.));
#567=DIRECTION('',(0.,0.,-1.));
#568=DIRECTION('',(-0.996917333733128,-0.0778742735259314,0.00956175848051366));
#569=DIRECTION('',(1.,0.,0.));
#570=DIRECTION('',(5.27355936696949E-16,-0.121869343405148,-0.992546151641322));
#571=DIRECTION('',(0.996917333733128,0.0778742735259316,-0.00956175848051369));
#572=DIRECTION('',(1.,0.,0.));
#573=DIRECTION('',(1.,0.,0.));
#574=DIRECTION('',(0.,0.,-1.));
#575=DIRECTION('',(5.27355936696949E-16,-0.121869343405148,-0.992546151641322));
#576=DIRECTION('',(0.996917333733128,0.0778742735259316,-0.00956175848051369));
#577=DIRECTION('',(1.,0.,0.));
#578=DIRECTION('',(-1.,0.,0.));
#579=DIRECTION('',(0.,0.,-1.));
#580=DIRECTION('',(-0.078459095727846,0.989486463101343,-0.121493660891267));
#581=DIRECTION('',(1.,0.,0.));
#582=DIRECTION('',(1.,0.,0.));
#583=DIRECTION('',(0.,0.,-1.));
#584=DIRECTION('',(-0.0984513622388925,0.995141863893438,7.97207479768753E-18));
#585=DIRECTION('',(1.,0.,0.));
#586=DIRECTION('',(-6.68318547941323E-16,-5.77745034921822E-17,-1.));
#587=DIRECTION('',(0.995141863893438,0.0984513622388924,-6.70759744044365E-16));
#588=DIRECTION('',(1.,0.,0.));
#589=CARTESIAN_POINT('',(0.,0.,0.));
#590=CARTESIAN_POINT('',(195.,0.,0.));
#591=CARTESIAN_POINT('',(195.,0.,19.75));
#592=CARTESIAN_POINT('',(196.,0.,0.));
#593=CARTESIAN_POINT('',(196.,0.,18.75));
#594=CARTESIAN_POINT('',(195.,0.,0.));
#595=CARTESIAN_POINT('',(193.176326980709,0.,0.));
#596=CARTESIAN_POINT('',(193.176326980709,0.,19.7499999999998));
#597=CARTESIAN_POINT('',(0.,0.,0.));
#598=CARTESIAN_POINT('',(192.834306837383,0.,0.));
#599=CARTESIAN_POINT('',(192.834306837383,0.,19.8103073792139));
#600=CARTESIAN_POINT('',(193.176326980709,0.,0.));
#601=CARTESIAN_POINT('',(192.313130645136,0.,0.));
#602=CARTESIAN_POINT('',(192.313130645136,0.,20.));
#603=CARTESIAN_POINT('',(192.834306837383,0.,0.));
#604=CARTESIAN_POINT('',(128.,0.,0.));
#605=CARTESIAN_POINT('',(128.,0.,20.));
#606=CARTESIAN_POINT('',(0.,0.,0.));
#607=CARTESIAN_POINT('',(127.117853917114,0.,0.));
#608=CARTESIAN_POINT('',(127.117853917114,0.,19.7636296694843));
#609=CARTESIAN_POINT('',(128.,0.,0.));
#610=CARTESIAN_POINT('',(127.014326299073,0.,0.));
#611=CARTESIAN_POINT('',(127.014326299073,0.,19.75));
#612=CARTESIAN_POINT('',(127.014326299073,0.,0.));
#613=CARTESIAN_POINT('',(126.28447131951,0.,0.));
#614=CARTESIAN_POINT('',(126.28447131951,0.,19.75));
#615=CARTESIAN_POINT('',(0.,0.,0.));
#616=CARTESIAN_POINT('',(125.888364092014,0.,0.));
#617=CARTESIAN_POINT('',(125.888364092014,0.,20.205669240384));
#618=CARTESIAN_POINT('',(126.28447131951,0.,0.));
#619=CARTESIAN_POINT('',(126.,0.,0.));
#620=CARTESIAN_POINT('',(126.,0.,21.));
#621=CARTESIAN_POINT('',(125.888364092014,0.,0.));
#622=CARTESIAN_POINT('',(126.,0.,0.));
#623=CARTESIAN_POINT('',(126.,0.,26.3));
#624=CARTESIAN_POINT('',(126.,21.,0.));
#625=CARTESIAN_POINT('',(125.587298334621,0.,0.));
#626=CARTESIAN_POINT('',(125.587298334621,0.,27.));
#627=CARTESIAN_POINT('',(125.2,0.,0.));
#628=CARTESIAN_POINT('',(196.,27.5,0.));
#629=CARTESIAN_POINT('',(121.270509831248,0.,0.));
#630=CARTESIAN_POINT('',(121.270509831248,0.,27.));
#631=CARTESIAN_POINT('',(0.,0.,0.));
#632=CARTESIAN_POINT('',(120.733853516648,0.,0.));
#633=CARTESIAN_POINT('',(120.733853516648,0.,26.9516097302997));
#634=CARTESIAN_POINT('',(121.270509831248,0.,0.));
#635=CARTESIAN_POINT('',(99.4435774722525,0.,0.));
#636=CARTESIAN_POINT('',(99.4435774722525,0.,23.0806504495005));
#637=CARTESIAN_POINT('',(120.733853516648,0.,0.));
#638=CARTESIAN_POINT('',(98.5491502812526,0.,0.));
#639=CARTESIAN_POINT('',(98.5491502812526,0.,23.));
#640=CARTESIAN_POINT('',(98.5491502812526,0.,0.));
#641=CARTESIAN_POINT('',(11.,0.,0.));
#642=CARTESIAN_POINT('',(11.,0.,23.));
#643=CARTESIAN_POINT('',(0.,0.,0.));
#644=CARTESIAN_POINT('',(3.64532808751411,0.,0.));
#645=CARTESIAN_POINT('',(3.64532808751411,0.,22.6145579777112));
#646=CARTESIAN_POINT('',(11.,0.,0.));
#647=CARTESIAN_POINT('',(1.75,0.,0.));
#648=CARTESIAN_POINT('',(1.75,0.,20.6172989082021));
#649=CARTESIAN_POINT('',(3.75,0.,0.));
#650=CARTESIAN_POINT('',(1.75,20.6172989082021,0.));
#651=CARTESIAN_POINT('',(0.192860700836493,0.,0.));
#652=CARTESIAN_POINT('',(0.192860700836493,0.,-9.95219043809141));
#653=CARTESIAN_POINT('',(0.192860700836493,0.,0.));
#654=CARTESIAN_POINT('',(14.4425564795679,0.,0.));
#655=CARTESIAN_POINT('',(14.4425564795679,0.,-11.1662498674738));
#656=CARTESIAN_POINT('',(14.4425564795679,0.,0.));
#657=CARTESIAN_POINT('',(0.987362438681524,0.,0.));
#658=CARTESIAN_POINT('',(0.987362438681524,0.,-22.4007163494186));
#659=CARTESIAN_POINT('',(0.216066339339198,0.,0.));
#660=CARTESIAN_POINT('',(0.216066339339198,0.,-12.6476564080454));
#661=CARTESIAN_POINT('',(0.987362438681523,-21.9724441524786,4.3593337717267));
#662=CARTESIAN_POINT('',(11.,0.,0.));
#663=CARTESIAN_POINT('',(15.2432803110652,0.,0.));
#664=CARTESIAN_POINT('',(15.2432803110652,0.,-21.2819559095469));
#665=CARTESIAN_POINT('',(14.442556479568,-10.7605177537443,2.98268231198242));
#666=CARTESIAN_POINT('',(11.,0.,0.));
#667=CARTESIAN_POINT('',(14.1411304254589,0.,0.));
#668=CARTESIAN_POINT('',(14.1411304254589,0.,-22.5687492309658));
#669=CARTESIAN_POINT('',(14.0469795105855,-20.9522911692889,4.23407473563197));
#670=CARTESIAN_POINT('',(11.,0.,0.));
#671=CARTESIAN_POINT('',(2.27781415403469,0.,0.));
#672=CARTESIAN_POINT('',(2.27781415403469,0.,-23.5000157193351));
#673=CARTESIAN_POINT('',(14.1411304254589,-22.1396749250105,4.37986712870149));
#674=CARTESIAN_POINT('',(11.,0.,0.));
#675=CARTESIAN_POINT('',(2.18366323916128,-21.8789950242475,4.34785966155008));
#676=CARTESIAN_POINT('',(11.,0.,0.));
#677=CARTESIAN_POINT('',(0.0536991995201547,0.,0.));
#678=CARTESIAN_POINT('',(0.0536991995201547,0.,-10.6056098437725));
#679=CARTESIAN_POINT('',(1.24999999999992,-10.1041061133415,2.902085096944));
#680=CARTESIAN_POINT('',(11.,0.,0.));
#681=CARTESIAN_POINT('',(0.0869289900923224,0.,0.));
#682=CARTESIAN_POINT('',(0.0869289900923224,0.,-11.0228945183938));
#683=CARTESIAN_POINT('',(0.0869289900923223,-10.6166325663599,2.96501543242899));
#684=CARTESIAN_POINT('',(11.,0.,0.));
#685=CARTESIAN_POINT('',(0.00582976332789455,0.,0.));
#686=CARTESIAN_POINT('',(0.00582976332789455,0.,-11.8426103920712));
#687=CARTESIAN_POINT('',(0.0869289900923228,11.0224409076953,0.0999999999999824));
#688=CARTESIAN_POINT('',(11.,0.,0.));
#689=CARTESIAN_POINT('',(1.20000000000002,11.9603298150186,0.0999999999999816));
#690=CARTESIAN_POINT('',(11.,0.,0.));
#691=(
GEOMETRIC_REPRESENTATION_CONTEXT(3)
GLOBAL_UNCERTAINTY_ASSIGNED_CONTEXT((#692))
GLOBAL_UNIT_ASSIGNED_CONTEXT((#698,#694,#693))
REPRESENTATION_CONTEXT('ATUM-47XD2-SP-140512-light',
'TOP_LEVEL_ASSEMBLY_PART')
);
#692=UNCERTAINTY_MEASURE_WITH_UNIT(LENGTH_MEASURE(2.E-5),#698,
'DISTANCE_ACCURACY_VALUE','Maximum Tolerance applied to model');
#693=(
NAMED_UNIT(*)
SI_UNIT($,.STERADIAN.)
SOLID_ANGLE_UNIT()
);
#694=(
CONVERSION_BASED_UNIT('DEGREE',#696)
NAMED_UNIT(#695)
PLANE_ANGLE_UNIT()
);
#695=DIMENSIONAL_EXPONENTS(0.,0.,0.,0.,0.,0.,0.);
#696=PLANE_ANGLE_MEASURE_WITH_UNIT(PLANE_ANGLE_MEASURE(0.0174532925),#697);
#697=(
NAMED_UNIT(*)
PLANE_ANGLE_UNIT()
SI_UNIT($,.RADIAN.)
);
#698=(
LENGTH_UNIT()
NAMED_UNIT(*)
SI_UNIT(.MILLI.,.METRE.)
);
ENDSEC;
END-ISO-10303-21;
