ISO-10303-21;
HEADER;
/* Generated by software containing ST-Developer
 * from STEP Tools, Inc. (www.steptools.com) 
 */
/* OPTION: using custom schema-name function */

FILE_DESCRIPTION(
/* description */ (''),
/* implementation_level */ '2;1');

FILE_NAME(
/* name */ 'ATUM-49XD3-SP-140512-light.stp',
/* time_stamp */ '2023-10-11T23:08:14+03:00',
/* author */ (''),
/* organization */ (''),
/* preprocessor_version */ 'ST-DEVELOPER v19.4',
/* originating_system */ 'SIEMENS PLM Software NX2306.3001',
/* authorisation */ '');

FILE_SCHEMA (('AUTOMOTIVE_DESIGN { 1 0 10303 214 3 1 1 1 }'));
ENDSEC;

DATA;
#10=SHAPE_REPRESENTATION_RELATIONSHIP('None',
'relationship between STP_ATUM 42XD3 SP.. 140512-None and STP_ATUM 42X
D3 SP.. 140512-None',#22,#11);
#11=ADVANCED_BREP_SHAPE_REPRESENTATION(
'STP_ATUM 42XD3 SP.. 140512-None',(#62,#63),#644);
#12=SHAPE_DEFINITION_REPRESENTATION(#13,#22);
#13=PRODUCT_DEFINITION_SHAPE('','',#14);
#14=PRODUCT_DEFINITION(' ','',#16,#15);
#15=PRODUCT_DEFINITION_CONTEXT('part definition',#21,'design');
#16=PRODUCT_DEFINITION_FORMATION_WITH_SPECIFIED_SOURCE(' ',' ',#18,
 .NOT_KNOWN.);
#17=PRODUCT_RELATED_PRODUCT_CATEGORY('part','',(#18));
#18=PRODUCT('STP_ATUM 42XD3 SP.. 140512','STP_ATUM 42XD3 SP.. 140512',
' ',(#19));
#19=PRODUCT_CONTEXT(' ',#21,'mechanical');
#20=APPLICATION_PROTOCOL_DEFINITION('international standard',
'automotive_design',2010,#21);
#21=APPLICATION_CONTEXT(
'core data for automotive mechanical design processes');
#22=SHAPE_REPRESENTATION('STP_ATUM 42XD3 SP.. 140512-None',(#374),#644);
#23=DRAUGHTING_PRE_DEFINED_COLOUR('yellow');
#24=LINE('',#624,#28);
#25=LINE('',#628,#29);
#26=LINE('',#632,#30);
#27=LINE('',#640,#31);
#28=VECTOR('',#528,11.9000000000001);
#29=VECTOR('',#532,10.9971407101641);
#30=VECTOR('',#536,10.7660031412579);
#31=VECTOR('',#545,11.9);
#32=SURFACE_OF_REVOLUTION('',#367,#39);
#33=SURFACE_OF_REVOLUTION('',#24,#40);
#34=SURFACE_OF_REVOLUTION('',#25,#41);
#35=SURFACE_OF_REVOLUTION('',#26,#42);
#36=SURFACE_OF_REVOLUTION('',#371,#43);
#37=SURFACE_OF_REVOLUTION('',#27,#44);
#38=SURFACE_OF_REVOLUTION('',#373,#45);
#39=AXIS1_PLACEMENT('',#623,#527);
#40=AXIS1_PLACEMENT('',#625,#529);
#41=AXIS1_PLACEMENT('',#629,#533);
#42=AXIS1_PLACEMENT('',#633,#537);
#43=AXIS1_PLACEMENT('',#637,#542);
#44=AXIS1_PLACEMENT('',#641,#546);
#45=AXIS1_PLACEMENT('',#643,#549);
#46=PRESENTATION_LAYER_ASSIGNMENT('1','Layer 1',(#62,#63));
#47=STYLED_ITEM('',(#49),#62);
#48=STYLED_ITEM('',(#50),#63);
#49=PRESENTATION_STYLE_ASSIGNMENT((#51));
#50=PRESENTATION_STYLE_ASSIGNMENT((#52));
#51=SURFACE_STYLE_USAGE(.BOTH.,#53);
#52=SURFACE_STYLE_USAGE(.BOTH.,#54);
#53=SURFACE_SIDE_STYLE('',(#55));
#54=SURFACE_SIDE_STYLE('',(#56));
#55=SURFACE_STYLE_FILL_AREA(#57);
#56=SURFACE_STYLE_FILL_AREA(#58);
#57=FILL_AREA_STYLE('',(#59));
#58=FILL_AREA_STYLE('',(#60));
#59=FILL_AREA_STYLE_COLOUR('',#61);
#60=FILL_AREA_STYLE_COLOUR('',#23);
#61=COLOUR_RGB('smoke gray',0.694117647058824,0.694117647058824,0.694117647058824);
#62=MANIFOLD_SOLID_BREP('',#64);
#63=MANIFOLD_SOLID_BREP('',#65);
#64=CLOSED_SHELL('',(#85,#86,#87,#88,#89,#90,#91,#92,#93,#94,#95,#96,#97,
#98,#99,#100,#101,#102,#103,#104,#105));
#65=CLOSED_SHELL('',(#106,#107,#108,#109,#110,#111,#112,#113,#114));
#66=FACE_OUTER_BOUND('',#199,.T.);
#67=FACE_OUTER_BOUND('',#214,.T.);
#68=FACE_OUTER_BOUND('',#215,.T.);
#69=FACE_OUTER_BOUND('',#216,.T.);
#70=PLANE('',#397);
#71=PLANE('',#400);
#72=PLANE('',#415);
#73=PLANE('',#417);
#74=PLANE('',#419);
#75=CONICAL_SURFACE('',#383,19.810307379214,20.0000000000019);
#76=CONICAL_SURFACE('',#387,20.,15.);
#77=CONICAL_SURFACE('',#395,20.205669240384,82.0000000000023);
#78=CONICAL_SURFACE('',#406,26.9724905041329,7.76516601842534);
#79=CONICAL_SURFACE('',#412,24.,3.00000000000002);
#80=CYLINDRICAL_SURFACE('',#379,19.7500000000002);
#81=CYLINDRICAL_SURFACE('',#385,20.);
#82=CYLINDRICAL_SURFACE('',#391,19.75);
#83=CYLINDRICAL_SURFACE('',#402,27.);
#84=CYLINDRICAL_SURFACE('',#410,24.);
#85=ADVANCED_FACE('',(#123,#124),#115,.T.);
#86=ADVANCED_FACE('',(#125,#126),#80,.T.);
#87=ADVANCED_FACE('',(#127,#128),#116,.F.);
#88=ADVANCED_FACE('',(#129,#130),#75,.T.);
#89=ADVANCED_FACE('',(#131,#132),#81,.T.);
#90=ADVANCED_FACE('',(#133,#134),#76,.T.);
#91=ADVANCED_FACE('',(#135,#136),#117,.F.);
#92=ADVANCED_FACE('',(#137,#138),#82,.T.);
#93=ADVANCED_FACE('',(#139,#140),#118,.F.);
#94=ADVANCED_FACE('',(#141,#142),#77,.F.);
#95=ADVANCED_FACE('',(#143,#144),#70,.F.);
#96=ADVANCED_FACE('',(#145,#146),#119,.T.);
#97=ADVANCED_FACE('',(#66),#71,.F.);
#98=ADVANCED_FACE('',(#147,#148),#83,.T.);
#99=ADVANCED_FACE('',(#149,#150),#120,.T.);
#100=ADVANCED_FACE('',(#151,#152),#78,.T.);
#101=ADVANCED_FACE('',(#153,#154),#121,.F.);
#102=ADVANCED_FACE('',(#155,#156),#84,.T.);
#103=ADVANCED_FACE('',(#157,#158),#79,.T.);
#104=ADVANCED_FACE('',(#159,#160),#122,.T.);
#105=ADVANCED_FACE('',(#67),#72,.F.);
#106=ADVANCED_FACE('',(#68),#73,.F.);
#107=ADVANCED_FACE('',(#69),#74,.T.);
#108=ADVANCED_FACE('',(#161,#162),#32,.T.);
#109=ADVANCED_FACE('',(#163,#164),#33,.T.);
#110=ADVANCED_FACE('',(#165,#166),#34,.F.);
#111=ADVANCED_FACE('',(#167,#168),#35,.F.);
#112=ADVANCED_FACE('',(#169,#170),#36,.F.);
#113=ADVANCED_FACE('',(#171,#172),#37,.F.);
#114=ADVANCED_FACE('',(#173,#174),#38,.F.);
#115=TOROIDAL_SURFACE('',#377,18.7500000000003,1.);
#116=TOROIDAL_SURFACE('',#381,20.75,1.00000000000002);
#117=TOROIDAL_SURFACE('',#389,20.15,0.399999999999999);
#118=TOROIDAL_SURFACE('',#393,20.15,0.399999999999971);
#119=TOROIDAL_SURFACE('',#399,26.3,0.800000000000011);
#120=TOROIDAL_SURFACE('',#404,24.,3.);
#121=TOROIDAL_SURFACE('',#408,29.,5.);
#122=TOROIDAL_SURFACE('',#414,21.6146785192379,2.);
#123=FACE_BOUND('',#175,.T.);
#124=FACE_BOUND('',#176,.T.);
#125=FACE_BOUND('',#177,.T.);
#126=FACE_BOUND('',#178,.T.);
#127=FACE_BOUND('',#179,.T.);
#128=FACE_BOUND('',#180,.T.);
#129=FACE_BOUND('',#181,.T.);
#130=FACE_BOUND('',#182,.T.);
#131=FACE_BOUND('',#183,.T.);
#132=FACE_BOUND('',#184,.T.);
#133=FACE_BOUND('',#185,.T.);
#134=FACE_BOUND('',#186,.T.);
#135=FACE_BOUND('',#187,.T.);
#136=FACE_BOUND('',#188,.T.);
#137=FACE_BOUND('',#189,.T.);
#138=FACE_BOUND('',#190,.T.);
#139=FACE_BOUND('',#191,.T.);
#140=FACE_BOUND('',#192,.T.);
#141=FACE_BOUND('',#193,.T.);
#142=FACE_BOUND('',#194,.T.);
#143=FACE_BOUND('',#195,.T.);
#144=FACE_BOUND('',#196,.T.);
#145=FACE_BOUND('',#197,.T.);
#146=FACE_BOUND('',#198,.T.);
#147=FACE_BOUND('',#200,.T.);
#148=FACE_BOUND('',#201,.T.);
#149=FACE_BOUND('',#202,.T.);
#150=FACE_BOUND('',#203,.T.);
#151=FACE_BOUND('',#204,.T.);
#152=FACE_BOUND('',#205,.T.);
#153=FACE_BOUND('',#206,.T.);
#154=FACE_BOUND('',#207,.T.);
#155=FACE_BOUND('',#208,.T.);
#156=FACE_BOUND('',#209,.T.);
#157=FACE_BOUND('',#210,.T.);
#158=FACE_BOUND('',#211,.T.);
#159=FACE_BOUND('',#212,.T.);
#160=FACE_BOUND('',#213,.T.);
#161=FACE_BOUND('',#217,.T.);
#162=FACE_BOUND('',#218,.T.);
#163=FACE_BOUND('',#219,.T.);
#164=FACE_BOUND('',#220,.T.);
#165=FACE_BOUND('',#221,.T.);
#166=FACE_BOUND('',#222,.T.);
#167=FACE_BOUND('',#223,.T.);
#168=FACE_BOUND('',#224,.T.);
#169=FACE_BOUND('',#225,.T.);
#170=FACE_BOUND('',#226,.T.);
#171=FACE_BOUND('',#227,.T.);
#172=FACE_BOUND('',#228,.T.);
#173=FACE_BOUND('',#229,.T.);
#174=FACE_BOUND('',#230,.T.);
#175=EDGE_LOOP('',(#231));
#176=EDGE_LOOP('',(#232));
#177=EDGE_LOOP('',(#233));
#178=EDGE_LOOP('',(#234));
#179=EDGE_LOOP('',(#235));
#180=EDGE_LOOP('',(#236));
#181=EDGE_LOOP('',(#237));
#182=EDGE_LOOP('',(#238));
#183=EDGE_LOOP('',(#239));
#184=EDGE_LOOP('',(#240));
#185=EDGE_LOOP('',(#241));
#186=EDGE_LOOP('',(#242));
#187=EDGE_LOOP('',(#243));
#188=EDGE_LOOP('',(#244));
#189=EDGE_LOOP('',(#245));
#190=EDGE_LOOP('',(#246));
#191=EDGE_LOOP('',(#247));
#192=EDGE_LOOP('',(#248));
#193=EDGE_LOOP('',(#249));
#194=EDGE_LOOP('',(#250));
#195=EDGE_LOOP('',(#251));
#196=EDGE_LOOP('',(#252));
#197=EDGE_LOOP('',(#253));
#198=EDGE_LOOP('',(#254));
#199=EDGE_LOOP('',(#255));
#200=EDGE_LOOP('',(#256));
#201=EDGE_LOOP('',(#257));
#202=EDGE_LOOP('',(#258));
#203=EDGE_LOOP('',(#259));
#204=EDGE_LOOP('',(#260));
#205=EDGE_LOOP('',(#261));
#206=EDGE_LOOP('',(#262));
#207=EDGE_LOOP('',(#263));
#208=EDGE_LOOP('',(#264));
#209=EDGE_LOOP('',(#265));
#210=EDGE_LOOP('',(#266));
#211=EDGE_LOOP('',(#267));
#212=EDGE_LOOP('',(#268));
#213=EDGE_LOOP('',(#269));
#214=EDGE_LOOP('',(#270));
#215=EDGE_LOOP('',(#271));
#216=EDGE_LOOP('',(#272));
#217=EDGE_LOOP('',(#273));
#218=EDGE_LOOP('',(#274));
#219=EDGE_LOOP('',(#275));
#220=EDGE_LOOP('',(#276));
#221=EDGE_LOOP('',(#277));
#222=EDGE_LOOP('',(#278));
#223=EDGE_LOOP('',(#279));
#224=EDGE_LOOP('',(#280));
#225=EDGE_LOOP('',(#281));
#226=EDGE_LOOP('',(#282));
#227=EDGE_LOOP('',(#283));
#228=EDGE_LOOP('',(#284));
#229=EDGE_LOOP('',(#285));
#230=EDGE_LOOP('',(#286));
#231=ORIENTED_EDGE('',*,*,#315,.T.);
#232=ORIENTED_EDGE('',*,*,#316,.T.);
#233=ORIENTED_EDGE('',*,*,#317,.T.);
#234=ORIENTED_EDGE('',*,*,#315,.F.);
#235=ORIENTED_EDGE('',*,*,#318,.T.);
#236=ORIENTED_EDGE('',*,*,#317,.F.);
#237=ORIENTED_EDGE('',*,*,#319,.T.);
#238=ORIENTED_EDGE('',*,*,#318,.F.);
#239=ORIENTED_EDGE('',*,*,#320,.T.);
#240=ORIENTED_EDGE('',*,*,#319,.F.);
#241=ORIENTED_EDGE('',*,*,#321,.T.);
#242=ORIENTED_EDGE('',*,*,#320,.F.);
#243=ORIENTED_EDGE('',*,*,#322,.T.);
#244=ORIENTED_EDGE('',*,*,#321,.F.);
#245=ORIENTED_EDGE('',*,*,#323,.T.);
#246=ORIENTED_EDGE('',*,*,#322,.F.);
#247=ORIENTED_EDGE('',*,*,#324,.T.);
#248=ORIENTED_EDGE('',*,*,#323,.F.);
#249=ORIENTED_EDGE('',*,*,#325,.T.);
#250=ORIENTED_EDGE('',*,*,#324,.F.);
#251=ORIENTED_EDGE('',*,*,#326,.T.);
#252=ORIENTED_EDGE('',*,*,#325,.F.);
#253=ORIENTED_EDGE('',*,*,#327,.T.);
#254=ORIENTED_EDGE('',*,*,#326,.F.);
#255=ORIENTED_EDGE('',*,*,#316,.F.);
#256=ORIENTED_EDGE('',*,*,#328,.T.);
#257=ORIENTED_EDGE('',*,*,#327,.F.);
#258=ORIENTED_EDGE('',*,*,#329,.T.);
#259=ORIENTED_EDGE('',*,*,#328,.F.);
#260=ORIENTED_EDGE('',*,*,#330,.T.);
#261=ORIENTED_EDGE('',*,*,#329,.F.);
#262=ORIENTED_EDGE('',*,*,#331,.T.);
#263=ORIENTED_EDGE('',*,*,#330,.F.);
#264=ORIENTED_EDGE('',*,*,#332,.T.);
#265=ORIENTED_EDGE('',*,*,#331,.F.);
#266=ORIENTED_EDGE('',*,*,#333,.T.);
#267=ORIENTED_EDGE('',*,*,#332,.F.);
#268=ORIENTED_EDGE('',*,*,#334,.T.);
#269=ORIENTED_EDGE('',*,*,#333,.F.);
#270=ORIENTED_EDGE('',*,*,#334,.F.);
#271=ORIENTED_EDGE('',*,*,#335,.F.);
#272=ORIENTED_EDGE('',*,*,#336,.F.);
#273=ORIENTED_EDGE('',*,*,#337,.F.);
#274=ORIENTED_EDGE('',*,*,#338,.T.);
#275=ORIENTED_EDGE('',*,*,#338,.F.);
#276=ORIENTED_EDGE('',*,*,#335,.T.);
#277=ORIENTED_EDGE('',*,*,#339,.F.);
#278=ORIENTED_EDGE('',*,*,#337,.T.);
#279=ORIENTED_EDGE('',*,*,#340,.T.);
#280=ORIENTED_EDGE('',*,*,#336,.T.);
#281=ORIENTED_EDGE('',*,*,#341,.T.);
#282=ORIENTED_EDGE('',*,*,#340,.F.);
#283=ORIENTED_EDGE('',*,*,#342,.T.);
#284=ORIENTED_EDGE('',*,*,#341,.F.);
#285=ORIENTED_EDGE('',*,*,#339,.T.);
#286=ORIENTED_EDGE('',*,*,#342,.F.);
#287=VERTEX_POINT('',#552);
#288=VERTEX_POINT('',#554);
#289=VERTEX_POINT('',#557);
#290=VERTEX_POINT('',#560);
#291=VERTEX_POINT('',#563);
#292=VERTEX_POINT('',#566);
#293=VERTEX_POINT('',#569);
#294=VERTEX_POINT('',#572);
#295=VERTEX_POINT('',#575);
#296=VERTEX_POINT('',#578);
#297=VERTEX_POINT('',#581);
#298=VERTEX_POINT('',#584);
#299=VERTEX_POINT('',#587);
#300=VERTEX_POINT('',#591);
#301=VERTEX_POINT('',#594);
#302=VERTEX_POINT('',#597);
#303=VERTEX_POINT('',#600);
#304=VERTEX_POINT('',#603);
#305=VERTEX_POINT('',#606);
#306=VERTEX_POINT('',#609);
#307=VERTEX_POINT('',#613);
#308=VERTEX_POINT('',#616);
#309=VERTEX_POINT('',#619);
#310=VERTEX_POINT('',#621);
#311=VERTEX_POINT('',#627);
#312=VERTEX_POINT('',#631);
#313=VERTEX_POINT('',#635);
#314=VERTEX_POINT('',#639);
#315=EDGE_CURVE('',#287,#287,#343,.T.);
#316=EDGE_CURVE('',#288,#288,#344,.T.);
#317=EDGE_CURVE('',#289,#289,#345,.T.);
#318=EDGE_CURVE('',#290,#290,#346,.T.);
#319=EDGE_CURVE('',#291,#291,#347,.T.);
#320=EDGE_CURVE('',#292,#292,#348,.T.);
#321=EDGE_CURVE('',#293,#293,#349,.T.);
#322=EDGE_CURVE('',#294,#294,#350,.T.);
#323=EDGE_CURVE('',#295,#295,#351,.T.);
#324=EDGE_CURVE('',#296,#296,#352,.T.);
#325=EDGE_CURVE('',#297,#297,#353,.T.);
#326=EDGE_CURVE('',#298,#298,#354,.T.);
#327=EDGE_CURVE('',#299,#299,#355,.T.);
#328=EDGE_CURVE('',#300,#300,#356,.T.);
#329=EDGE_CURVE('',#301,#301,#357,.T.);
#330=EDGE_CURVE('',#302,#302,#358,.T.);
#331=EDGE_CURVE('',#303,#303,#359,.T.);
#332=EDGE_CURVE('',#304,#304,#360,.T.);
#333=EDGE_CURVE('',#305,#305,#361,.T.);
#334=EDGE_CURVE('',#306,#306,#362,.T.);
#335=EDGE_CURVE('',#307,#307,#363,.T.);
#336=EDGE_CURVE('',#308,#308,#364,.T.);
#337=EDGE_CURVE('',#309,#309,#365,.T.);
#338=EDGE_CURVE('',#310,#310,#366,.T.);
#339=EDGE_CURVE('',#311,#311,#368,.T.);
#340=EDGE_CURVE('',#312,#312,#369,.T.);
#341=EDGE_CURVE('',#313,#313,#370,.T.);
#342=EDGE_CURVE('',#314,#314,#372,.T.);
#343=CIRCLE('',#375,19.7500000000003);
#344=CIRCLE('',#376,18.7500000000003);
#345=CIRCLE('',#378,19.75);
#346=CIRCLE('',#380,19.810307379214);
#347=CIRCLE('',#382,20.);
#348=CIRCLE('',#384,20.);
#349=CIRCLE('',#386,19.7636296694844);
#350=CIRCLE('',#388,19.75);
#351=CIRCLE('',#390,19.75);
#352=CIRCLE('',#392,20.205669240384);
#353=CIRCLE('',#394,21.);
#354=CIRCLE('',#396,26.3);
#355=CIRCLE('',#398,27.);
#356=CIRCLE('',#401,27.);
#357=CIRCLE('',#403,26.9724905041329);
#358=CIRCLE('',#405,24.0458491597785);
#359=CIRCLE('',#407,24.);
#360=CIRCLE('',#409,24.);
#361=CIRCLE('',#411,23.6119375887471);
#362=CIRCLE('',#413,21.6146785192379);
#363=CIRCLE('',#416,0.100000000000029);
#364=CIRCLE('',#418,11.6106495515581);
#365=CIRCLE('',#420,12.4930633411509);
#366=CIRCLE('',#421,11.8426103920712);
#367=CIRCLE('',#422,1.2);
#368=CIRCLE('',#423,23.400709179335);
#369=CIRCLE('',#424,22.2819272152976);
#370=CIRCLE('',#425,23.5687439508729);
#371=CIRCLE('',#426,1.2);
#372=CIRCLE('',#427,24.5000156356166);
#373=CIRCLE('',#428,1.2);
#374=AXIS2_PLACEMENT_3D('',#550,#429,#430);
#375=AXIS2_PLACEMENT_3D('',#551,#431,#432);
#376=AXIS2_PLACEMENT_3D('',#553,#433,#434);
#377=AXIS2_PLACEMENT_3D('',#555,#435,#436);
#378=AXIS2_PLACEMENT_3D('',#556,#437,#438);
#379=AXIS2_PLACEMENT_3D('',#558,#439,#440);
#380=AXIS2_PLACEMENT_3D('',#559,#441,#442);
#381=AXIS2_PLACEMENT_3D('',#561,#443,#444);
#382=AXIS2_PLACEMENT_3D('',#562,#445,#446);
#383=AXIS2_PLACEMENT_3D('',#564,#447,#448);
#384=AXIS2_PLACEMENT_3D('',#565,#449,#450);
#385=AXIS2_PLACEMENT_3D('',#567,#451,#452);
#386=AXIS2_PLACEMENT_3D('',#568,#453,#454);
#387=AXIS2_PLACEMENT_3D('',#570,#455,#456);
#388=AXIS2_PLACEMENT_3D('',#571,#457,#458);
#389=AXIS2_PLACEMENT_3D('',#573,#459,#460);
#390=AXIS2_PLACEMENT_3D('',#574,#461,#462);
#391=AXIS2_PLACEMENT_3D('',#576,#463,#464);
#392=AXIS2_PLACEMENT_3D('',#577,#465,#466);
#393=AXIS2_PLACEMENT_3D('',#579,#467,#468);
#394=AXIS2_PLACEMENT_3D('',#580,#469,#470);
#395=AXIS2_PLACEMENT_3D('',#582,#471,#472);
#396=AXIS2_PLACEMENT_3D('',#583,#473,#474);
#397=AXIS2_PLACEMENT_3D('',#585,#475,#476);
#398=AXIS2_PLACEMENT_3D('',#586,#477,#478);
#399=AXIS2_PLACEMENT_3D('',#588,#479,#480);
#400=AXIS2_PLACEMENT_3D('',#589,#481,#482);
#401=AXIS2_PLACEMENT_3D('',#590,#483,#484);
#402=AXIS2_PLACEMENT_3D('',#592,#485,#486);
#403=AXIS2_PLACEMENT_3D('',#593,#487,#488);
#404=AXIS2_PLACEMENT_3D('',#595,#489,#490);
#405=AXIS2_PLACEMENT_3D('',#596,#491,#492);
#406=AXIS2_PLACEMENT_3D('',#598,#493,#494);
#407=AXIS2_PLACEMENT_3D('',#599,#495,#496);
#408=AXIS2_PLACEMENT_3D('',#601,#497,#498);
#409=AXIS2_PLACEMENT_3D('',#602,#499,#500);
#410=AXIS2_PLACEMENT_3D('',#604,#501,#502);
#411=AXIS2_PLACEMENT_3D('',#605,#503,#504);
#412=AXIS2_PLACEMENT_3D('',#607,#505,#506);
#413=AXIS2_PLACEMENT_3D('',#608,#507,#508);
#414=AXIS2_PLACEMENT_3D('',#610,#509,#510);
#415=AXIS2_PLACEMENT_3D('',#611,#511,#512);
#416=AXIS2_PLACEMENT_3D('',#612,#513,#514);
#417=AXIS2_PLACEMENT_3D('',#614,#515,#516);
#418=AXIS2_PLACEMENT_3D('',#615,#517,#518);
#419=AXIS2_PLACEMENT_3D('',#617,#519,#520);
#420=AXIS2_PLACEMENT_3D('',#618,#521,#522);
#421=AXIS2_PLACEMENT_3D('',#620,#523,#524);
#422=AXIS2_PLACEMENT_3D('',#622,#525,#526);
#423=AXIS2_PLACEMENT_3D('',#626,#530,#531);
#424=AXIS2_PLACEMENT_3D('',#630,#534,#535);
#425=AXIS2_PLACEMENT_3D('',#634,#538,#539);
#426=AXIS2_PLACEMENT_3D('',#636,#540,#541);
#427=AXIS2_PLACEMENT_3D('',#638,#543,#544);
#428=AXIS2_PLACEMENT_3D('',#642,#547,#548);
#429=DIRECTION('',(0.,0.,1.));
#430=DIRECTION('',(1.,0.,0.));
#431=DIRECTION('',(1.,0.,0.));
#432=DIRECTION('',(0.,0.,1.));
#433=DIRECTION('',(-1.,0.,0.));
#434=DIRECTION('',(0.,0.,1.));
#435=DIRECTION('',(-1.,0.,0.));
#436=DIRECTION('',(0.,0.,1.));
#437=DIRECTION('',(1.,0.,0.));
#438=DIRECTION('',(0.,0.,1.));
#439=DIRECTION('',(-1.,0.,0.));
#440=DIRECTION('',(0.,0.,1.));
#441=DIRECTION('',(1.,0.,0.));
#442=DIRECTION('',(0.,0.,1.));
#443=DIRECTION('',(-1.,0.,0.));
#444=DIRECTION('',(0.,0.,1.));
#445=DIRECTION('',(1.,0.,0.));
#446=DIRECTION('',(0.,0.,1.));
#447=DIRECTION('',(-1.,0.,0.));
#448=DIRECTION('',(0.,0.,1.));
#449=DIRECTION('',(1.,0.,0.));
#450=DIRECTION('',(0.,0.,1.));
#451=DIRECTION('',(-1.,0.,0.));
#452=DIRECTION('',(0.,0.,1.));
#453=DIRECTION('',(1.,0.,0.));
#454=DIRECTION('',(0.,0.,1.));
#455=DIRECTION('',(1.,0.,0.));
#456=DIRECTION('',(1.92781062390151E-16,0.,-1.));
#457=DIRECTION('',(1.,0.,0.));
#458=DIRECTION('',(0.,0.,1.));
#459=DIRECTION('',(-1.,0.,0.));
#460=DIRECTION('',(0.,0.,1.));
#461=DIRECTION('',(1.,0.,0.));
#462=DIRECTION('',(0.,0.,1.));
#463=DIRECTION('',(-1.,0.,0.));
#464=DIRECTION('',(0.,0.,1.));
#465=DIRECTION('',(1.,0.,0.));
#466=DIRECTION('',(0.,0.,1.));
#467=DIRECTION('',(-1.,0.,0.));
#468=DIRECTION('',(0.,0.,1.));
#469=DIRECTION('',(1.,0.,0.));
#470=DIRECTION('',(0.,0.,1.));
#471=DIRECTION('',(1.,0.,0.));
#472=DIRECTION('',(0.,0.,-1.));
#473=DIRECTION('',(1.,0.,0.));
#474=DIRECTION('',(0.,0.,1.));
#475=DIRECTION('',(-1.,0.,0.));
#476=DIRECTION('',(0.,0.,1.));
#477=DIRECTION('',(1.,0.,0.));
#478=DIRECTION('',(0.,0.,1.));
#479=DIRECTION('',(-1.,0.,0.));
#480=DIRECTION('',(0.,0.,1.));
#481=DIRECTION('',(-1.,0.,0.));
#482=DIRECTION('',(0.,0.,1.));
#483=DIRECTION('',(1.,0.,0.));
#484=DIRECTION('',(0.,0.,1.));
#485=DIRECTION('',(-1.,0.,0.));
#486=DIRECTION('',(0.,0.,1.));
#487=DIRECTION('',(1.,0.,0.));
#488=DIRECTION('',(0.,0.,1.));
#489=DIRECTION('',(-1.,0.,0.));
#490=DIRECTION('',(0.,0.,1.));
#491=DIRECTION('',(1.,0.,0.));
#492=DIRECTION('',(0.,0.,1.));
#493=DIRECTION('',(1.,0.,0.));
#494=DIRECTION('',(3.39858378521474E-16,0.,-1.));
#495=DIRECTION('',(1.,0.,0.));
#496=DIRECTION('',(0.,0.,1.));
#497=DIRECTION('',(-1.,0.,0.));
#498=DIRECTION('',(0.,0.,1.));
#499=DIRECTION('',(1.,0.,0.));
#500=DIRECTION('',(0.,0.,1.));
#501=DIRECTION('',(-1.,0.,0.));
#502=DIRECTION('',(0.,0.,1.));
#503=DIRECTION('',(1.,0.,0.));
#504=DIRECTION('',(0.,0.,1.));
#505=DIRECTION('',(1.,0.,0.));
#506=DIRECTION('',(1.45302354687276E-15,0.,-1.));
#507=DIRECTION('',(1.,0.,0.));
#508=DIRECTION('',(0.,0.,1.));
#509=DIRECTION('',(-1.,0.,0.));
#510=DIRECTION('',(0.,0.,1.));
#511=DIRECTION('',(1.,0.,0.));
#512=DIRECTION('',(0.,0.,-1.));
#513=DIRECTION('',(1.,0.,0.));
#514=DIRECTION('',(0.,0.,-1.));
#515=DIRECTION('',(1.,0.,0.));
#516=DIRECTION('',(0.,0.,-1.));
#517=DIRECTION('',(-1.,0.,0.));
#518=DIRECTION('',(0.,0.,-1.));
#519=DIRECTION('',(1.,0.,0.));
#520=DIRECTION('',(0.,0.,-1.));
#521=DIRECTION('',(1.,0.,0.));
#522=DIRECTION('',(0.,0.,-1.));
#523=DIRECTION('',(1.,0.,0.));
#524=DIRECTION('',(0.,0.,-1.));
#525=DIRECTION('',(-4.02966437406302E-16,-3.81918479210644E-17,-1.));
#526=DIRECTION('',(0.995141863893438,0.0984513622388924,-4.04768811061255E-16));
#527=DIRECTION('',(1.,0.,0.));
#528=DIRECTION('',(-0.0984513622388923,0.995141863893438,0.));
#529=DIRECTION('',(1.,0.,0.));
#530=DIRECTION('',(1.,0.,0.));
#531=DIRECTION('',(0.,0.,-1.));
#532=DIRECTION('',(-0.0784590957278461,0.989486463101343,-0.121493660891268));
#533=DIRECTION('',(1.,0.,0.));
#534=DIRECTION('',(1.,0.,0.));
#535=DIRECTION('',(0.,0.,-1.));
#536=DIRECTION('',(0.0784590957278454,-0.989486463101343,0.121493660891268));
#537=DIRECTION('',(1.,0.,0.));
#538=DIRECTION('',(1.,0.,0.));
#539=DIRECTION('',(0.,0.,-1.));
#540=DIRECTION('',(5.27355936696949E-16,-0.121869343405148,-0.992546151641322));
#541=DIRECTION('',(0.996917333733128,0.0778742735259316,-0.0095617584805137));
#542=DIRECTION('',(1.,0.,0.));
#543=DIRECTION('',(1.,0.,0.));
#544=DIRECTION('',(0.,0.,-1.));
#545=DIRECTION('',(-0.996917333733128,-0.0778742735259309,0.00956175848051454));
#546=DIRECTION('',(1.,0.,0.));
#547=DIRECTION('',(5.27355936696949E-16,-0.121869343405148,-0.992546151641322));
#548=DIRECTION('',(0.996917333733128,0.0778742735259316,-0.0095617584805137));
#549=DIRECTION('',(1.,0.,0.));
#550=CARTESIAN_POINT('',(0.,0.,0.));
#551=CARTESIAN_POINT('',(248.,0.,0.));
#552=CARTESIAN_POINT('',(248.,0.,19.7500000000003));
#553=CARTESIAN_POINT('',(249.,0.,0.));
#554=CARTESIAN_POINT('',(249.,0.,18.7500000000003));
#555=CARTESIAN_POINT('',(248.,0.,0.));
#556=CARTESIAN_POINT('',(246.176326980708,0.,0.));
#557=CARTESIAN_POINT('',(246.176326980708,0.,19.75));
#558=CARTESIAN_POINT('',(0.,0.,0.));
#559=CARTESIAN_POINT('',(245.834306837383,0.,0.));
#560=CARTESIAN_POINT('',(245.834306837383,0.,19.810307379214));
#561=CARTESIAN_POINT('',(246.176326980708,0.,0.));
#562=CARTESIAN_POINT('',(245.313130645136,0.,0.));
#563=CARTESIAN_POINT('',(245.313130645136,0.,20.));
#564=CARTESIAN_POINT('',(245.834306837383,0.,0.));
#565=CARTESIAN_POINT('',(181.,0.,0.));
#566=CARTESIAN_POINT('',(181.,0.,20.));
#567=CARTESIAN_POINT('',(0.,0.,0.));
#568=CARTESIAN_POINT('',(180.117853917114,0.,0.));
#569=CARTESIAN_POINT('',(180.117853917114,0.,19.7636296694844));
#570=CARTESIAN_POINT('',(181.,0.,0.));
#571=CARTESIAN_POINT('',(180.014326299073,0.,0.));
#572=CARTESIAN_POINT('',(180.014326299073,0.,19.75));
#573=CARTESIAN_POINT('',(180.014326299073,0.,0.));
#574=CARTESIAN_POINT('',(179.28447131951,0.,0.));
#575=CARTESIAN_POINT('',(179.28447131951,0.,19.75));
#576=CARTESIAN_POINT('',(0.,0.,0.));
#577=CARTESIAN_POINT('',(178.888364092014,0.,0.));
#578=CARTESIAN_POINT('',(178.888364092014,0.,20.205669240384));
#579=CARTESIAN_POINT('',(179.28447131951,0.,0.));
#580=CARTESIAN_POINT('',(179.,0.,0.));
#581=CARTESIAN_POINT('',(179.,0.,21.));
#582=CARTESIAN_POINT('',(178.888364092014,0.,0.));
#583=CARTESIAN_POINT('',(179.,0.,0.));
#584=CARTESIAN_POINT('',(179.,0.,26.3));
#585=CARTESIAN_POINT('',(179.,21.,0.));
#586=CARTESIAN_POINT('',(178.587298334621,0.,0.));
#587=CARTESIAN_POINT('',(178.587298334621,0.,27.));
#588=CARTESIAN_POINT('',(178.2,0.,0.));
#589=CARTESIAN_POINT('',(249.,27.5000000000005,0.));
#590=CARTESIAN_POINT('',(174.203603311174,0.,0.));
#591=CARTESIAN_POINT('',(174.203603311174,0.,27.));
#592=CARTESIAN_POINT('',(0.,0.,0.));
#593=CARTESIAN_POINT('',(173.798263696975,0.,0.));
#594=CARTESIAN_POINT('',(173.798263696975,0.,26.9724905041329));
#595=CARTESIAN_POINT('',(174.203603311174,0.,0.));
#596=CARTESIAN_POINT('',(152.336227171709,0.,0.));
#597=CARTESIAN_POINT('',(152.336227171709,0.,24.0458491597785));
#598=CARTESIAN_POINT('',(173.798263696975,0.,0.));
#599=CARTESIAN_POINT('',(151.660661148042,0.,0.));
#600=CARTESIAN_POINT('',(151.660661148042,0.,24.));
#601=CARTESIAN_POINT('',(151.660661148042,0.,0.));
#602=CARTESIAN_POINT('',(11.,0.,0.));
#603=CARTESIAN_POINT('',(11.,0.,24.));
#604=CARTESIAN_POINT('',(0.,0.,0.));
#605=CARTESIAN_POINT('',(3.59532808751411,0.,0.));
#606=CARTESIAN_POINT('',(3.59532808751411,0.,23.6119375887471));
#607=CARTESIAN_POINT('',(11.,0.,0.));
#608=CARTESIAN_POINT('',(1.7,0.,0.));
#609=CARTESIAN_POINT('',(1.7,0.,21.6146785192379));
#610=CARTESIAN_POINT('',(3.7,0.,0.));
#611=CARTESIAN_POINT('',(1.7,21.6146785192379,0.));
#612=CARTESIAN_POINT('',(1.17740097397069,0.,0.));
#613=CARTESIAN_POINT('',(1.17740097397069,0.,-0.100000000000029));
#614=CARTESIAN_POINT('',(1.17740097397069,0.,0.));
#615=CARTESIAN_POINT('',(14.3985894399949,0.,0.));
#616=CARTESIAN_POINT('',(14.3985894399949,0.,-11.6106495515581));
#617=CARTESIAN_POINT('',(14.3985894399949,0.,0.));
#618=CARTESIAN_POINT('',(0.124536722970241,0.,0.));
#619=CARTESIAN_POINT('',(0.124536722970241,0.,-12.4930633411509));
#620=CARTESIAN_POINT('',(0.00582976332788587,0.,0.));
#621=CARTESIAN_POINT('',(0.00582976332788587,0.,-11.8426103920712));
#622=CARTESIAN_POINT('',(1.20000000000001,11.9603298150186,0.100000000000028));
#623=CARTESIAN_POINT('',(11.,0.,0.));
#624=CARTESIAN_POINT('',(1.17740097397069,-1.40276612210341E-13,0.100000000000028));
#625=CARTESIAN_POINT('',(11.,0.,0.));
#626=CARTESIAN_POINT('',(0.9873624386816,0.,0.));
#627=CARTESIAN_POINT('',(0.9873624386816,0.,-23.400709179335));
#628=CARTESIAN_POINT('',(0.9873624386816,-22.9540713359263,4.55014276710321));
#629=CARTESIAN_POINT('',(11.,0.,0.));
#630=CARTESIAN_POINT('',(15.2432803110653,0.,0.));
#631=CARTESIAN_POINT('',(15.2432803110653,0.,-22.2819272152976));
#632=CARTESIAN_POINT('',(14.3985894399991,-11.1876548545242,3.10540848603354));
#633=CARTESIAN_POINT('',(11.,0.,0.));
#634=CARTESIAN_POINT('',(14.141130425459,0.,0.));
#635=CARTESIAN_POINT('',(14.141130425459,0.,-23.5687439508729));
#636=CARTESIAN_POINT('',(14.0469795105856,-21.9339183527365,4.42488373100846));
#637=CARTESIAN_POINT('',(11.,0.,0.));
#638=CARTESIAN_POINT('',(2.27781415403477,0.,0.));
#639=CARTESIAN_POINT('',(2.27781415403477,0.,-24.5000156356166));
#640=CARTESIAN_POINT('',(14.141130425459,-23.1213021084582,4.57067612407799));
#641=CARTESIAN_POINT('',(11.,0.,0.));
#642=CARTESIAN_POINT('',(2.18366323916136,-22.8606222076951,4.53866865692656));
#643=CARTESIAN_POINT('',(11.,0.,0.));
#644=(
GEOMETRIC_REPRESENTATION_CONTEXT(3)
GLOBAL_UNCERTAINTY_ASSIGNED_CONTEXT((#645))
GLOBAL_UNIT_ASSIGNED_CONTEXT((#651,#647,#646))
REPRESENTATION_CONTEXT('ATUM-49XD3-SP-140512-light',
'TOP_LEVEL_ASSEMBLY_PART')
);
#645=UNCERTAINTY_MEASURE_WITH_UNIT(LENGTH_MEASURE(2.E-5),#651,
'DISTANCE_ACCURACY_VALUE','Maximum Tolerance applied to model');
#646=(
NAMED_UNIT(*)
SI_UNIT($,.STERADIAN.)
SOLID_ANGLE_UNIT()
);
#647=(
CONVERSION_BASED_UNIT('DEGREE',#649)
NAMED_UNIT(#648)
PLANE_ANGLE_UNIT()
);
#648=DIMENSIONAL_EXPONENTS(0.,0.,0.,0.,0.,0.,0.);
#649=PLANE_ANGLE_MEASURE_WITH_UNIT(PLANE_ANGLE_MEASURE(0.0174532925),#650);
#650=(
NAMED_UNIT(*)
PLANE_ANGLE_UNIT()
SI_UNIT($,.RADIAN.)
);
#651=(
LENGTH_UNIT()
NAMED_UNIT(*)
SI_UNIT(.MILLI.,.METRE.)
);
ENDSEC;
END-ISO-10303-21;
