ISO-10303-21;
HEADER;
/* Generated by software containing ST-Developer
 * from STEP Tools, Inc. (www.steptools.com) 
 */
/* OPTION: using custom schema-name function */

FILE_DESCRIPTION(
/* description */ (''),
/* implementation_level */ '2;1');

FILE_NAME(
/* name */ 'ATUM-55XD3-WCM-080412-light.stp',
/* time_stamp */ '2023-10-30T20:47:55+03:00',
/* author */ (''),
/* organization */ (''),
/* preprocessor_version */ 'ST-DEVELOPER v19.4',
/* originating_system */ 'SIEMENS PLM Software NX2306.3001',
/* authorisation */ '');

FILE_SCHEMA (('AUTOMOTIVE_DESIGN { 1 0 10303 214 3 1 1 1 }'));
ENDSEC;

DATA;
#10=SHAPE_REPRESENTATION_RELATIONSHIP('None',
'relationship between STP_ATUM 45.5XD3 WCM. 080412-None and STP_ATUM 4
5.5XD3 WCM. 080412-None',#22,#11);
#11=ADVANCED_BREP_SHAPE_REPRESENTATION(
'STP_ATUM 45.5XD3 WCM. 080412-None',(#90,#91),#705);
#12=SHAPE_DEFINITION_REPRESENTATION(#13,#22);
#13=PRODUCT_DEFINITION_SHAPE('','',#14);
#14=PRODUCT_DEFINITION(' ','',#16,#15);
#15=PRODUCT_DEFINITION_CONTEXT('part definition',#21,'design');
#16=PRODUCT_DEFINITION_FORMATION_WITH_SPECIFIED_SOURCE(' ',' ',#18,
 .NOT_KNOWN.);
#17=PRODUCT_RELATED_PRODUCT_CATEGORY('part','',(#18));
#18=PRODUCT('STP_ATUM 45.5XD3 WCM. 080412',
'STP_ATUM 45.5XD3 WCM. 080412',' ',(#19));
#19=PRODUCT_CONTEXT(' ',#21,'mechanical');
#20=APPLICATION_PROTOCOL_DEFINITION('international standard',
'automotive_design',2010,#21);
#21=APPLICATION_CONTEXT(
'core data for automotive mechanical design processes');
#22=SHAPE_REPRESENTATION('STP_ATUM 45.5XD3 WCM. 080412-None',(#417),#705);
#23=DRAUGHTING_PRE_DEFINED_COLOUR('yellow');
#24=SURFACE_OF_REVOLUTION('',#52,#38);
#25=SURFACE_OF_REVOLUTION('',#53,#39);
#26=SURFACE_OF_REVOLUTION('',#54,#40);
#27=SURFACE_OF_REVOLUTION('',#407,#41);
#28=SURFACE_OF_REVOLUTION('',#55,#42);
#29=SURFACE_OF_REVOLUTION('',#56,#43);
#30=SURFACE_OF_REVOLUTION('',#411,#44);
#31=SURFACE_OF_REVOLUTION('',#57,#45);
#32=SURFACE_OF_REVOLUTION('',#58,#46);
#33=SURFACE_OF_REVOLUTION('',#59,#47);
#34=SURFACE_OF_REVOLUTION('',#60,#48);
#35=SURFACE_OF_REVOLUTION('',#61,#49);
#36=SURFACE_OF_REVOLUTION('',#416,#50);
#37=SURFACE_OF_REVOLUTION('',#62,#51);
#38=AXIS1_PLACEMENT('',#656,#546);
#39=AXIS1_PLACEMENT('',#662,#552);
#40=AXIS1_PLACEMENT('',#666,#556);
#41=AXIS1_PLACEMENT('',#670,#561);
#42=AXIS1_PLACEMENT('',#674,#565);
#43=AXIS1_PLACEMENT('',#678,#569);
#44=AXIS1_PLACEMENT('',#682,#574);
#45=AXIS1_PLACEMENT('',#684,#576);
#46=AXIS1_PLACEMENT('',#688,#580);
#47=AXIS1_PLACEMENT('',#692,#584);
#48=AXIS1_PLACEMENT('',#694,#586);
#49=AXIS1_PLACEMENT('',#698,#590);
#50=AXIS1_PLACEMENT('',#702,#595);
#51=AXIS1_PLACEMENT('',#704,#597);
#52=LINE('',#655,#63);
#53=LINE('',#661,#64);
#54=LINE('',#665,#65);
#55=LINE('',#673,#66);
#56=LINE('',#677,#67);
#57=LINE('',#683,#68);
#58=LINE('',#687,#69);
#59=LINE('',#691,#70);
#60=LINE('',#693,#71);
#61=LINE('',#697,#72);
#62=LINE('',#703,#73);
#63=VECTOR('',#545,1.97447696876342);
#64=VECTOR('',#551,6.81060060370136);
#65=VECTOR('',#555,7.25720732935896);
#66=VECTOR('',#564,7.25720732935902);
#67=VECTOR('',#568,7.25720732935898);
#68=VECTOR('',#575,7.25720732935911);
#69=VECTOR('',#579,2.23256921534009);
#70=VECTOR('',#583,5.61700677132737);
#71=VECTOR('',#585,7.25720732935894);
#72=VECTOR('',#589,7.25720732935894);
#73=VECTOR('',#596,7.25720732935895);
#74=PRESENTATION_LAYER_ASSIGNMENT('1','Layer 1',(#90,#91));
#75=STYLED_ITEM('',(#77),#90);
#76=STYLED_ITEM('',(#78),#91);
#77=PRESENTATION_STYLE_ASSIGNMENT((#79));
#78=PRESENTATION_STYLE_ASSIGNMENT((#80));
#79=SURFACE_STYLE_USAGE(.BOTH.,#81);
#80=SURFACE_STYLE_USAGE(.BOTH.,#82);
#81=SURFACE_SIDE_STYLE('',(#83));
#82=SURFACE_SIDE_STYLE('',(#84));
#83=SURFACE_STYLE_FILL_AREA(#85);
#84=SURFACE_STYLE_FILL_AREA(#86);
#85=FILL_AREA_STYLE('',(#87));
#86=FILL_AREA_STYLE('',(#88));
#87=FILL_AREA_STYLE_COLOUR('',#89);
#88=FILL_AREA_STYLE_COLOUR('',#23);
#89=COLOUR_RGB('smoke gray',0.694117647058824,0.694117647058824,0.694117647058824);
#90=MANIFOLD_SOLID_BREP('',#92);
#91=MANIFOLD_SOLID_BREP('',#93);
#92=CLOSED_SHELL('',(#110,#111,#112,#113,#114,#115,#116,#117,#118,#119,
#120,#121,#122,#123,#124,#125));
#93=CLOSED_SHELL('',(#126,#127,#128,#129,#130,#131,#132,#133,#134,#135,
#136,#137,#138,#139,#140,#141));
#94=FACE_OUTER_BOUND('',#228,.T.);
#95=FACE_OUTER_BOUND('',#233,.T.);
#96=FACE_OUTER_BOUND('',#234,.T.);
#97=FACE_OUTER_BOUND('',#235,.T.);
#98=PLANE('',#440);
#99=PLANE('',#443);
#100=PLANE('',#448);
#101=PLANE('',#450);
#102=PLANE('',#452);
#103=CONICAL_SURFACE('',#426,19.8103073792138,19.9999999999993);
#104=CONICAL_SURFACE('',#430,20.,15.0000000000003);
#105=CONICAL_SURFACE('',#438,20.2056692403838,82.0000000000026);
#106=CYLINDRICAL_SURFACE('',#422,19.7499999999997);
#107=CYLINDRICAL_SURFACE('',#428,20.);
#108=CYLINDRICAL_SURFACE('',#434,19.7499999999998);
#109=CYLINDRICAL_SURFACE('',#445,27.);
#110=ADVANCED_FACE('',(#148,#149),#142,.T.);
#111=ADVANCED_FACE('',(#150,#151),#106,.T.);
#112=ADVANCED_FACE('',(#152,#153),#143,.F.);
#113=ADVANCED_FACE('',(#154,#155),#103,.T.);
#114=ADVANCED_FACE('',(#156,#157),#107,.T.);
#115=ADVANCED_FACE('',(#158,#159),#104,.T.);
#116=ADVANCED_FACE('',(#160,#161),#144,.F.);
#117=ADVANCED_FACE('',(#162,#163),#108,.T.);
#118=ADVANCED_FACE('',(#164,#165),#145,.F.);
#119=ADVANCED_FACE('',(#166,#167),#105,.F.);
#120=ADVANCED_FACE('',(#168,#169),#98,.F.);
#121=ADVANCED_FACE('',(#170,#171),#146,.T.);
#122=ADVANCED_FACE('',(#94),#99,.F.);
#123=ADVANCED_FACE('',(#172,#173),#109,.T.);
#124=ADVANCED_FACE('',(#174,#175),#147,.T.);
#125=ADVANCED_FACE('',(#95),#100,.F.);
#126=ADVANCED_FACE('',(#96),#101,.F.);
#127=ADVANCED_FACE('',(#97),#102,.T.);
#128=ADVANCED_FACE('',(#176,#177),#24,.T.);
#129=ADVANCED_FACE('',(#178,#179),#25,.T.);
#130=ADVANCED_FACE('',(#180,#181),#26,.T.);
#131=ADVANCED_FACE('',(#182,#183),#27,.T.);
#132=ADVANCED_FACE('',(#184,#185),#28,.T.);
#133=ADVANCED_FACE('',(#186,#187),#29,.T.);
#134=ADVANCED_FACE('',(#188,#189),#30,.T.);
#135=ADVANCED_FACE('',(#190,#191),#31,.T.);
#136=ADVANCED_FACE('',(#192,#193),#32,.T.);
#137=ADVANCED_FACE('',(#194,#195),#33,.T.);
#138=ADVANCED_FACE('',(#196,#197),#34,.T.);
#139=ADVANCED_FACE('',(#198,#199),#35,.T.);
#140=ADVANCED_FACE('',(#200,#201),#36,.T.);
#141=ADVANCED_FACE('',(#202,#203),#37,.T.);
#142=TOROIDAL_SURFACE('',#420,18.7499999999997,1.);
#143=TOROIDAL_SURFACE('',#424,20.7499999999997,1.);
#144=TOROIDAL_SURFACE('',#432,20.1499999999997,0.399999999999995);
#145=TOROIDAL_SURFACE('',#436,20.1499999999997,0.399999999999972);
#146=TOROIDAL_SURFACE('',#442,26.3,0.80000000000004);
#147=TOROIDAL_SURFACE('',#447,25.,2.);
#148=FACE_BOUND('',#204,.T.);
#149=FACE_BOUND('',#205,.T.);
#150=FACE_BOUND('',#206,.T.);
#151=FACE_BOUND('',#207,.T.);
#152=FACE_BOUND('',#208,.T.);
#153=FACE_BOUND('',#209,.T.);
#154=FACE_BOUND('',#210,.T.);
#155=FACE_BOUND('',#211,.T.);
#156=FACE_BOUND('',#212,.T.);
#157=FACE_BOUND('',#213,.T.);
#158=FACE_BOUND('',#214,.T.);
#159=FACE_BOUND('',#215,.T.);
#160=FACE_BOUND('',#216,.T.);
#161=FACE_BOUND('',#217,.T.);
#162=FACE_BOUND('',#218,.T.);
#163=FACE_BOUND('',#219,.T.);
#164=FACE_BOUND('',#220,.T.);
#165=FACE_BOUND('',#221,.T.);
#166=FACE_BOUND('',#222,.T.);
#167=FACE_BOUND('',#223,.T.);
#168=FACE_BOUND('',#224,.T.);
#169=FACE_BOUND('',#225,.T.);
#170=FACE_BOUND('',#226,.T.);
#171=FACE_BOUND('',#227,.T.);
#172=FACE_BOUND('',#229,.T.);
#173=FACE_BOUND('',#230,.T.);
#174=FACE_BOUND('',#231,.T.);
#175=FACE_BOUND('',#232,.T.);
#176=FACE_BOUND('',#236,.T.);
#177=FACE_BOUND('',#237,.T.);
#178=FACE_BOUND('',#238,.T.);
#179=FACE_BOUND('',#239,.T.);
#180=FACE_BOUND('',#240,.T.);
#181=FACE_BOUND('',#241,.T.);
#182=FACE_BOUND('',#242,.T.);
#183=FACE_BOUND('',#243,.T.);
#184=FACE_BOUND('',#244,.T.);
#185=FACE_BOUND('',#245,.T.);
#186=FACE_BOUND('',#246,.T.);
#187=FACE_BOUND('',#247,.T.);
#188=FACE_BOUND('',#248,.T.);
#189=FACE_BOUND('',#249,.T.);
#190=FACE_BOUND('',#250,.T.);
#191=FACE_BOUND('',#251,.T.);
#192=FACE_BOUND('',#252,.T.);
#193=FACE_BOUND('',#253,.T.);
#194=FACE_BOUND('',#254,.T.);
#195=FACE_BOUND('',#255,.T.);
#196=FACE_BOUND('',#256,.T.);
#197=FACE_BOUND('',#257,.T.);
#198=FACE_BOUND('',#258,.T.);
#199=FACE_BOUND('',#259,.T.);
#200=FACE_BOUND('',#260,.T.);
#201=FACE_BOUND('',#261,.T.);
#202=FACE_BOUND('',#262,.T.);
#203=FACE_BOUND('',#263,.T.);
#204=EDGE_LOOP('',(#264));
#205=EDGE_LOOP('',(#265));
#206=EDGE_LOOP('',(#266));
#207=EDGE_LOOP('',(#267));
#208=EDGE_LOOP('',(#268));
#209=EDGE_LOOP('',(#269));
#210=EDGE_LOOP('',(#270));
#211=EDGE_LOOP('',(#271));
#212=EDGE_LOOP('',(#272));
#213=EDGE_LOOP('',(#273));
#214=EDGE_LOOP('',(#274));
#215=EDGE_LOOP('',(#275));
#216=EDGE_LOOP('',(#276));
#217=EDGE_LOOP('',(#277));
#218=EDGE_LOOP('',(#278));
#219=EDGE_LOOP('',(#279));
#220=EDGE_LOOP('',(#280));
#221=EDGE_LOOP('',(#281));
#222=EDGE_LOOP('',(#282));
#223=EDGE_LOOP('',(#283));
#224=EDGE_LOOP('',(#284));
#225=EDGE_LOOP('',(#285));
#226=EDGE_LOOP('',(#286));
#227=EDGE_LOOP('',(#287));
#228=EDGE_LOOP('',(#288));
#229=EDGE_LOOP('',(#289));
#230=EDGE_LOOP('',(#290));
#231=EDGE_LOOP('',(#291));
#232=EDGE_LOOP('',(#292));
#233=EDGE_LOOP('',(#293));
#234=EDGE_LOOP('',(#294));
#235=EDGE_LOOP('',(#295));
#236=EDGE_LOOP('',(#296));
#237=EDGE_LOOP('',(#297));
#238=EDGE_LOOP('',(#298));
#239=EDGE_LOOP('',(#299));
#240=EDGE_LOOP('',(#300));
#241=EDGE_LOOP('',(#301));
#242=EDGE_LOOP('',(#302));
#243=EDGE_LOOP('',(#303));
#244=EDGE_LOOP('',(#304));
#245=EDGE_LOOP('',(#305));
#246=EDGE_LOOP('',(#306));
#247=EDGE_LOOP('',(#307));
#248=EDGE_LOOP('',(#308));
#249=EDGE_LOOP('',(#309));
#250=EDGE_LOOP('',(#310));
#251=EDGE_LOOP('',(#311));
#252=EDGE_LOOP('',(#312));
#253=EDGE_LOOP('',(#313));
#254=EDGE_LOOP('',(#314));
#255=EDGE_LOOP('',(#315));
#256=EDGE_LOOP('',(#316));
#257=EDGE_LOOP('',(#317));
#258=EDGE_LOOP('',(#318));
#259=EDGE_LOOP('',(#319));
#260=EDGE_LOOP('',(#320));
#261=EDGE_LOOP('',(#321));
#262=EDGE_LOOP('',(#322));
#263=EDGE_LOOP('',(#323));
#264=ORIENTED_EDGE('',*,*,#354,.T.);
#265=ORIENTED_EDGE('',*,*,#355,.T.);
#266=ORIENTED_EDGE('',*,*,#356,.T.);
#267=ORIENTED_EDGE('',*,*,#354,.F.);
#268=ORIENTED_EDGE('',*,*,#357,.T.);
#269=ORIENTED_EDGE('',*,*,#356,.F.);
#270=ORIENTED_EDGE('',*,*,#358,.T.);
#271=ORIENTED_EDGE('',*,*,#357,.F.);
#272=ORIENTED_EDGE('',*,*,#359,.T.);
#273=ORIENTED_EDGE('',*,*,#358,.F.);
#274=ORIENTED_EDGE('',*,*,#360,.T.);
#275=ORIENTED_EDGE('',*,*,#359,.F.);
#276=ORIENTED_EDGE('',*,*,#361,.T.);
#277=ORIENTED_EDGE('',*,*,#360,.F.);
#278=ORIENTED_EDGE('',*,*,#362,.T.);
#279=ORIENTED_EDGE('',*,*,#361,.F.);
#280=ORIENTED_EDGE('',*,*,#363,.T.);
#281=ORIENTED_EDGE('',*,*,#362,.F.);
#282=ORIENTED_EDGE('',*,*,#364,.T.);
#283=ORIENTED_EDGE('',*,*,#363,.F.);
#284=ORIENTED_EDGE('',*,*,#365,.T.);
#285=ORIENTED_EDGE('',*,*,#364,.F.);
#286=ORIENTED_EDGE('',*,*,#366,.T.);
#287=ORIENTED_EDGE('',*,*,#365,.F.);
#288=ORIENTED_EDGE('',*,*,#355,.F.);
#289=ORIENTED_EDGE('',*,*,#367,.T.);
#290=ORIENTED_EDGE('',*,*,#366,.F.);
#291=ORIENTED_EDGE('',*,*,#368,.T.);
#292=ORIENTED_EDGE('',*,*,#367,.F.);
#293=ORIENTED_EDGE('',*,*,#368,.F.);
#294=ORIENTED_EDGE('',*,*,#369,.F.);
#295=ORIENTED_EDGE('',*,*,#370,.T.);
#296=ORIENTED_EDGE('',*,*,#371,.T.);
#297=ORIENTED_EDGE('',*,*,#372,.F.);
#298=ORIENTED_EDGE('',*,*,#373,.F.);
#299=ORIENTED_EDGE('',*,*,#374,.F.);
#300=ORIENTED_EDGE('',*,*,#375,.F.);
#301=ORIENTED_EDGE('',*,*,#373,.T.);
#302=ORIENTED_EDGE('',*,*,#376,.F.);
#303=ORIENTED_EDGE('',*,*,#375,.T.);
#304=ORIENTED_EDGE('',*,*,#377,.F.);
#305=ORIENTED_EDGE('',*,*,#376,.T.);
#306=ORIENTED_EDGE('',*,*,#378,.F.);
#307=ORIENTED_EDGE('',*,*,#377,.T.);
#308=ORIENTED_EDGE('',*,*,#379,.F.);
#309=ORIENTED_EDGE('',*,*,#378,.T.);
#310=ORIENTED_EDGE('',*,*,#371,.F.);
#311=ORIENTED_EDGE('',*,*,#379,.T.);
#312=ORIENTED_EDGE('',*,*,#380,.F.);
#313=ORIENTED_EDGE('',*,*,#372,.T.);
#314=ORIENTED_EDGE('',*,*,#381,.T.);
#315=ORIENTED_EDGE('',*,*,#374,.T.);
#316=ORIENTED_EDGE('',*,*,#381,.F.);
#317=ORIENTED_EDGE('',*,*,#369,.T.);
#318=ORIENTED_EDGE('',*,*,#382,.F.);
#319=ORIENTED_EDGE('',*,*,#380,.T.);
#320=ORIENTED_EDGE('',*,*,#383,.F.);
#321=ORIENTED_EDGE('',*,*,#382,.T.);
#322=ORIENTED_EDGE('',*,*,#370,.F.);
#323=ORIENTED_EDGE('',*,*,#383,.T.);
#324=VERTEX_POINT('',#600);
#325=VERTEX_POINT('',#602);
#326=VERTEX_POINT('',#605);
#327=VERTEX_POINT('',#608);
#328=VERTEX_POINT('',#611);
#329=VERTEX_POINT('',#614);
#330=VERTEX_POINT('',#617);
#331=VERTEX_POINT('',#620);
#332=VERTEX_POINT('',#623);
#333=VERTEX_POINT('',#626);
#334=VERTEX_POINT('',#629);
#335=VERTEX_POINT('',#632);
#336=VERTEX_POINT('',#635);
#337=VERTEX_POINT('',#639);
#338=VERTEX_POINT('',#642);
#339=VERTEX_POINT('',#646);
#340=VERTEX_POINT('',#649);
#341=VERTEX_POINT('',#652);
#342=VERTEX_POINT('',#654);
#343=VERTEX_POINT('',#658);
#344=VERTEX_POINT('',#660);
#345=VERTEX_POINT('',#664);
#346=VERTEX_POINT('',#668);
#347=VERTEX_POINT('',#672);
#348=VERTEX_POINT('',#676);
#349=VERTEX_POINT('',#680);
#350=VERTEX_POINT('',#686);
#351=VERTEX_POINT('',#690);
#352=VERTEX_POINT('',#696);
#353=VERTEX_POINT('',#700);
#354=EDGE_CURVE('',#324,#324,#384,.T.);
#355=EDGE_CURVE('',#325,#325,#385,.T.);
#356=EDGE_CURVE('',#326,#326,#386,.T.);
#357=EDGE_CURVE('',#327,#327,#387,.T.);
#358=EDGE_CURVE('',#328,#328,#388,.T.);
#359=EDGE_CURVE('',#329,#329,#389,.T.);
#360=EDGE_CURVE('',#330,#330,#390,.T.);
#361=EDGE_CURVE('',#331,#331,#391,.T.);
#362=EDGE_CURVE('',#332,#332,#392,.T.);
#363=EDGE_CURVE('',#333,#333,#393,.T.);
#364=EDGE_CURVE('',#334,#334,#394,.T.);
#365=EDGE_CURVE('',#335,#335,#395,.T.);
#366=EDGE_CURVE('',#336,#336,#396,.T.);
#367=EDGE_CURVE('',#337,#337,#397,.T.);
#368=EDGE_CURVE('',#338,#338,#398,.T.);
#369=EDGE_CURVE('',#339,#339,#399,.T.);
#370=EDGE_CURVE('',#340,#340,#400,.T.);
#371=EDGE_CURVE('',#341,#341,#401,.T.);
#372=EDGE_CURVE('',#342,#342,#402,.T.);
#373=EDGE_CURVE('',#343,#343,#403,.T.);
#374=EDGE_CURVE('',#344,#344,#404,.T.);
#375=EDGE_CURVE('',#345,#345,#405,.T.);
#376=EDGE_CURVE('',#346,#346,#406,.T.);
#377=EDGE_CURVE('',#347,#347,#408,.T.);
#378=EDGE_CURVE('',#348,#348,#409,.T.);
#379=EDGE_CURVE('',#349,#349,#410,.T.);
#380=EDGE_CURVE('',#350,#350,#412,.T.);
#381=EDGE_CURVE('',#351,#351,#413,.T.);
#382=EDGE_CURVE('',#352,#352,#414,.T.);
#383=EDGE_CURVE('',#353,#353,#415,.T.);
#384=CIRCLE('',#418,19.7499999999998);
#385=CIRCLE('',#419,18.7499999999997);
#386=CIRCLE('',#421,19.7499999999997);
#387=CIRCLE('',#423,19.8103073792138);
#388=CIRCLE('',#425,20.);
#389=CIRCLE('',#427,20.);
#390=CIRCLE('',#429,19.7636296694841);
#391=CIRCLE('',#431,19.7499999999998);
#392=CIRCLE('',#433,19.7499999999998);
#393=CIRCLE('',#435,20.2056692403838);
#394=CIRCLE('',#437,21.);
#395=CIRCLE('',#439,26.3);
#396=CIRCLE('',#441,27.);
#397=CIRCLE('',#444,27.);
#398=CIRCLE('',#446,25.);
#399=CIRCLE('',#449,0.0999999999999859);
#400=CIRCLE('',#451,1.0954389694471);
#401=CIRCLE('',#453,13.7949703212847);
#402=CIRCLE('',#454,13.1215274009379);
#403=CIRCLE('',#455,19.368605967353);
#404=CIRCLE('',#456,12.6751503318688);
#405=CIRCLE('',#457,26.5085963343485);
#406=CIRCLE('',#458,27.4272172741576);
#407=CIRCLE('',#459,1.2);
#408=CIRCLE('',#460,24.9469206654765);
#409=CIRCLE('',#461,20.2866887951927);
#410=CIRCLE('',#462,18.4506397000216);
#411=CIRCLE('',#463,1.2);
#412=CIRCLE('',#464,12.2420521972871);
#413=CIRCLE('',#465,7.206850380978);
#414=CIRCLE('',#466,7.27443085925387);
#415=CIRCLE('',#467,5.43902285021026);
#416=CIRCLE('',#468,1.2);
#417=AXIS2_PLACEMENT_3D('',#598,#469,#470);
#418=AXIS2_PLACEMENT_3D('',#599,#471,#472);
#419=AXIS2_PLACEMENT_3D('',#601,#473,#474);
#420=AXIS2_PLACEMENT_3D('',#603,#475,#476);
#421=AXIS2_PLACEMENT_3D('',#604,#477,#478);
#422=AXIS2_PLACEMENT_3D('',#606,#479,#480);
#423=AXIS2_PLACEMENT_3D('',#607,#481,#482);
#424=AXIS2_PLACEMENT_3D('',#609,#483,#484);
#425=AXIS2_PLACEMENT_3D('',#610,#485,#486);
#426=AXIS2_PLACEMENT_3D('',#612,#487,#488);
#427=AXIS2_PLACEMENT_3D('',#613,#489,#490);
#428=AXIS2_PLACEMENT_3D('',#615,#491,#492);
#429=AXIS2_PLACEMENT_3D('',#616,#493,#494);
#430=AXIS2_PLACEMENT_3D('',#618,#495,#496);
#431=AXIS2_PLACEMENT_3D('',#619,#497,#498);
#432=AXIS2_PLACEMENT_3D('',#621,#499,#500);
#433=AXIS2_PLACEMENT_3D('',#622,#501,#502);
#434=AXIS2_PLACEMENT_3D('',#624,#503,#504);
#435=AXIS2_PLACEMENT_3D('',#625,#505,#506);
#436=AXIS2_PLACEMENT_3D('',#627,#507,#508);
#437=AXIS2_PLACEMENT_3D('',#628,#509,#510);
#438=AXIS2_PLACEMENT_3D('',#630,#511,#512);
#439=AXIS2_PLACEMENT_3D('',#631,#513,#514);
#440=AXIS2_PLACEMENT_3D('',#633,#515,#516);
#441=AXIS2_PLACEMENT_3D('',#634,#517,#518);
#442=AXIS2_PLACEMENT_3D('',#636,#519,#520);
#443=AXIS2_PLACEMENT_3D('',#637,#521,#522);
#444=AXIS2_PLACEMENT_3D('',#638,#523,#524);
#445=AXIS2_PLACEMENT_3D('',#640,#525,#526);
#446=AXIS2_PLACEMENT_3D('',#641,#527,#528);
#447=AXIS2_PLACEMENT_3D('',#643,#529,#530);
#448=AXIS2_PLACEMENT_3D('',#644,#531,#532);
#449=AXIS2_PLACEMENT_3D('',#645,#533,#534);
#450=AXIS2_PLACEMENT_3D('',#647,#535,#536);
#451=AXIS2_PLACEMENT_3D('',#648,#537,#538);
#452=AXIS2_PLACEMENT_3D('',#650,#539,#540);
#453=AXIS2_PLACEMENT_3D('',#651,#541,#542);
#454=AXIS2_PLACEMENT_3D('',#653,#543,#544);
#455=AXIS2_PLACEMENT_3D('',#657,#547,#548);
#456=AXIS2_PLACEMENT_3D('',#659,#549,#550);
#457=AXIS2_PLACEMENT_3D('',#663,#553,#554);
#458=AXIS2_PLACEMENT_3D('',#667,#557,#558);
#459=AXIS2_PLACEMENT_3D('',#669,#559,#560);
#460=AXIS2_PLACEMENT_3D('',#671,#562,#563);
#461=AXIS2_PLACEMENT_3D('',#675,#566,#567);
#462=AXIS2_PLACEMENT_3D('',#679,#570,#571);
#463=AXIS2_PLACEMENT_3D('',#681,#572,#573);
#464=AXIS2_PLACEMENT_3D('',#685,#577,#578);
#465=AXIS2_PLACEMENT_3D('',#689,#581,#582);
#466=AXIS2_PLACEMENT_3D('',#695,#587,#588);
#467=AXIS2_PLACEMENT_3D('',#699,#591,#592);
#468=AXIS2_PLACEMENT_3D('',#701,#593,#594);
#469=DIRECTION('',(0.,0.,1.));
#470=DIRECTION('',(1.,0.,0.));
#471=DIRECTION('',(1.,0.,0.));
#472=DIRECTION('',(0.,0.,1.));
#473=DIRECTION('',(-1.,0.,0.));
#474=DIRECTION('',(0.,0.,1.));
#475=DIRECTION('',(-1.,0.,0.));
#476=DIRECTION('',(0.,0.,1.));
#477=DIRECTION('',(1.,0.,0.));
#478=DIRECTION('',(0.,0.,1.));
#479=DIRECTION('',(-1.,0.,0.));
#480=DIRECTION('',(0.,0.,1.));
#481=DIRECTION('',(1.,0.,0.));
#482=DIRECTION('',(0.,0.,1.));
#483=DIRECTION('',(-1.,0.,0.));
#484=DIRECTION('',(0.,0.,1.));
#485=DIRECTION('',(1.,0.,0.));
#486=DIRECTION('',(0.,0.,1.));
#487=DIRECTION('',(-1.,0.,0.));
#488=DIRECTION('',(0.,0.,1.));
#489=DIRECTION('',(1.,0.,0.));
#490=DIRECTION('',(0.,0.,1.));
#491=DIRECTION('',(-1.,0.,0.));
#492=DIRECTION('',(0.,0.,1.));
#493=DIRECTION('',(1.,0.,0.));
#494=DIRECTION('',(0.,0.,1.));
#495=DIRECTION('',(1.,0.,0.));
#496=DIRECTION('',(2.8917159358522E-16,0.,-1.));
#497=DIRECTION('',(1.,0.,0.));
#498=DIRECTION('',(0.,0.,1.));
#499=DIRECTION('',(-1.,0.,0.));
#500=DIRECTION('',(0.,0.,1.));
#501=DIRECTION('',(1.,0.,0.));
#502=DIRECTION('',(0.,0.,1.));
#503=DIRECTION('',(-1.,0.,0.));
#504=DIRECTION('',(0.,0.,1.));
#505=DIRECTION('',(1.,0.,0.));
#506=DIRECTION('',(0.,0.,1.));
#507=DIRECTION('',(-1.,0.,0.));
#508=DIRECTION('',(0.,0.,1.));
#509=DIRECTION('',(1.,0.,0.));
#510=DIRECTION('',(0.,0.,1.));
#511=DIRECTION('',(1.,0.,0.));
#512=DIRECTION('',(3.88974596893729E-18,0.,-1.));
#513=DIRECTION('',(1.,0.,0.));
#514=DIRECTION('',(0.,0.,1.));
#515=DIRECTION('',(-1.,0.,0.));
#516=DIRECTION('',(0.,0.,1.));
#517=DIRECTION('',(1.,0.,0.));
#518=DIRECTION('',(0.,0.,1.));
#519=DIRECTION('',(-1.,0.,0.));
#520=DIRECTION('',(0.,0.,1.));
#521=DIRECTION('',(-1.,0.,0.));
#522=DIRECTION('',(0.,0.,1.));
#523=DIRECTION('',(1.,0.,0.));
#524=DIRECTION('',(0.,0.,-1.));
#525=DIRECTION('',(-1.,0.,0.));
#526=DIRECTION('',(0.,0.,1.));
#527=DIRECTION('',(1.,0.,0.));
#528=DIRECTION('',(0.,0.,-1.));
#529=DIRECTION('',(1.,0.,0.));
#530=DIRECTION('',(0.,0.,-1.));
#531=DIRECTION('',(1.,0.,0.));
#532=DIRECTION('',(0.,0.,-1.));
#533=DIRECTION('',(1.,0.,0.));
#534=DIRECTION('',(0.,0.,-1.));
#535=DIRECTION('',(1.,0.,0.));
#536=DIRECTION('',(0.,0.,-1.));
#537=DIRECTION('',(1.,0.,0.));
#538=DIRECTION('',(0.,0.,-1.));
#539=DIRECTION('',(1.,0.,0.));
#540=DIRECTION('',(0.,0.,-1.));
#541=DIRECTION('',(1.,0.,0.));
#542=DIRECTION('',(0.,0.,-1.));
#543=DIRECTION('',(1.,0.,0.));
#544=DIRECTION('',(0.,0.,-1.));
#545=DIRECTION('',(-0.939692620785909,0.342020143325667,0.));
#546=DIRECTION('',(1.,0.,0.));
#547=DIRECTION('',(1.,0.,0.));
#548=DIRECTION('',(0.,0.,-1.));
#549=DIRECTION('',(-1.,0.,0.));
#550=DIRECTION('',(0.,0.,-1.));
#551=DIRECTION('',(-0.173648177666929,-0.984807753012208,0.));
#552=DIRECTION('',(1.,0.,0.));
#553=DIRECTION('',(1.,0.,0.));
#554=DIRECTION('',(0.,0.,-1.));
#555=DIRECTION('',(0.173648177666931,-0.984807753012208,0.));
#556=DIRECTION('',(1.,0.,0.));
#557=DIRECTION('',(1.,0.,0.));
#558=DIRECTION('',(0.,0.,-1.));
#559=DIRECTION('',(0.,0.,1.));
#560=DIRECTION('',(0.939692620785908,0.342020143325669,0.));
#561=DIRECTION('',(1.,0.,0.));
#562=DIRECTION('',(1.,0.,0.));
#563=DIRECTION('',(0.,0.,-1.));
#564=DIRECTION('',(0.939692620785907,0.342020143325672,0.));
#565=DIRECTION('',(1.,0.,0.));
#566=DIRECTION('',(1.,0.,0.));
#567=DIRECTION('',(0.,0.,-1.));
#568=DIRECTION('',(0.766044443118979,0.642787609686538,0.));
#569=DIRECTION('',(1.,0.,0.));
#570=DIRECTION('',(1.,0.,0.));
#571=DIRECTION('',(0.,0.,-1.));
#572=DIRECTION('',(0.,0.,1.));
#573=DIRECTION('',(0.939692620785908,0.342020143325669,0.));
#574=DIRECTION('',(1.,0.,0.));
#575=DIRECTION('',(-0.766044443118978,0.642787609686539,0.));
#576=DIRECTION('',(1.,0.,0.));
#577=DIRECTION('',(1.,0.,0.));
#578=DIRECTION('',(0.,0.,-1.));
#579=DIRECTION('',(0.919135339255234,-0.39340202589514,-0.0206173265426139));
#580=DIRECTION('',(1.,0.,0.));
#581=DIRECTION('',(1.,0.,0.));
#582=DIRECTION('',(0.,0.,-1.));
#583=DIRECTION('',(0.228350870110656,0.972244646823092,0.0509531828598228));
#584=DIRECTION('',(1.,0.,0.));
#585=DIRECTION('',(-0.118403968306501,0.99160468338777,0.0519677993830161));
#586=DIRECTION('',(1.,0.,0.));
#587=DIRECTION('',(1.,0.,0.));
#588=DIRECTION('',(0.,0.,-1.));
#589=DIRECTION('',(0.728968627421411,-0.683608957911157,-0.0358264273821177));
#590=DIRECTION('',(1.,0.,0.));
#591=DIRECTION('',(1.,0.,0.));
#592=DIRECTION('',(0.,0.,-1.));
#593=DIRECTION('',(-1.66533453693773E-16,0.0523359562429437,-0.998629534754574));
#594=DIRECTION('',(0.957319497532067,0.288635688911936,0.0151267554777051));
#595=DIRECTION('',(1.,0.,0.));
#596=DIRECTION('',(-0.800731370948733,-0.59820265749263,-0.0313504728404022));
#597=DIRECTION('',(1.,0.,0.));
#598=CARTESIAN_POINT('',(0.,0.,0.));
#599=CARTESIAN_POINT('',(266.,0.,0.));
#600=CARTESIAN_POINT('',(266.,0.,19.7499999999998));
#601=CARTESIAN_POINT('',(267.,0.,0.));
#602=CARTESIAN_POINT('',(267.,0.,18.7499999999997));
#603=CARTESIAN_POINT('',(266.,0.,0.));
#604=CARTESIAN_POINT('',(264.176326980708,0.,0.));
#605=CARTESIAN_POINT('',(264.176326980708,0.,19.7499999999997));
#606=CARTESIAN_POINT('',(0.,0.,0.));
#607=CARTESIAN_POINT('',(263.834306837383,0.,0.));
#608=CARTESIAN_POINT('',(263.834306837383,0.,19.8103073792138));
#609=CARTESIAN_POINT('',(264.176326980708,0.,0.));
#610=CARTESIAN_POINT('',(263.313130645136,0.,0.));
#611=CARTESIAN_POINT('',(263.313130645136,0.,20.));
#612=CARTESIAN_POINT('',(263.834306837383,0.,0.));
#613=CARTESIAN_POINT('',(199.,0.,0.));
#614=CARTESIAN_POINT('',(199.,0.,20.));
#615=CARTESIAN_POINT('',(0.,0.,0.));
#616=CARTESIAN_POINT('',(198.117853917113,0.,0.));
#617=CARTESIAN_POINT('',(198.117853917113,0.,19.7636296694841));
#618=CARTESIAN_POINT('',(199.,0.,0.));
#619=CARTESIAN_POINT('',(198.014326299072,0.,0.));
#620=CARTESIAN_POINT('',(198.014326299072,0.,19.7499999999998));
#621=CARTESIAN_POINT('',(198.014326299072,0.,0.));
#622=CARTESIAN_POINT('',(197.28447131951,0.,0.));
#623=CARTESIAN_POINT('',(197.28447131951,0.,19.7499999999998));
#624=CARTESIAN_POINT('',(0.,0.,0.));
#625=CARTESIAN_POINT('',(196.888364092014,0.,0.));
#626=CARTESIAN_POINT('',(196.888364092014,0.,20.2056692403838));
#627=CARTESIAN_POINT('',(197.28447131951,0.,0.));
#628=CARTESIAN_POINT('',(197.,0.,0.));
#629=CARTESIAN_POINT('',(197.,0.,21.));
#630=CARTESIAN_POINT('',(196.888364092014,0.,0.));
#631=CARTESIAN_POINT('',(197.,0.,0.));
#632=CARTESIAN_POINT('',(197.,0.,26.3));
#633=CARTESIAN_POINT('',(197.,21.,0.));
#634=CARTESIAN_POINT('',(196.587298334621,0.,0.));
#635=CARTESIAN_POINT('',(196.587298334621,0.,27.));
#636=CARTESIAN_POINT('',(196.2,0.,0.));
#637=CARTESIAN_POINT('',(267.,27.5000000000003,0.));
#638=CARTESIAN_POINT('',(3.85,0.,0.));
#639=CARTESIAN_POINT('',(3.85,0.,-27.));
#640=CARTESIAN_POINT('',(0.,0.,0.));
#641=CARTESIAN_POINT('',(1.85,0.,0.));
#642=CARTESIAN_POINT('',(1.85,0.,-25.));
#643=CARTESIAN_POINT('',(3.85,0.,0.));
#644=CARTESIAN_POINT('',(1.85,24.5701319068473,0.));
#645=CARTESIAN_POINT('',(0.859282146619116,0.,0.));
#646=CARTESIAN_POINT('',(0.859282146619116,0.,-0.0999999999999859));
#647=CARTESIAN_POINT('',(0.859282146619116,0.,0.));
#648=CARTESIAN_POINT('',(9.34514498670825,0.,0.));
#649=CARTESIAN_POINT('',(9.34514498670825,0.,-1.0954389694471));
#650=CARTESIAN_POINT('',(9.34514498670825,0.,0.));
#651=CARTESIAN_POINT('',(9.77193847821178,0.,0.));
#652=CARTESIAN_POINT('',(9.77193847821178,0.,-13.7949703212847));
#653=CARTESIAN_POINT('',(7.91653704075296,0.,0.));
#654=CARTESIAN_POINT('',(7.91653704075296,0.,-13.1215274009379));
#655=CARTESIAN_POINT('',(9.77193847821178,-13.7586774860495,1.00000000000001));
#656=CARTESIAN_POINT('',(2.85,0.,0.));
#657=CARTESIAN_POINT('',(0.100000000000016,0.,0.));
#658=CARTESIAN_POINT('',(0.100000000000016,0.,-19.368605967353));
#659=CARTESIAN_POINT('',(1.28264838365005,0.,0.));
#660=CARTESIAN_POINT('',(1.28264838365005,0.,-12.6751503318688));
#661=CARTESIAN_POINT('',(1.28264838365005,-12.6356414928358,1.00000000000001));
#662=CARTESIAN_POINT('',(2.85,0.,0.));
#663=CARTESIAN_POINT('',(1.3602008276943,0.,0.));
#664=CARTESIAN_POINT('',(1.3602008276943,0.,-26.5085963343485));
#665=CARTESIAN_POINT('',(0.100000000000017,-19.3427737700306,1.00000000000001));
#666=CARTESIAN_POINT('',(2.85,0.,0.));
#667=CARTESIAN_POINT('',(2.95239430329974,0.,0.));
#668=CARTESIAN_POINT('',(2.95239430329974,0.,-27.4272172741576));
#669=CARTESIAN_POINT('',(2.54197013130895,-26.2813500000001,1.00000000000001));
#670=CARTESIAN_POINT('',(2.85,0.,0.));
#671=CARTESIAN_POINT('',(9.77193847821177,0.,0.));
#672=CARTESIAN_POINT('',(9.77193847821177,0.,-24.9469206654765));
#673=CARTESIAN_POINT('',(2.9523943032997,-27.4089811449431,1.00000000000001));
#674=CARTESIAN_POINT('',(2.85,0.,0.));
#675=CARTESIAN_POINT('',(15.3312818254295,0.,0.));
#676=CARTESIAN_POINT('',(15.3312818254295,0.,-20.2866887951927));
#677=CARTESIAN_POINT('',(9.77193847821177,-24.9268700540116,1.00000000000001));
#678=CARTESIAN_POINT('',(2.85,0.,0.));
#679=CARTESIAN_POINT('',(15.3312818254296,0.,0.));
#680=CARTESIAN_POINT('',(15.3312818254296,0.,-18.4506397000216));
#681=CARTESIAN_POINT('',(14.5599366938058,-19.3427737700307,1.00000000000001));
#682=CARTESIAN_POINT('',(2.85,0.,0.));
#683=CARTESIAN_POINT('',(15.3312818254296,-18.4235204382879,1.00000000000001));
#684=CARTESIAN_POINT('',(2.85,0.,0.));
#685=CARTESIAN_POINT('',(9.96857030390537,0.,0.));
#686=CARTESIAN_POINT('',(9.96857030390537,0.,-12.2420521972871));
#687=CARTESIAN_POINT('',(7.91653704075296,13.0979306715387,0.786570694298352));
#688=CARTESIAN_POINT('',(2.85,0.,0.));
#689=CARTESIAN_POINT('',(-6.50521303491303E-15,0.,0.));
#690=CARTESIAN_POINT('',(-6.50521303491303E-15,0.,-7.206850380978));
#691=CARTESIAN_POINT('',(-5.03230231927678E-15,7.19104718048409,0.477004048048523));
#692=CARTESIAN_POINT('',(2.85,0.,0.));
#693=CARTESIAN_POINT('',(0.859282146619116,-0.00523359562429364,0.0998629534754433));
#694=CARTESIAN_POINT('',(2.85,0.,0.));
#695=CARTESIAN_POINT('',(15.2588467697008,0.,0.));
#696=CARTESIAN_POINT('',(15.2588467697008,0.,-7.27443085925387));
#697=CARTESIAN_POINT('',(9.96857030390537,12.2196334192728,0.740541085756698));
#698=CARTESIAN_POINT('',(2.85,0.,0.));
#699=CARTESIAN_POINT('',(15.156218560805,0.,0.));
#700=CARTESIAN_POINT('',(15.156218560805,0.,-5.43902285021026));
#701=CARTESIAN_POINT('',(14.4373902425863,6.3849779580015,0.434759750149801));
#702=CARTESIAN_POINT('',(2.85,0.,0.));
#703=CARTESIAN_POINT('',(15.156218560805,5.42541716228079,0.384471299759011));
#704=CARTESIAN_POINT('',(2.85,0.,0.));
#705=(
GEOMETRIC_REPRESENTATION_CONTEXT(3)
GLOBAL_UNCERTAINTY_ASSIGNED_CONTEXT((#706))
GLOBAL_UNIT_ASSIGNED_CONTEXT((#712,#708,#707))
REPRESENTATION_CONTEXT('ATUM-55XD3-WCM-080412-light',
'TOP_LEVEL_ASSEMBLY_PART')
);
#706=UNCERTAINTY_MEASURE_WITH_UNIT(LENGTH_MEASURE(2.E-5),#712,
'DISTANCE_ACCURACY_VALUE','Maximum Tolerance applied to model');
#707=(
NAMED_UNIT(*)
SI_UNIT($,.STERADIAN.)
SOLID_ANGLE_UNIT()
);
#708=(
CONVERSION_BASED_UNIT('DEGREE',#710)
NAMED_UNIT(#709)
PLANE_ANGLE_UNIT()
);
#709=DIMENSIONAL_EXPONENTS(0.,0.,0.,0.,0.,0.,0.);
#710=PLANE_ANGLE_MEASURE_WITH_UNIT(PLANE_ANGLE_MEASURE(0.0174532925),#711);
#711=(
NAMED_UNIT(*)
PLANE_ANGLE_UNIT()
SI_UNIT($,.RADIAN.)
);
#712=(
LENGTH_UNIT()
NAMED_UNIT(*)
SI_UNIT(.MILLI.,.METRE.)
);
ENDSEC;
END-ISO-10303-21;
